  0
SECTION
  2
HEADER
  9
$ACADVER
  1
AC1015
  9
$ACADMAINTVER
 70
     6
  9
$DWGCODEPAGE
  3
DOS932
  9
$INSBASE
 10
0.0
 20
0.0
 30
0.0
  9
$EXTMIN
 10
0.0
 20
0.0
 30
0.0
  9
$EXTMAX
 10
297.0
 20
210.0
 30
0.0
  9
$LIMMIN
 10
0.0
 20
0.0
  9
$LIMMAX
 10
0.0
 20
0.0
  9
$ORTHOMODE
 70
     0
  9
$REGENMODE
 70
     1
  9
$FILLMODE
 70
     1
  9
$QTEXTMODE
 70
     0
  9
$MIRRTEXT
 70
     1
  9
$LTSCALE
 40
1.0
  9
$ATTMODE
 70
     1
  9
$TEXTSIZE
 40
3.5
  9
$TRACEWID
 40
1.0
  9
$TEXTSTYLE
  7
Standard
  9
$CLAYER
  8
0
  9
$CELTYPE
  6
ByLayer
  9
$CECOLOR
 62
   256
  9
$CELTSCALE
 40
1.0
  9
$DISPSILH
 70
     0
  9
$DIMSCALE
 40
1.0
  9
$DIMASZ
 40
3.0
  9
$DIMEXO
 40
1.0
  9
$DIMDLI
 40
3.75
  9
$DIMRND
 40
0.0
  9
$DIMDLE
 40
0.0
  9
$DIMEXE
 40
1.0
  9
$DIMTP
 40
0.0
  9
$DIMTM
 40
0.0
  9
$DIMTXT
 40
3.5
  9
$DIMCEN
 40
2.5
  9
$DIMTSZ
 40
0.0
  9
$DIMTOL
 70
     0
  9
$DIMLIM
 70
     0
  9
$DIMTIH
 70
     1
  9
$DIMTOH
 70
     1
  9
$DIMSE1
 70
     0
  9
$DIMSE2
 70
     0
  9
$DIMTAD
 70
     1
  9
$DIMZIN
 70
     0
  9
$DIMBLK
  1

  9
$DIMASO
 70
     1
  9
$DIMSHO
 70
     1
  9
$DIMPOST
  1

  9
$DIMAPOST
  1

  9
$DIMALT
 70
     0
  9
$DIMALTD
 70
     3
  9
$DIMALTF
 40
0.0393700787
  9
$DIMLFAC
 40
1.0
  9
$DIMTOFL
 70
     1
  9
$DIMTVP
 40
0.0
  9
$DIMTIX
 70
     0
  9
$DIMSOXD
 70
     0
  9
$DIMSAH
 70
     0
  9
$DIMBLK1
  1

  9
$DIMBLK2
  1

  9
$DIMSTYLE
  2
ISO-25
  9
$DIMCLRD
 70
     0
  9
$DIMCLRE
 70
     0
  9
$DIMCLRT
 70
     0
  9
$DIMTFAC
 40
1.0
  9
$DIMGAP
 40
1.524
  9
$DIMJUST
 70
     0
  9
$DIMSD1
 70
     0
  9
$DIMSD2
 70
     0
  9
$DIMTOLJ
 70
     0
  9
$DIMTZIN
 70
     0
  9
$DIMALTZ
 70
     0
  9
$DIMALTTZ
 70
     0
  9
$DIMUPT
 70
     0
  9
$DIMDEC
 70
     2
  9
$DIMTDEC
 70
     2
  9
$DIMALTU
 70
     2
  9
$DIMALTTD
 70
     3
  9
$DIMTXSTY
  7
Standard
  9
$DIMAUNIT
 70
     0
  9
$DIMADEC
 70
     0
  9
$DIMALTRND
 40
0.0
  9
$DIMAZIN
 70
     0
  9
$DIMDSEP
 70
    44
  9
$DIMATFIT
 70
     3
  9
$DIMFRAC
 70
     0
  9
$DIMLDRBLK
  1

  9
$DIMLUNIT
 70
     2
  9
$DIMLWD
 70
    -2
  9
$DIMLWE
 70
    -2
  9
$DIMTMOVE
 70
     0
  9
$LUNITS
 70
     2
  9
$LUPREC
 70
     4
  9
$SKETCHINC
 40
1.0
  9
$FILLETRAD
 40
10.0
  9
$AUNITS
 70
     0
  9
$AUPREC
 70
     0
  9
$MENU
  1
.
  9
$ELEVATION
 40
0.0
  9
$PELEVATION
 40
0.0
  9
$THICKNESS
 40
0.0
  9
$LIMCHECK
 70
     0
  9
$CHAMFERA
 40
10.0
  9
$CHAMFERB
 40
10.0
  9
$CHAMFERC
 40
20.0
  9
$CHAMFERD
 40
0.0
  9
$SKPOLY
 70
     0
  9
$TDCREATE
 40
2455860.75095956
  9
$TDUCREATE
 40
2455860.37595956
  9
$TDUPDATE
 40
2455860.750959572
  9
$TDUUPDATE
 40
2455860.375959572
  9
$TDINDWG
 40
0.0000000116
  9
$TDUSRTIMER
 40
0.0000000116
  9
$USRTIMER
 70
     1
  9
$ANGBASE
 50
0.0
  9
$ANGDIR
 70
     0
  9
$PDMODE
 70
     0
  9
$PDSIZE
 40
-1.0
  9
$PLINEWID
 40
0.0
  9
$SPLFRAME
 70
     0
  9
$SPLINETYPE
 70
     6
  9
$SPLINESEGS
 70
     8
  9
$HANDSEED
  5
400
  9
$SURFTAB1
 70
     6
  9
$SURFTAB2
 70
     6
  9
$SURFTYPE
 70
     6
  9
$SURFU
 70
     6
  9
$SURFV
 70
     6
  9
$UCSBASE
  2

  9
$UCSNAME
  2

  9
$UCSORG
 10
0.0
 20
0.0
 30
0.0
  9
$UCSXDIR
 10
1.0
 20
0.0
 30
0.0
  9
$UCSYDIR
 10
0.0
 20
1.0
 30
0.0
  9
$UCSORTHOREF
  2

  9
$UCSORTHOVIEW
 70
     0
  9
$UCSORGTOP
 10
0.0
 20
0.0
 30
0.0
  9
$UCSORGBOTTOM
 10
0.0
 20
0.0
 30
0.0
  9
$UCSORGLEFT
 10
0.0
 20
0.0
 30
0.0
  9
$UCSORGRIGHT
 10
0.0
 20
0.0
 30
0.0
  9
$UCSORGFRONT
 10
0.0
 20
0.0
 30
0.0
  9
$UCSORGBACK
 10
0.0
 20
0.0
 30
0.0
  9
$PUCSBASE
  2

  9
$PUCSNAME
  2

  9
$PUCSORG
 10
0.0
 20
0.0
 30
0.0
  9
$PUCSXDIR
 10
1.0
 20
0.0
 30
0.0
  9
$PUCSYDIR
 10
0.0
 20
1.0
 30
0.0
  9
$PUCSORTHOREF
  2

  9
$PUCSORTHOVIEW
 70
     0
  9
$PUCSORGTOP
 10
0.0
 20
0.0
 30
0.0
  9
$PUCSORGBOTTOM
 10
0.0
 20
0.0
 30
0.0
  9
$PUCSORGLEFT
 10
0.0
 20
0.0
 30
0.0
  9
$PUCSORGRIGHT
 10
0.0
 20
0.0
 30
0.0
  9
$PUCSORGFRONT
 10
0.0
 20
0.0
 30
0.0
  9
$PUCSORGBACK
 10
0.0
 20
0.0
 30
0.0
  9
$USERI1
 70
     0
  9
$USERI2
 70
     0
  9
$USERI3
 70
     0
  9
$USERI4
 70
     0
  9
$USERI5
 70
     0
  9
$USERR1
 40
0.0
  9
$USERR2
 40
0.0
  9
$USERR3
 40
0.0
  9
$USERR4
 40
0.0
  9
$USERR5
 40
0.0
  9
$WORLDVIEW
 70
     1
  9
$SHADEDGE
 70
     3
  9
$SHADEDIF
 70
    70
  9
$TILEMODE
 70
     1
  9
$MAXACTVP
 70
    64
  9
$PINSBASE
 10
0.0
 20
0.0
 30
0.0
  9
$PLIMCHECK
 70
     0
  9
$PEXTMIN
 10
1.0000000000E+20
 20
1.0000000000E+20
 30
1.0000000000E+20
  9
$PEXTMAX
 10
-1.0000000000E+20
 20
-1.0000000000E+20
 30
-1.0000000000E+20
  9
$PLIMMIN
 10
0.0
 20
0.0
  9
$PLIMMAX
 10
420.0
 20
297.0
  9
$UNITMODE
 70
     0
  9
$VISRETAIN
 70
     1
  9
$PLINEGEN
 70
     0
  9
$PSLTSCALE
 70
     1
  9
$TREEDEPTH
 70
  3020
  9
$CMLSTYLE
  2
Standard
  9
$CMLJUST
 70
     0
  9
$CMLSCALE
 40
20.0
  9
$PROXYGRAPHICS
 70
     1
  9
$MEASUREMENT
 70
     1
  9
$CELWEIGHT
370
    -1
  9
$ENDCAPS
280
     0
  9
$JOINSTYLE
280
     0
  9
$LWDISPLAY
290
     1
  9
$INSUNITS
 70
     4
  9
$HYPERLINKBASE
  1

  9
$STYLESHEET
  1

  9
$XEDIT
290
     1
  9
$CEPSNTYPE
380
     0
  9
$PSTYLEMODE
290
     1
  9
$FINGERPRINTGUID
  2
{AAFFEECF-1182-43B2-9DCB-FA2B990FD418}
  9
$VERSIONGUID
  2
{FAEB1C32-E019-11D5-929B-00C0DF256EC4}
  9
$EXTNAMES
290
     1
  9
$PSVPSCALE
 40
0.0
  9
$OLESTARTUP
290
     0
  0
ENDSEC
  0
SECTION
  2
CLASSES
  0
CLASS
  1
ACDBDICTIONARYWDFLT
  2
AcDbDictionaryWithDefault
  3
ObjectDBX Classes
 90
        0
280
     0
281
     0
  0
CLASS
  1
ACDBPLACEHOLDER
  2
AcDbPlaceHolder
  3
ObjectDBX Classes
 90
        0
280
     0
281
     0
  0
CLASS
  1
LAYOUT
  2
AcDbLayout
  3
ObjectDBX Classes
 90
        0
280
     0
281
     0
  0
ENDSEC
  0
SECTION
  2
TABLES
  0
TABLE
  2
VPORT
  5
8
330
0
100
AcDbSymbolTable
 70
     1
  0
VPORT
  5
29
330
8
100
AcDbSymbolTableRecord
100
AcDbViewportTableRecord
  2
*Active
 70
     0
 10
0.0
 20
0.0
 11
1.0
 21
1.0
 12
148.5
 22
105.0
 13
0.0
 23
0.0
 14
10.0
 24
10.0
 15
10.0
 25
10.0
 16
0.0
 26
0.0
 36
1.0
 17
0.0
 27
0.0
 37
0.0
 40
210.0
 41
1.4142857143
 42
50.0
 43
0.0
 44
0.0
 50
0.0
 51
0.0
 71
     0
 72
  2000
 73
     1
 74
     3
 75
     0
 76
     0
 77
     0
 78
     0
281
     0
 65
     1
110
0.0
120
0.0
130
0.0
111
1.0
121
0.0
131
0.0
112
0.0
122
1.0
132
0.0
 79
     0
146
0.0
  0
ENDTAB
  0
TABLE
  2
LTYPE
  5
5
330
0
100
AcDbSymbolTable
 70
     6
  0
LTYPE
  5
14
330
5
100
AcDbSymbolTableRecord
100
AcDbLinetypeTableRecord
  2
ByBlock
 70
     0
  3

 72
    65
 73
     0
 40
0.0
  0
LTYPE
  5
15
330
5
100
AcDbSymbolTableRecord
100
AcDbLinetypeTableRecord
  2
ByLayer
 70
     0
  3

 72
    65
 73
     0
 40
0.0
  0
LTYPE
  5
16
330
5
100
AcDbSymbolTableRecord
100
AcDbLinetypeTableRecord
  2
Continuous
 70
     0
  3
Solid line
 72
    65
 73
     0
 40
0.0
  0
LTYPE
  5
2A
330
5
100
AcDbSymbolTableRecord
100
AcDbLinetypeTableRecord
  2
HIDDEN
 70
     0
  3
Hidden __ __ __ __ __ __ __ __ __ __ __ __ __ __
 72
    65
 73
     2
 40
1.905
 49
1.27
 74
     0
 49
-0.635
 74
     0
  0
LTYPE
  5
2B
330
5
100
AcDbSymbolTableRecord
100
AcDbLinetypeTableRecord
  2
PHANTOM
 70
     0
  3
Phantom ______  __  __  ______  __  __  ______
 72
    65
 73
     6
 40
12.7
 49
6.35
 74
     0
 49
-1.27
 74
     0
 49
1.27
 74
     0
 49
-1.27
 74
     0
 49
1.27
 74
     0
 49
-1.27
 74
     0
  0
LTYPE
  5
2C
330
5
100
AcDbSymbolTableRecord
100
AcDbLinetypeTableRecord
  2
CENTER
 70
     0
  3
Center ____ _ ____ _ ____ _ ____ _ ____ _ ____
 72
    65
 73
     4
 40
10.16
 49
6.35
 74
     0
 49
-1.27
 74
     0
 49
1.27
 74
     0
 49
-1.27
 74
     0
  0
LTYPE
  5
2D
330
5
100
AcDbSymbolTableRecord
100
AcDbLinetypeTableRecord
  2
CENTERX2
 70
     0
  3
Center (2x) ________  __  ________  __  _____
 72
    65
 73
     4
 40
20.32
 49
12.7
 74
     0
 49
-2.54
 74
     0
 49
2.54
 74
     0
 49
-2.54
 74
     0
  0
LTYPE
  5
2E
330
5
100
AcDbSymbolTableRecord
100
AcDbLinetypeTableRecord
  2
DOT2
 70
     0
  3
Dot (.5x) ........................................
 72
    65
 73
     2
 40
0.635
 49
0.0
 74
     0
 49
-0.635
 74
     0
  0
ENDTAB
  0
TABLE
  2
LAYER
  5
2
330
0
100
AcDbSymbolTable
 70
   257
  0
LAYER
  5
10
330
2
100
AcDbSymbolTableRecord
100
AcDbLayerTableRecord
  2
0
 70
     0
 62
     7
  6
Continuous
370
    -3
390
F
  0
LAYER
  5
2F
330
2
100
AcDbSymbolTableRecord
100
AcDbLayerTableRecord
  2
SLD-0
 70
     0
 62
     7
  6
Continuous
370
    -3
390
F
  0
LAYER
  5
30
330
2
100
AcDbSymbolTableRecord
100
AcDbLayerTableRecord
  2
HASEN
 70
     0
 62
   240
  6
HIDDEN
370
    -3
390
F
  0
LAYER
  5
31
330
2
100
AcDbSymbolTableRecord
100
AcDbLayerTableRecord
  2
ITTEN
 70
     0
 62
   240
  6
Continuous
370
    -3
390
F
  0
LAYER
  5
32
330
2
100
AcDbSymbolTableRecord
100
AcDbLayerTableRecord
  2
NITEN
 70
     0
 62
   240
  6
Continuous
370
    -3
390
F
  0
LAYER
  5
33
330
2
100
AcDbSymbolTableRecord
100
AcDbLayerTableRecord
  2
HATCH
 70
     0
 62
    30
  6
Continuous
370
    -3
390
F
  0
LAYER
  5
34
330
2
100
AcDbSymbolTableRecord
100
AcDbLayerTableRecord
  2
SUNPOU
 70
     0
 62
    17
  6
Continuous
370
    -3
390
F
  0
LAYER
  5
35
330
2
100
AcDbSymbolTableRecord
100
AcDbLayerTableRecord
  2
TEXT
 70
     0
 62
    17
  6
Continuous
370
    -3
390
F
  0
LAYER
  5
36
330
2
100
AcDbSymbolTableRecord
100
AcDbLayerTableRecord
  2
SAISEN
 70
     0
 62
   240
  6
Continuous
370
    -3
390
F
  0
LAYER
  5
37
330
2
100
AcDbSymbolTableRecord
100
AcDbLayerTableRecord
  2
JISSEN
 70
     0
 62
   160
  6
Continuous
370
    -3
390
F
  0
LAYER
  5
38
330
2
100
AcDbSymbolTableRecord
100
AcDbLayerTableRecord
  2
HOJO
 70
     0
 62
     6
  6
Continuous
370
    -3
390
F
  0
LAYER
  5
39
330
2
100
AcDbSymbolTableRecord
100
AcDbLayerTableRecord
  2
TENSEN
 70
     0
 62
   240
  6
Continuous
370
    -3
390
F
  0
LAYER
  5
3A
330
2
100
AcDbSymbolTableRecord
100
AcDbLayerTableRecord
  2
HOJOORG
 70
     0
 62
     1
  6
Continuous
370
    -3
390
F
  0
LAYER
  5
3B
330
2
100
AcDbSymbolTableRecord
100
AcDbLayerTableRecord
  2
WAKU
 70
     0
 62
    17
  6
Continuous
370
    -3
390
F
  0
LAYER
  5
3C
330
2
100
AcDbSymbolTableRecord
100
AcDbLayerTableRecord
  2
POINT
 70
     0
 62
     7
  6
Continuous
370
    -3
390
F
  0
LAYER
  5
3D
330
2
100
AcDbSymbolTableRecord
100
AcDbLayerTableRecord
  2
JISSEN6
 70
     0
 62
    82
  6
Continuous
370
    -3
390
F
  0
LAYER
  5
3E
330
2
100
AcDbSymbolTableRecord
100
AcDbLayerTableRecord
  2
VIEWPORT
 70
     0
 62
   236
  6
Continuous
370
    -3
390
F
  0
LAYER
  5
3F
330
2
100
AcDbSymbolTableRecord
100
AcDbLayerTableRecord
  2
SLD-DEFPOINTS
 70
     0
 62
     7
  6
Continuous
370
    -3
390
F
  0
LAYER
  5
40
330
2
100
AcDbSymbolTableRecord
100
AcDbLayerTableRecord
  2
画層17
 70
     0
 62
    70
  6
Continuous
370
    -3
390
F
  0
LAYER
  5
41
330
2
100
AcDbSymbolTableRecord
100
AcDbLayerTableRecord
  2
画層18
 70
     0
 62
   211
  6
Continuous
370
    -3
390
F
  0
LAYER
  5
42
330
2
100
AcDbSymbolTableRecord
100
AcDbLayerTableRecord
  2
画層19
 70
     0
 62
   137
  6
Continuous
370
    -3
390
F
  0
LAYER
  5
43
330
2
100
AcDbSymbolTableRecord
100
AcDbLayerTableRecord
  2
画層20
 70
     0
 62
     4
  6
Continuous
370
    -3
390
F
  0
LAYER
  5
44
330
2
100
AcDbSymbolTableRecord
100
AcDbLayerTableRecord
  2
画層21
 70
     0
 62
   131
  6
Continuous
370
    -3
390
F
  0
LAYER
  5
45
330
2
100
AcDbSymbolTableRecord
100
AcDbLayerTableRecord
  2
画層22
 70
     0
 62
     4
  6
Continuous
370
    -3
390
F
  0
LAYER
  5
46
330
2
100
AcDbSymbolTableRecord
100
AcDbLayerTableRecord
  2
画層23
 70
     0
 62
     4
  6
Continuous
370
    -3
390
F
  0
LAYER
  5
47
330
2
100
AcDbSymbolTableRecord
100
AcDbLayerTableRecord
  2
画層24
 70
     0
 62
     7
  6
Continuous
370
    -3
390
F
  0
LAYER
  5
48
330
2
100
AcDbSymbolTableRecord
100
AcDbLayerTableRecord
  2
画層25
 70
     0
 62
     7
  6
Continuous
370
    -3
390
F
  0
LAYER
  5
49
330
2
100
AcDbSymbolTableRecord
100
AcDbLayerTableRecord
  2
画層26
 70
     0
 62
     7
  6
Continuous
370
    -3
390
F
  0
LAYER
  5
4A
330
2
100
AcDbSymbolTableRecord
100
AcDbLayerTableRecord
  2
画層27
 70
     0
 62
     7
  6
Continuous
370
    -3
390
F
  0
LAYER
  5
4B
330
2
100
AcDbSymbolTableRecord
100
AcDbLayerTableRecord
  2
画層28
 70
     0
 62
     7
  6
Continuous
370
    -3
390
F
  0
LAYER
  5
4C
330
2
100
AcDbSymbolTableRecord
100
AcDbLayerTableRecord
  2
画層29
 70
     0
 62
     7
  6
Continuous
370
    -3
390
F
  0
LAYER
  5
4D
330
2
100
AcDbSymbolTableRecord
100
AcDbLayerTableRecord
  2
画層30
 70
     0
 62
     7
  6
Continuous
370
    -3
390
F
  0
LAYER
  5
4E
330
2
100
AcDbSymbolTableRecord
100
AcDbLayerTableRecord
  2
画層31
 70
     0
 62
     7
  6
Continuous
370
    -3
390
F
  0
LAYER
  5
4F
330
2
100
AcDbSymbolTableRecord
100
AcDbLayerTableRecord
  2
画層32
 70
     0
 62
     7
  6
Continuous
370
    -3
390
F
  0
LAYER
  5
50
330
2
100
AcDbSymbolTableRecord
100
AcDbLayerTableRecord
  2
画層33
 70
     0
 62
     7
  6
Continuous
370
    -3
390
F
  0
LAYER
  5
51
330
2
100
AcDbSymbolTableRecord
100
AcDbLayerTableRecord
  2
画層34
 70
     0
 62
     7
  6
Continuous
370
    -3
390
F
  0
LAYER
  5
52
330
2
100
AcDbSymbolTableRecord
100
AcDbLayerTableRecord
  2
画層35
 70
     0
 62
     7
  6
Continuous
370
    -3
390
F
  0
LAYER
  5
53
330
2
100
AcDbSymbolTableRecord
100
AcDbLayerTableRecord
  2
画層36
 70
     0
 62
     7
  6
Continuous
370
    -3
390
F
  0
LAYER
  5
54
330
2
100
AcDbSymbolTableRecord
100
AcDbLayerTableRecord
  2
画層37
 70
     0
 62
     7
  6
Continuous
370
    -3
390
F
  0
LAYER
  5
55
330
2
100
AcDbSymbolTableRecord
100
AcDbLayerTableRecord
  2
画層38
 70
     0
 62
     7
  6
Continuous
370
    -3
390
F
  0
LAYER
  5
56
330
2
100
AcDbSymbolTableRecord
100
AcDbLayerTableRecord
  2
画層39
 70
     0
 62
     7
  6
Continuous
370
    -3
390
F
  0
LAYER
  5
57
330
2
100
AcDbSymbolTableRecord
100
AcDbLayerTableRecord
  2
画層40
 70
     0
 62
     7
  6
Continuous
370
    -3
390
F
  0
LAYER
  5
58
330
2
100
AcDbSymbolTableRecord
100
AcDbLayerTableRecord
  2
画層41
 70
     0
 62
     7
  6
Continuous
370
    -3
390
F
  0
LAYER
  5
59
330
2
100
AcDbSymbolTableRecord
100
AcDbLayerTableRecord
  2
画層42
 70
     0
 62
     7
  6
Continuous
370
    -3
390
F
  0
LAYER
  5
5A
330
2
100
AcDbSymbolTableRecord
100
AcDbLayerTableRecord
  2
画層43
 70
     0
 62
     7
  6
Continuous
370
    -3
390
F
  0
LAYER
  5
5B
330
2
100
AcDbSymbolTableRecord
100
AcDbLayerTableRecord
  2
画層44
 70
     0
 62
     7
  6
Continuous
370
    -3
390
F
  0
LAYER
  5
5C
330
2
100
AcDbSymbolTableRecord
100
AcDbLayerTableRecord
  2
画層45
 70
     0
 62
     7
  6
Continuous
370
    -3
390
F
  0
LAYER
  5
5D
330
2
100
AcDbSymbolTableRecord
100
AcDbLayerTableRecord
  2
画層46
 70
     0
 62
     7
  6
Continuous
370
    -3
390
F
  0
LAYER
  5
5E
330
2
100
AcDbSymbolTableRecord
100
AcDbLayerTableRecord
  2
画層47
 70
     0
 62
     7
  6
Continuous
370
    -3
390
F
  0
LAYER
  5
5F
330
2
100
AcDbSymbolTableRecord
100
AcDbLayerTableRecord
  2
画層48
 70
     0
 62
     7
  6
Continuous
370
    -3
390
F
  0
LAYER
  5
60
330
2
100
AcDbSymbolTableRecord
100
AcDbLayerTableRecord
  2
画層49
 70
     0
 62
     7
  6
Continuous
370
    -3
390
F
  0
LAYER
  5
61
330
2
100
AcDbSymbolTableRecord
100
AcDbLayerTableRecord
  2
画層50
 70
     0
 62
     7
  6
Continuous
370
    -3
390
F
  0
LAYER
  5
62
330
2
100
AcDbSymbolTableRecord
100
AcDbLayerTableRecord
  2
画層51
 70
     0
 62
     7
  6
Continuous
370
    -3
390
F
  0
LAYER
  5
63
330
2
100
AcDbSymbolTableRecord
100
AcDbLayerTableRecord
  2
画層52
 70
     0
 62
     7
  6
Continuous
370
    -3
390
F
  0
LAYER
  5
64
330
2
100
AcDbSymbolTableRecord
100
AcDbLayerTableRecord
  2
画層53
 70
     0
 62
     7
  6
Continuous
370
    -3
390
F
  0
LAYER
  5
65
330
2
100
AcDbSymbolTableRecord
100
AcDbLayerTableRecord
  2
画層54
 70
     0
 62
     7
  6
Continuous
370
    -3
390
F
  0
LAYER
  5
66
330
2
100
AcDbSymbolTableRecord
100
AcDbLayerTableRecord
  2
画層55
 70
     0
 62
     7
  6
Continuous
370
    -3
390
F
  0
LAYER
  5
67
330
2
100
AcDbSymbolTableRecord
100
AcDbLayerTableRecord
  2
画層56
 70
     0
 62
     7
  6
Continuous
370
    -3
390
F
  0
LAYER
  5
68
330
2
100
AcDbSymbolTableRecord
100
AcDbLayerTableRecord
  2
画層57
 70
     0
 62
     7
  6
Continuous
370
    -3
390
F
  0
LAYER
  5
69
330
2
100
AcDbSymbolTableRecord
100
AcDbLayerTableRecord
  2
画層58
 70
     0
 62
     7
  6
Continuous
370
    -3
390
F
  0
LAYER
  5
6A
330
2
100
AcDbSymbolTableRecord
100
AcDbLayerTableRecord
  2
画層59
 70
     0
 62
     7
  6
Continuous
370
    -3
390
F
  0
LAYER
  5
6B
330
2
100
AcDbSymbolTableRecord
100
AcDbLayerTableRecord
  2
画層60
 70
     0
 62
     7
  6
Continuous
370
    -3
390
F
  0
LAYER
  5
6C
330
2
100
AcDbSymbolTableRecord
100
AcDbLayerTableRecord
  2
画層61
 70
     0
 62
     7
  6
Continuous
370
    -3
390
F
  0
LAYER
  5
6D
330
2
100
AcDbSymbolTableRecord
100
AcDbLayerTableRecord
  2
画層62
 70
     0
 62
     7
  6
Continuous
370
    -3
390
F
  0
LAYER
  5
6E
330
2
100
AcDbSymbolTableRecord
100
AcDbLayerTableRecord
  2
画層63
 70
     0
 62
     7
  6
Continuous
370
    -3
390
F
  0
LAYER
  5
6F
330
2
100
AcDbSymbolTableRecord
100
AcDbLayerTableRecord
  2
画層64
 70
     0
 62
     7
  6
Continuous
370
    -3
390
F
  0
LAYER
  5
70
330
2
100
AcDbSymbolTableRecord
100
AcDbLayerTableRecord
  2
画層65
 70
     0
 62
     7
  6
Continuous
370
    -3
390
F
  0
LAYER
  5
71
330
2
100
AcDbSymbolTableRecord
100
AcDbLayerTableRecord
  2
画層66
 70
     0
 62
     7
  6
Continuous
370
    -3
390
F
  0
LAYER
  5
72
330
2
100
AcDbSymbolTableRecord
100
AcDbLayerTableRecord
  2
画層67
 70
     0
 62
     7
  6
Continuous
370
    -3
390
F
  0
LAYER
  5
73
330
2
100
AcDbSymbolTableRecord
100
AcDbLayerTableRecord
  2
画層68
 70
     0
 62
     7
  6
Continuous
370
    -3
390
F
  0
LAYER
  5
74
330
2
100
AcDbSymbolTableRecord
100
AcDbLayerTableRecord
  2
画層69
 70
     0
 62
     7
  6
Continuous
370
    -3
390
F
  0
LAYER
  5
75
330
2
100
AcDbSymbolTableRecord
100
AcDbLayerTableRecord
  2
画層70
 70
     0
 62
     7
  6
Continuous
370
    -3
390
F
  0
LAYER
  5
76
330
2
100
AcDbSymbolTableRecord
100
AcDbLayerTableRecord
  2
画層71
 70
     0
 62
     7
  6
Continuous
370
    -3
390
F
  0
LAYER
  5
77
330
2
100
AcDbSymbolTableRecord
100
AcDbLayerTableRecord
  2
画層72
 70
     0
 62
     7
  6
Continuous
370
    -3
390
F
  0
LAYER
  5
78
330
2
100
AcDbSymbolTableRecord
100
AcDbLayerTableRecord
  2
画層73
 70
     0
 62
     7
  6
Continuous
370
    -3
390
F
  0
LAYER
  5
79
330
2
100
AcDbSymbolTableRecord
100
AcDbLayerTableRecord
  2
画層74
 70
     0
 62
     7
  6
Continuous
370
    -3
390
F
  0
LAYER
  5
7A
330
2
100
AcDbSymbolTableRecord
100
AcDbLayerTableRecord
  2
画層75
 70
     0
 62
     7
  6
Continuous
370
    -3
390
F
  0
LAYER
  5
7B
330
2
100
AcDbSymbolTableRecord
100
AcDbLayerTableRecord
  2
画層76
 70
     0
 62
     7
  6
Continuous
370
    -3
390
F
  0
LAYER
  5
7C
330
2
100
AcDbSymbolTableRecord
100
AcDbLayerTableRecord
  2
画層77
 70
     0
 62
     7
  6
Continuous
370
    -3
390
F
  0
LAYER
  5
7D
330
2
100
AcDbSymbolTableRecord
100
AcDbLayerTableRecord
  2
画層78
 70
     0
 62
     7
  6
Continuous
370
    -3
390
F
  0
LAYER
  5
7E
330
2
100
AcDbSymbolTableRecord
100
AcDbLayerTableRecord
  2
画層79
 70
     0
 62
     7
  6
Continuous
370
    -3
390
F
  0
LAYER
  5
7F
330
2
100
AcDbSymbolTableRecord
100
AcDbLayerTableRecord
  2
画層80
 70
     0
 62
     7
  6
Continuous
370
    -3
390
F
  0
LAYER
  5
80
330
2
100
AcDbSymbolTableRecord
100
AcDbLayerTableRecord
  2
画層81
 70
     0
 62
     7
  6
Continuous
370
    -3
390
F
  0
LAYER
  5
81
330
2
100
AcDbSymbolTableRecord
100
AcDbLayerTableRecord
  2
画層82
 70
     0
 62
     7
  6
Continuous
370
    -3
390
F
  0
LAYER
  5
82
330
2
100
AcDbSymbolTableRecord
100
AcDbLayerTableRecord
  2
画層83
 70
     0
 62
     7
  6
Continuous
370
    -3
390
F
  0
LAYER
  5
83
330
2
100
AcDbSymbolTableRecord
100
AcDbLayerTableRecord
  2
画層84
 70
     0
 62
     7
  6
Continuous
370
    -3
390
F
  0
LAYER
  5
84
330
2
100
AcDbSymbolTableRecord
100
AcDbLayerTableRecord
  2
画層85
 70
     0
 62
     7
  6
Continuous
370
    -3
390
F
  0
LAYER
  5
85
330
2
100
AcDbSymbolTableRecord
100
AcDbLayerTableRecord
  2
画層86
 70
     0
 62
     7
  6
Continuous
370
    -3
390
F
  0
LAYER
  5
86
330
2
100
AcDbSymbolTableRecord
100
AcDbLayerTableRecord
  2
画層87
 70
     0
 62
     7
  6
Continuous
370
    -3
390
F
  0
LAYER
  5
87
330
2
100
AcDbSymbolTableRecord
100
AcDbLayerTableRecord
  2
画層88
 70
     0
 62
     7
  6
Continuous
370
    -3
390
F
  0
LAYER
  5
88
330
2
100
AcDbSymbolTableRecord
100
AcDbLayerTableRecord
  2
画層89
 70
     0
 62
     7
  6
Continuous
370
    -3
390
F
  0
LAYER
  5
89
330
2
100
AcDbSymbolTableRecord
100
AcDbLayerTableRecord
  2
画層90
 70
     0
 62
     7
  6
Continuous
370
    -3
390
F
  0
LAYER
  5
8A
330
2
100
AcDbSymbolTableRecord
100
AcDbLayerTableRecord
  2
画層91
 70
     0
 62
     7
  6
Continuous
370
    -3
390
F
  0
LAYER
  5
8B
330
2
100
AcDbSymbolTableRecord
100
AcDbLayerTableRecord
  2
画層92
 70
     0
 62
     7
  6
Continuous
370
    -3
390
F
  0
LAYER
  5
8C
330
2
100
AcDbSymbolTableRecord
100
AcDbLayerTableRecord
  2
画層93
 70
     0
 62
     7
  6
Continuous
370
    -3
390
F
  0
LAYER
  5
8D
330
2
100
AcDbSymbolTableRecord
100
AcDbLayerTableRecord
  2
画層94
 70
     0
 62
     7
  6
Continuous
370
    -3
390
F
  0
LAYER
  5
8E
330
2
100
AcDbSymbolTableRecord
100
AcDbLayerTableRecord
  2
画層95
 70
     0
 62
     7
  6
Continuous
370
    -3
390
F
  0
LAYER
  5
8F
330
2
100
AcDbSymbolTableRecord
100
AcDbLayerTableRecord
  2
画層96
 70
     0
 62
     7
  6
Continuous
370
    -3
390
F
  0
LAYER
  5
90
330
2
100
AcDbSymbolTableRecord
100
AcDbLayerTableRecord
  2
画層97
 70
     0
 62
     7
  6
Continuous
370
    -3
390
F
  0
LAYER
  5
91
330
2
100
AcDbSymbolTableRecord
100
AcDbLayerTableRecord
  2
画層98
 70
     0
 62
     7
  6
Continuous
370
    -3
390
F
  0
LAYER
  5
92
330
2
100
AcDbSymbolTableRecord
100
AcDbLayerTableRecord
  2
画層99
 70
     0
 62
     7
  6
Continuous
370
    -3
390
F
  0
LAYER
  5
93
330
2
100
AcDbSymbolTableRecord
100
AcDbLayerTableRecord
  2
画層100
 70
     0
 62
     7
  6
Continuous
370
    -3
390
F
  0
LAYER
  5
94
330
2
100
AcDbSymbolTableRecord
100
AcDbLayerTableRecord
  2
画層101
 70
     0
 62
     7
  6
Continuous
370
    -3
390
F
  0
LAYER
  5
95
330
2
100
AcDbSymbolTableRecord
100
AcDbLayerTableRecord
  2
画層102
 70
     0
 62
     7
  6
Continuous
370
    -3
390
F
  0
LAYER
  5
96
330
2
100
AcDbSymbolTableRecord
100
AcDbLayerTableRecord
  2
画層103
 70
     0
 62
     7
  6
Continuous
370
    -3
390
F
  0
LAYER
  5
97
330
2
100
AcDbSymbolTableRecord
100
AcDbLayerTableRecord
  2
画層104
 70
     0
 62
     7
  6
Continuous
370
    -3
390
F
  0
LAYER
  5
98
330
2
100
AcDbSymbolTableRecord
100
AcDbLayerTableRecord
  2
画層105
 70
     0
 62
     7
  6
Continuous
370
    -3
390
F
  0
LAYER
  5
99
330
2
100
AcDbSymbolTableRecord
100
AcDbLayerTableRecord
  2
画層106
 70
     0
 62
     7
  6
Continuous
370
    -3
390
F
  0
LAYER
  5
9A
330
2
100
AcDbSymbolTableRecord
100
AcDbLayerTableRecord
  2
画層107
 70
     0
 62
     7
  6
Continuous
370
    -3
390
F
  0
LAYER
  5
9B
330
2
100
AcDbSymbolTableRecord
100
AcDbLayerTableRecord
  2
画層108
 70
     0
 62
     7
  6
Continuous
370
    -3
390
F
  0
LAYER
  5
9C
330
2
100
AcDbSymbolTableRecord
100
AcDbLayerTableRecord
  2
画層109
 70
     0
 62
     7
  6
Continuous
370
    -3
390
F
  0
LAYER
  5
9D
330
2
100
AcDbSymbolTableRecord
100
AcDbLayerTableRecord
  2
画層110
 70
     0
 62
     7
  6
Continuous
370
    -3
390
F
  0
LAYER
  5
9E
330
2
100
AcDbSymbolTableRecord
100
AcDbLayerTableRecord
  2
画層111
 70
     0
 62
     7
  6
Continuous
370
    -3
390
F
  0
LAYER
  5
9F
330
2
100
AcDbSymbolTableRecord
100
AcDbLayerTableRecord
  2
画層112
 70
     0
 62
     7
  6
Continuous
370
    -3
390
F
  0
LAYER
  5
A0
330
2
100
AcDbSymbolTableRecord
100
AcDbLayerTableRecord
  2
画層113
 70
     0
 62
     7
  6
Continuous
370
    -3
390
F
  0
LAYER
  5
A1
330
2
100
AcDbSymbolTableRecord
100
AcDbLayerTableRecord
  2
画層114
 70
     0
 62
     7
  6
Continuous
370
    -3
390
F
  0
LAYER
  5
A2
330
2
100
AcDbSymbolTableRecord
100
AcDbLayerTableRecord
  2
画層115
 70
     0
 62
     7
  6
Continuous
370
    -3
390
F
  0
LAYER
  5
A3
330
2
100
AcDbSymbolTableRecord
100
AcDbLayerTableRecord
  2
画層116
 70
     0
 62
     7
  6
Continuous
370
    -3
390
F
  0
LAYER
  5
A4
330
2
100
AcDbSymbolTableRecord
100
AcDbLayerTableRecord
  2
画層117
 70
     0
 62
     7
  6
Continuous
370
    -3
390
F
  0
LAYER
  5
A5
330
2
100
AcDbSymbolTableRecord
100
AcDbLayerTableRecord
  2
画層118
 70
     0
 62
     7
  6
Continuous
370
    -3
390
F
  0
LAYER
  5
A6
330
2
100
AcDbSymbolTableRecord
100
AcDbLayerTableRecord
  2
画層119
 70
     0
 62
     7
  6
Continuous
370
    -3
390
F
  0
LAYER
  5
A7
330
2
100
AcDbSymbolTableRecord
100
AcDbLayerTableRecord
  2
画層120
 70
     0
 62
     7
  6
Continuous
370
    -3
390
F
  0
LAYER
  5
A8
330
2
100
AcDbSymbolTableRecord
100
AcDbLayerTableRecord
  2
画層121
 70
     0
 62
     7
  6
Continuous
370
    -3
390
F
  0
LAYER
  5
A9
330
2
100
AcDbSymbolTableRecord
100
AcDbLayerTableRecord
  2
画層122
 70
     0
 62
     7
  6
Continuous
370
    -3
390
F
  0
LAYER
  5
AA
330
2
100
AcDbSymbolTableRecord
100
AcDbLayerTableRecord
  2
画層123
 70
     0
 62
     7
  6
Continuous
370
    -3
390
F
  0
LAYER
  5
AB
330
2
100
AcDbSymbolTableRecord
100
AcDbLayerTableRecord
  2
画層124
 70
     0
 62
     7
  6
Continuous
370
    -3
390
F
  0
LAYER
  5
AC
330
2
100
AcDbSymbolTableRecord
100
AcDbLayerTableRecord
  2
画層125
 70
     0
 62
     7
  6
Continuous
370
    -3
390
F
  0
LAYER
  5
AD
330
2
100
AcDbSymbolTableRecord
100
AcDbLayerTableRecord
  2
画層126
 70
     0
 62
     7
  6
Continuous
370
    -3
390
F
  0
LAYER
  5
AE
330
2
100
AcDbSymbolTableRecord
100
AcDbLayerTableRecord
  2
画層127
 70
     0
 62
     7
  6
Continuous
370
    -3
390
F
  0
LAYER
  5
AF
330
2
100
AcDbSymbolTableRecord
100
AcDbLayerTableRecord
  2
画層128
 70
     0
 62
     7
  6
Continuous
370
    -3
390
F
  0
LAYER
  5
B0
330
2
100
AcDbSymbolTableRecord
100
AcDbLayerTableRecord
  2
画層129
 70
     0
 62
     7
  6
Continuous
370
    -3
390
F
  0
LAYER
  5
B1
330
2
100
AcDbSymbolTableRecord
100
AcDbLayerTableRecord
  2
画層130
 70
     0
 62
     7
  6
Continuous
370
    -3
390
F
  0
LAYER
  5
B2
330
2
100
AcDbSymbolTableRecord
100
AcDbLayerTableRecord
  2
画層131
 70
     0
 62
     7
  6
Continuous
370
    -3
390
F
  0
LAYER
  5
B3
330
2
100
AcDbSymbolTableRecord
100
AcDbLayerTableRecord
  2
画層132
 70
     0
 62
     7
  6
Continuous
370
    -3
390
F
  0
LAYER
  5
B4
330
2
100
AcDbSymbolTableRecord
100
AcDbLayerTableRecord
  2
画層133
 70
     0
 62
     7
  6
Continuous
370
    -3
390
F
  0
LAYER
  5
B5
330
2
100
AcDbSymbolTableRecord
100
AcDbLayerTableRecord
  2
画層134
 70
     0
 62
     7
  6
Continuous
370
    -3
390
F
  0
LAYER
  5
B6
330
2
100
AcDbSymbolTableRecord
100
AcDbLayerTableRecord
  2
画層135
 70
     0
 62
     7
  6
Continuous
370
    -3
390
F
  0
LAYER
  5
B7
330
2
100
AcDbSymbolTableRecord
100
AcDbLayerTableRecord
  2
画層136
 70
     0
 62
     7
  6
Continuous
370
    -3
390
F
  0
LAYER
  5
B8
330
2
100
AcDbSymbolTableRecord
100
AcDbLayerTableRecord
  2
画層137
 70
     0
 62
     7
  6
Continuous
370
    -3
390
F
  0
LAYER
  5
B9
330
2
100
AcDbSymbolTableRecord
100
AcDbLayerTableRecord
  2
画層138
 70
     0
 62
     7
  6
Continuous
370
    -3
390
F
  0
LAYER
  5
BA
330
2
100
AcDbSymbolTableRecord
100
AcDbLayerTableRecord
  2
画層139
 70
     0
 62
     7
  6
Continuous
370
    -3
390
F
  0
LAYER
  5
BB
330
2
100
AcDbSymbolTableRecord
100
AcDbLayerTableRecord
  2
画層140
 70
     0
 62
     7
  6
Continuous
370
    -3
390
F
  0
LAYER
  5
BC
330
2
100
AcDbSymbolTableRecord
100
AcDbLayerTableRecord
  2
画層141
 70
     0
 62
     7
  6
Continuous
370
    -3
390
F
  0
LAYER
  5
BD
330
2
100
AcDbSymbolTableRecord
100
AcDbLayerTableRecord
  2
画層142
 70
     0
 62
     7
  6
Continuous
370
    -3
390
F
  0
LAYER
  5
BE
330
2
100
AcDbSymbolTableRecord
100
AcDbLayerTableRecord
  2
画層143
 70
     0
 62
     7
  6
Continuous
370
    -3
390
F
  0
LAYER
  5
BF
330
2
100
AcDbSymbolTableRecord
100
AcDbLayerTableRecord
  2
画層144
 70
     0
 62
     7
  6
Continuous
370
    -3
390
F
  0
LAYER
  5
C0
330
2
100
AcDbSymbolTableRecord
100
AcDbLayerTableRecord
  2
画層145
 70
     0
 62
     7
  6
Continuous
370
    -3
390
F
  0
LAYER
  5
C1
330
2
100
AcDbSymbolTableRecord
100
AcDbLayerTableRecord
  2
画層146
 70
     0
 62
     7
  6
Continuous
370
    -3
390
F
  0
LAYER
  5
C2
330
2
100
AcDbSymbolTableRecord
100
AcDbLayerTableRecord
  2
画層147
 70
     0
 62
     7
  6
Continuous
370
    -3
390
F
  0
LAYER
  5
C3
330
2
100
AcDbSymbolTableRecord
100
AcDbLayerTableRecord
  2
画層148
 70
     0
 62
     7
  6
Continuous
370
    -3
390
F
  0
LAYER
  5
C4
330
2
100
AcDbSymbolTableRecord
100
AcDbLayerTableRecord
  2
画層149
 70
     0
 62
     7
  6
Continuous
370
    -3
390
F
  0
LAYER
  5
C5
330
2
100
AcDbSymbolTableRecord
100
AcDbLayerTableRecord
  2
画層150
 70
     0
 62
     7
  6
Continuous
370
    -3
390
F
  0
LAYER
  5
C6
330
2
100
AcDbSymbolTableRecord
100
AcDbLayerTableRecord
  2
画層151
 70
     0
 62
     7
  6
Continuous
370
    -3
390
F
  0
LAYER
  5
C7
330
2
100
AcDbSymbolTableRecord
100
AcDbLayerTableRecord
  2
画層152
 70
     0
 62
     7
  6
Continuous
370
    -3
390
F
  0
LAYER
  5
C8
330
2
100
AcDbSymbolTableRecord
100
AcDbLayerTableRecord
  2
画層153
 70
     0
 62
     7
  6
Continuous
370
    -3
390
F
  0
LAYER
  5
C9
330
2
100
AcDbSymbolTableRecord
100
AcDbLayerTableRecord
  2
画層154
 70
     0
 62
     7
  6
Continuous
370
    -3
390
F
  0
LAYER
  5
CA
330
2
100
AcDbSymbolTableRecord
100
AcDbLayerTableRecord
  2
画層155
 70
     0
 62
     7
  6
Continuous
370
    -3
390
F
  0
LAYER
  5
CB
330
2
100
AcDbSymbolTableRecord
100
AcDbLayerTableRecord
  2
画層156
 70
     0
 62
     7
  6
Continuous
370
    -3
390
F
  0
LAYER
  5
CC
330
2
100
AcDbSymbolTableRecord
100
AcDbLayerTableRecord
  2
画層157
 70
     0
 62
     7
  6
Continuous
370
    -3
390
F
  0
LAYER
  5
CD
330
2
100
AcDbSymbolTableRecord
100
AcDbLayerTableRecord
  2
画層158
 70
     0
 62
     7
  6
Continuous
370
    -3
390
F
  0
LAYER
  5
CE
330
2
100
AcDbSymbolTableRecord
100
AcDbLayerTableRecord
  2
画層159
 70
     0
 62
     7
  6
Continuous
370
    -3
390
F
  0
LAYER
  5
CF
330
2
100
AcDbSymbolTableRecord
100
AcDbLayerTableRecord
  2
画層160
 70
     0
 62
     7
  6
Continuous
370
    -3
390
F
  0
LAYER
  5
D0
330
2
100
AcDbSymbolTableRecord
100
AcDbLayerTableRecord
  2
画層161
 70
     0
 62
     7
  6
Continuous
370
    -3
390
F
  0
LAYER
  5
D1
330
2
100
AcDbSymbolTableRecord
100
AcDbLayerTableRecord
  2
画層162
 70
     0
 62
     7
  6
Continuous
370
    -3
390
F
  0
LAYER
  5
D2
330
2
100
AcDbSymbolTableRecord
100
AcDbLayerTableRecord
  2
画層163
 70
     0
 62
     7
  6
Continuous
370
    -3
390
F
  0
LAYER
  5
D3
330
2
100
AcDbSymbolTableRecord
100
AcDbLayerTableRecord
  2
画層164
 70
     0
 62
     7
  6
Continuous
370
    -3
390
F
  0
LAYER
  5
D4
330
2
100
AcDbSymbolTableRecord
100
AcDbLayerTableRecord
  2
画層165
 70
     0
 62
     7
  6
Continuous
370
    -3
390
F
  0
LAYER
  5
D5
330
2
100
AcDbSymbolTableRecord
100
AcDbLayerTableRecord
  2
画層166
 70
     0
 62
     7
  6
Continuous
370
    -3
390
F
  0
LAYER
  5
D6
330
2
100
AcDbSymbolTableRecord
100
AcDbLayerTableRecord
  2
画層167
 70
     0
 62
     7
  6
Continuous
370
    -3
390
F
  0
LAYER
  5
D7
330
2
100
AcDbSymbolTableRecord
100
AcDbLayerTableRecord
  2
画層168
 70
     0
 62
     7
  6
Continuous
370
    -3
390
F
  0
LAYER
  5
D8
330
2
100
AcDbSymbolTableRecord
100
AcDbLayerTableRecord
  2
画層169
 70
     0
 62
     7
  6
Continuous
370
    -3
390
F
  0
LAYER
  5
D9
330
2
100
AcDbSymbolTableRecord
100
AcDbLayerTableRecord
  2
画層170
 70
     0
 62
     7
  6
Continuous
370
    -3
390
F
  0
LAYER
  5
DA
330
2
100
AcDbSymbolTableRecord
100
AcDbLayerTableRecord
  2
画層171
 70
     0
 62
     7
  6
Continuous
370
    -3
390
F
  0
LAYER
  5
DB
330
2
100
AcDbSymbolTableRecord
100
AcDbLayerTableRecord
  2
画層172
 70
     0
 62
     7
  6
Continuous
370
    -3
390
F
  0
LAYER
  5
DC
330
2
100
AcDbSymbolTableRecord
100
AcDbLayerTableRecord
  2
画層173
 70
     0
 62
     7
  6
Continuous
370
    -3
390
F
  0
LAYER
  5
DD
330
2
100
AcDbSymbolTableRecord
100
AcDbLayerTableRecord
  2
画層174
 70
     0
 62
     7
  6
Continuous
370
    -3
390
F
  0
LAYER
  5
DE
330
2
100
AcDbSymbolTableRecord
100
AcDbLayerTableRecord
  2
画層175
 70
     0
 62
     7
  6
Continuous
370
    -3
390
F
  0
LAYER
  5
DF
330
2
100
AcDbSymbolTableRecord
100
AcDbLayerTableRecord
  2
画層176
 70
     0
 62
     7
  6
Continuous
370
    -3
390
F
  0
LAYER
  5
E0
330
2
100
AcDbSymbolTableRecord
100
AcDbLayerTableRecord
  2
画層177
 70
     0
 62
     7
  6
Continuous
370
    -3
390
F
  0
LAYER
  5
E1
330
2
100
AcDbSymbolTableRecord
100
AcDbLayerTableRecord
  2
画層178
 70
     0
 62
     7
  6
Continuous
370
    -3
390
F
  0
LAYER
  5
E2
330
2
100
AcDbSymbolTableRecord
100
AcDbLayerTableRecord
  2
画層179
 70
     0
 62
     7
  6
Continuous
370
    -3
390
F
  0
LAYER
  5
E3
330
2
100
AcDbSymbolTableRecord
100
AcDbLayerTableRecord
  2
画層180
 70
     0
 62
     7
  6
Continuous
370
    -3
390
F
  0
LAYER
  5
E4
330
2
100
AcDbSymbolTableRecord
100
AcDbLayerTableRecord
  2
画層181
 70
     0
 62
     7
  6
Continuous
370
    -3
390
F
  0
LAYER
  5
E5
330
2
100
AcDbSymbolTableRecord
100
AcDbLayerTableRecord
  2
画層182
 70
     0
 62
     7
  6
Continuous
370
    -3
390
F
  0
LAYER
  5
E6
330
2
100
AcDbSymbolTableRecord
100
AcDbLayerTableRecord
  2
画層183
 70
     0
 62
     7
  6
Continuous
370
    -3
390
F
  0
LAYER
  5
E7
330
2
100
AcDbSymbolTableRecord
100
AcDbLayerTableRecord
  2
画層184
 70
     0
 62
     7
  6
Continuous
370
    -3
390
F
  0
LAYER
  5
E8
330
2
100
AcDbSymbolTableRecord
100
AcDbLayerTableRecord
  2
画層185
 70
     0
 62
     7
  6
Continuous
370
    -3
390
F
  0
LAYER
  5
E9
330
2
100
AcDbSymbolTableRecord
100
AcDbLayerTableRecord
  2
画層186
 70
     0
 62
     7
  6
Continuous
370
    -3
390
F
  0
LAYER
  5
EA
330
2
100
AcDbSymbolTableRecord
100
AcDbLayerTableRecord
  2
画層187
 70
     0
 62
     7
  6
Continuous
370
    -3
390
F
  0
LAYER
  5
EB
330
2
100
AcDbSymbolTableRecord
100
AcDbLayerTableRecord
  2
画層188
 70
     0
 62
     7
  6
Continuous
370
    -3
390
F
  0
LAYER
  5
EC
330
2
100
AcDbSymbolTableRecord
100
AcDbLayerTableRecord
  2
画層189
 70
     0
 62
     7
  6
Continuous
370
    -3
390
F
  0
LAYER
  5
ED
330
2
100
AcDbSymbolTableRecord
100
AcDbLayerTableRecord
  2
画層190
 70
     0
 62
     7
  6
Continuous
370
    -3
390
F
  0
LAYER
  5
EE
330
2
100
AcDbSymbolTableRecord
100
AcDbLayerTableRecord
  2
画層191
 70
     0
 62
     7
  6
Continuous
370
    -3
390
F
  0
LAYER
  5
EF
330
2
100
AcDbSymbolTableRecord
100
AcDbLayerTableRecord
  2
画層192
 70
     0
 62
     7
  6
Continuous
370
    -3
390
F
  0
LAYER
  5
F0
330
2
100
AcDbSymbolTableRecord
100
AcDbLayerTableRecord
  2
画層193
 70
     0
 62
     7
  6
Continuous
370
    -3
390
F
  0
LAYER
  5
F1
330
2
100
AcDbSymbolTableRecord
100
AcDbLayerTableRecord
  2
画層194
 70
     0
 62
     7
  6
Continuous
370
    -3
390
F
  0
LAYER
  5
F2
330
2
100
AcDbSymbolTableRecord
100
AcDbLayerTableRecord
  2
画層195
 70
     0
 62
     7
  6
Continuous
370
    -3
390
F
  0
LAYER
  5
F3
330
2
100
AcDbSymbolTableRecord
100
AcDbLayerTableRecord
  2
画層196
 70
     0
 62
     7
  6
Continuous
370
    -3
390
F
  0
LAYER
  5
F4
330
2
100
AcDbSymbolTableRecord
100
AcDbLayerTableRecord
  2
画層197
 70
     0
 62
     7
  6
Continuous
370
    -3
390
F
  0
LAYER
  5
F5
330
2
100
AcDbSymbolTableRecord
100
AcDbLayerTableRecord
  2
画層198
 70
     0
 62
     7
  6
Continuous
370
    -3
390
F
  0
LAYER
  5
F6
330
2
100
AcDbSymbolTableRecord
100
AcDbLayerTableRecord
  2
画層199
 70
     0
 62
     7
  6
Continuous
370
    -3
390
F
  0
LAYER
  5
F7
330
2
100
AcDbSymbolTableRecord
100
AcDbLayerTableRecord
  2
画層200
 70
     0
 62
     7
  6
Continuous
370
    -3
390
F
  0
LAYER
  5
F8
330
2
100
AcDbSymbolTableRecord
100
AcDbLayerTableRecord
  2
画層201
 70
     0
 62
     7
  6
Continuous
370
    -3
390
F
  0
LAYER
  5
F9
330
2
100
AcDbSymbolTableRecord
100
AcDbLayerTableRecord
  2
画層202
 70
     0
 62
     7
  6
Continuous
370
    -3
390
F
  0
LAYER
  5
FA
330
2
100
AcDbSymbolTableRecord
100
AcDbLayerTableRecord
  2
画層203
 70
     0
 62
     7
  6
Continuous
370
    -3
390
F
  0
LAYER
  5
FB
330
2
100
AcDbSymbolTableRecord
100
AcDbLayerTableRecord
  2
画層204
 70
     0
 62
     7
  6
Continuous
370
    -3
390
F
  0
LAYER
  5
FC
330
2
100
AcDbSymbolTableRecord
100
AcDbLayerTableRecord
  2
画層205
 70
     0
 62
     7
  6
Continuous
370
    -3
390
F
  0
LAYER
  5
FD
330
2
100
AcDbSymbolTableRecord
100
AcDbLayerTableRecord
  2
画層206
 70
     0
 62
     7
  6
Continuous
370
    -3
390
F
  0
LAYER
  5
FE
330
2
100
AcDbSymbolTableRecord
100
AcDbLayerTableRecord
  2
画層207
 70
     0
 62
     7
  6
Continuous
370
    -3
390
F
  0
LAYER
  5
FF
330
2
100
AcDbSymbolTableRecord
100
AcDbLayerTableRecord
  2
画層208
 70
     0
 62
     7
  6
Continuous
370
    -3
390
F
  0
LAYER
  5
100
330
2
100
AcDbSymbolTableRecord
100
AcDbLayerTableRecord
  2
画層209
 70
     0
 62
     7
  6
Continuous
370
    -3
390
F
  0
LAYER
  5
101
330
2
100
AcDbSymbolTableRecord
100
AcDbLayerTableRecord
  2
画層210
 70
     0
 62
     7
  6
Continuous
370
    -3
390
F
  0
LAYER
  5
102
330
2
100
AcDbSymbolTableRecord
100
AcDbLayerTableRecord
  2
画層211
 70
     0
 62
     7
  6
Continuous
370
    -3
390
F
  0
LAYER
  5
103
330
2
100
AcDbSymbolTableRecord
100
AcDbLayerTableRecord
  2
画層212
 70
     0
 62
     7
  6
Continuous
370
    -3
390
F
  0
LAYER
  5
104
330
2
100
AcDbSymbolTableRecord
100
AcDbLayerTableRecord
  2
画層213
 70
     0
 62
     7
  6
Continuous
370
    -3
390
F
  0
LAYER
  5
105
330
2
100
AcDbSymbolTableRecord
100
AcDbLayerTableRecord
  2
画層214
 70
     0
 62
     7
  6
Continuous
370
    -3
390
F
  0
LAYER
  5
106
330
2
100
AcDbSymbolTableRecord
100
AcDbLayerTableRecord
  2
画層215
 70
     0
 62
     7
  6
Continuous
370
    -3
390
F
  0
LAYER
  5
107
330
2
100
AcDbSymbolTableRecord
100
AcDbLayerTableRecord
  2
画層216
 70
     0
 62
     7
  6
Continuous
370
    -3
390
F
  0
LAYER
  5
108
330
2
100
AcDbSymbolTableRecord
100
AcDbLayerTableRecord
  2
画層217
 70
     0
 62
     7
  6
Continuous
370
    -3
390
F
  0
LAYER
  5
109
330
2
100
AcDbSymbolTableRecord
100
AcDbLayerTableRecord
  2
画層218
 70
     0
 62
     7
  6
Continuous
370
    -3
390
F
  0
LAYER
  5
10A
330
2
100
AcDbSymbolTableRecord
100
AcDbLayerTableRecord
  2
画層219
 70
     0
 62
     7
  6
Continuous
370
    -3
390
F
  0
LAYER
  5
10B
330
2
100
AcDbSymbolTableRecord
100
AcDbLayerTableRecord
  2
画層220
 70
     0
 62
     7
  6
Continuous
370
    -3
390
F
  0
LAYER
  5
10C
330
2
100
AcDbSymbolTableRecord
100
AcDbLayerTableRecord
  2
画層221
 70
     0
 62
     7
  6
Continuous
370
    -3
390
F
  0
LAYER
  5
10D
330
2
100
AcDbSymbolTableRecord
100
AcDbLayerTableRecord
  2
画層222
 70
     0
 62
     7
  6
Continuous
370
    -3
390
F
  0
LAYER
  5
10E
330
2
100
AcDbSymbolTableRecord
100
AcDbLayerTableRecord
  2
画層223
 70
     0
 62
     7
  6
Continuous
370
    -3
390
F
  0
LAYER
  5
10F
330
2
100
AcDbSymbolTableRecord
100
AcDbLayerTableRecord
  2
画層224
 70
     0
 62
     7
  6
Continuous
370
    -3
390
F
  0
LAYER
  5
110
330
2
100
AcDbSymbolTableRecord
100
AcDbLayerTableRecord
  2
画層225
 70
     0
 62
     7
  6
Continuous
370
    -3
390
F
  0
LAYER
  5
111
330
2
100
AcDbSymbolTableRecord
100
AcDbLayerTableRecord
  2
画層226
 70
     0
 62
     7
  6
Continuous
370
    -3
390
F
  0
LAYER
  5
112
330
2
100
AcDbSymbolTableRecord
100
AcDbLayerTableRecord
  2
画層227
 70
     0
 62
     7
  6
Continuous
370
    -3
390
F
  0
LAYER
  5
113
330
2
100
AcDbSymbolTableRecord
100
AcDbLayerTableRecord
  2
画層228
 70
     0
 62
     7
  6
Continuous
370
    -3
390
F
  0
LAYER
  5
114
330
2
100
AcDbSymbolTableRecord
100
AcDbLayerTableRecord
  2
画層229
 70
     0
 62
     7
  6
Continuous
370
    -3
390
F
  0
LAYER
  5
115
330
2
100
AcDbSymbolTableRecord
100
AcDbLayerTableRecord
  2
画層230
 70
     0
 62
     7
  6
Continuous
370
    -3
390
F
  0
LAYER
  5
116
330
2
100
AcDbSymbolTableRecord
100
AcDbLayerTableRecord
  2
画層231
 70
     0
 62
     7
  6
Continuous
370
    -3
390
F
  0
LAYER
  5
117
330
2
100
AcDbSymbolTableRecord
100
AcDbLayerTableRecord
  2
画層232
 70
     0
 62
     7
  6
Continuous
370
    -3
390
F
  0
LAYER
  5
118
330
2
100
AcDbSymbolTableRecord
100
AcDbLayerTableRecord
  2
画層233
 70
     0
 62
     7
  6
Continuous
370
    -3
390
F
  0
LAYER
  5
119
330
2
100
AcDbSymbolTableRecord
100
AcDbLayerTableRecord
  2
画層234
 70
     0
 62
     7
  6
Continuous
370
    -3
390
F
  0
LAYER
  5
11A
330
2
100
AcDbSymbolTableRecord
100
AcDbLayerTableRecord
  2
画層235
 70
     0
 62
     7
  6
Continuous
370
    -3
390
F
  0
LAYER
  5
11B
330
2
100
AcDbSymbolTableRecord
100
AcDbLayerTableRecord
  2
画層236
 70
     0
 62
     7
  6
Continuous
370
    -3
390
F
  0
LAYER
  5
11C
330
2
100
AcDbSymbolTableRecord
100
AcDbLayerTableRecord
  2
画層237
 70
     0
 62
     7
  6
Continuous
370
    -3
390
F
  0
LAYER
  5
11D
330
2
100
AcDbSymbolTableRecord
100
AcDbLayerTableRecord
  2
画層238
 70
     0
 62
     7
  6
Continuous
370
    -3
390
F
  0
LAYER
  5
11E
330
2
100
AcDbSymbolTableRecord
100
AcDbLayerTableRecord
  2
画層239
 70
     0
 62
     7
  6
Continuous
370
    -3
390
F
  0
LAYER
  5
11F
330
2
100
AcDbSymbolTableRecord
100
AcDbLayerTableRecord
  2
画層240
 70
     0
 62
     7
  6
Continuous
370
    -3
390
F
  0
LAYER
  5
120
330
2
100
AcDbSymbolTableRecord
100
AcDbLayerTableRecord
  2
画層241
 70
     0
 62
     7
  6
Continuous
370
    -3
390
F
  0
LAYER
  5
121
330
2
100
AcDbSymbolTableRecord
100
AcDbLayerTableRecord
  2
画層242
 70
     0
 62
     7
  6
Continuous
370
    -3
390
F
  0
LAYER
  5
122
330
2
100
AcDbSymbolTableRecord
100
AcDbLayerTableRecord
  2
画層243
 70
     0
 62
     7
  6
Continuous
370
    -3
390
F
  0
LAYER
  5
123
330
2
100
AcDbSymbolTableRecord
100
AcDbLayerTableRecord
  2
画層244
 70
     0
 62
     7
  6
Continuous
370
    -3
390
F
  0
LAYER
  5
124
330
2
100
AcDbSymbolTableRecord
100
AcDbLayerTableRecord
  2
画層245
 70
     0
 62
     7
  6
Continuous
370
    -3
390
F
  0
LAYER
  5
125
330
2
100
AcDbSymbolTableRecord
100
AcDbLayerTableRecord
  2
画層246
 70
     0
 62
     7
  6
Continuous
370
    -3
390
F
  0
LAYER
  5
126
330
2
100
AcDbSymbolTableRecord
100
AcDbLayerTableRecord
  2
画層247
 70
     0
 62
     7
  6
Continuous
370
    -3
390
F
  0
LAYER
  5
127
330
2
100
AcDbSymbolTableRecord
100
AcDbLayerTableRecord
  2
画層248
 70
     0
 62
     7
  6
Continuous
370
    -3
390
F
  0
LAYER
  5
128
330
2
100
AcDbSymbolTableRecord
100
AcDbLayerTableRecord
  2
画層249
 70
     0
 62
     7
  6
Continuous
370
    -3
390
F
  0
LAYER
  5
129
330
2
100
AcDbSymbolTableRecord
100
AcDbLayerTableRecord
  2
画層250
 70
     0
 62
     7
  6
Continuous
370
    -3
390
F
  0
LAYER
  5
12A
330
2
100
AcDbSymbolTableRecord
100
AcDbLayerTableRecord
  2
画層251
 70
     0
 62
     7
  6
Continuous
370
    -3
390
F
  0
LAYER
  5
12B
330
2
100
AcDbSymbolTableRecord
100
AcDbLayerTableRecord
  2
画層252
 70
     0
 62
     7
  6
Continuous
370
    -3
390
F
  0
LAYER
  5
12C
330
2
100
AcDbSymbolTableRecord
100
AcDbLayerTableRecord
  2
画層253
 70
     0
 62
     7
  6
Continuous
370
    -3
390
F
  0
LAYER
  5
12D
330
2
100
AcDbSymbolTableRecord
100
AcDbLayerTableRecord
  2
画層254
 70
     0
 62
     7
  6
Continuous
370
    -3
390
F
  0
LAYER
  5
12E
330
2
100
AcDbSymbolTableRecord
100
AcDbLayerTableRecord
  2
画層255
 70
     0
 62
     7
  6
Continuous
370
    -3
390
F
  0
ENDTAB
  0
TABLE
  2
STYLE
  5
3
330
0
100
AcDbSymbolTable
 70
    20
  0
STYLE
  5
11
330
3
100
AcDbSymbolTableRecord
100
AcDbTextStyleTableRecord
  2
Standard
 70
     0
 40
0.0
 41
1.0
 50
0.0
 71
     0
 42
2.5
  3
txt
  4
bigfont
  0
STYLE
  5
2B1
330
3
100
AcDbSymbolTableRecord
100
AcDbTextStyleTableRecord
  2
SLDTEXTSTYLE0
 70
     0
 40
0.0
 41
0.7
 50
0.0
 71
     0
 42
0.2
  3
TXT
  4
bigfont
  0
STYLE
  5
2BC
330
3
100
AcDbSymbolTableRecord
100
AcDbTextStyleTableRecord
  2
SLDTEXTSTYLE1
 70
     0
 40
0.0
 41
0.5906406799
 50
0.0
 71
     0
 42
0.2
  3
TXT
  4
bigfont
  0
STYLE
  5
2BE
330
3
100
AcDbSymbolTableRecord
100
AcDbTextStyleTableRecord
  2
SLDTEXTSTYLE2
 70
     0
 40
0.0
 41
0.590866192
 50
0.0
 71
     0
 42
0.2
  3
TXT
  4
bigfont
  0
STYLE
  5
2C0
330
3
100
AcDbSymbolTableRecord
100
AcDbTextStyleTableRecord
  2
SLDTEXTSTYLE3
 70
     0
 40
0.0
 41
0.5911384173
 50
0.0
 71
     0
 42
0.2
  3
TXT
  4
bigfont
  0
STYLE
  5
2C2
330
3
100
AcDbSymbolTableRecord
100
AcDbTextStyleTableRecord
  2
SLDTEXTSTYLE4
 70
     0
 40
0.0
 41
0.3983920334
 50
0.0
 71
     0
 42
0.2
  3
TXT
  4
bigfont
  0
STYLE
  5
2C5
330
3
100
AcDbSymbolTableRecord
100
AcDbTextStyleTableRecord
  2
SLDTEXTSTYLE5
 70
     0
 40
0.0
 41
0.6303308992
 50
0.0
 71
     0
 42
0.2
  3
TXT
  4
bigfont
  0
STYLE
  5
2D0
330
3
100
AcDbSymbolTableRecord
100
AcDbTextStyleTableRecord
  2
SLDTEXTSTYLE6
 70
     0
 40
0.0
 41
0.5918957696
 50
0.0
 71
     0
 42
0.2
  3
TXT
  4
bigfont
  0
STYLE
  5
2DA
330
3
100
AcDbSymbolTableRecord
100
AcDbTextStyleTableRecord
  2
SLDTEXTSTYLE7
 70
     0
 40
0.0
 41
0.5931877059
 50
0.0
 71
     0
 42
0.2
  3
TXT
  4
bigfont
  0
STYLE
  5
2E4
330
3
100
AcDbSymbolTableRecord
100
AcDbTextStyleTableRecord
  2
SLDTEXTSTYLE8
 70
     0
 40
0.0
 41
0.5906407456
 50
0.0
 71
     0
 42
0.2
  3
TXT
  4
bigfont
  0
STYLE
  5
2EE
330
3
100
AcDbSymbolTableRecord
100
AcDbTextStyleTableRecord
  2
SLDTEXTSTYLE9
 70
     0
 40
0.0
 41
0.5924448425
 50
0.0
 71
     0
 42
0.2
  3
TXT
  4
bigfont
  0
STYLE
  5
3AA
330
3
100
AcDbSymbolTableRecord
100
AcDbTextStyleTableRecord
  2
SLDTEXTSTYLE10
 70
     0
 40
0.0
 41
0.5918957449
 50
0.0
 71
     0
 42
0.2
  3
TXT
  4
bigfont
  0
STYLE
  5
3AD
330
3
100
AcDbSymbolTableRecord
100
AcDbTextStyleTableRecord
  2
SLDTEXTSTYLE11
 70
     0
 40
0.0
 41
0.4164159171
 50
0.0
 71
     0
 42
0.2
  3
TXT
  4
bigfont
  0
STYLE
  5
3B4
330
3
100
AcDbSymbolTableRecord
100
AcDbTextStyleTableRecord
  2
SLDTEXTSTYLE12
 70
     0
 40
0.0
 41
0.63
 50
0.0
 71
     0
 42
0.2
  3
TXT
  4
bigfont
  0
STYLE
  5
3B8
330
3
100
AcDbSymbolTableRecord
100
AcDbTextStyleTableRecord
  2
SLDTEXTSTYLE13
 70
     0
 40
0.0
 41
0.315
 50
0.0
 71
     0
 42
0.2
  3
TXT
  4
bigfont
  0
STYLE
  5
3BC
330
3
100
AcDbSymbolTableRecord
100
AcDbTextStyleTableRecord
  2
SLDTEXTSTYLE14
 70
     0
 40
0.0
 41
0.3722727273
 50
0.0
 71
     0
 42
0.2
  3
TXT
  4
bigfont
  0
STYLE
  5
3BF
330
3
100
AcDbSymbolTableRecord
100
AcDbTextStyleTableRecord
  2
SLDTEXTSTYLE15
 70
     0
 40
0.0
 41
0.39375
 50
0.0
 71
     0
 42
0.2
  3
TXT
  4
bigfont
  0
STYLE
  5
3C3
330
3
100
AcDbSymbolTableRecord
100
AcDbTextStyleTableRecord
  2
SLDTEXTSTYLE16
 70
     0
 40
0.0
 41
0.4725
 50
0.0
 71
     0
 42
0.2
  3
TXT
  4
bigfont
  0
STYLE
  5
3C7
330
3
100
AcDbSymbolTableRecord
100
AcDbTextStyleTableRecord
  2
SLDTEXTSTYLE17
 70
     0
 40
0.0
 41
0.441
 50
0.0
 71
     0
 42
0.2
  3
TXT
  4
bigfont
  0
STYLE
  5
3C9
330
3
100
AcDbSymbolTableRecord
100
AcDbTextStyleTableRecord
  2
SLDTEXTSTYLE18
 70
     0
 40
0.0
 41
0.441
 50
0.0
 71
     0
 42
0.2
  3
TXT
  4
bigfont
  0
ENDTAB
  0
TABLE
  2
VIEW
  5
6
330
0
100
AcDbSymbolTable
 70
     0
  0
ENDTAB
  0
TABLE
  2
UCS
  5
7
330
0
100
AcDbSymbolTable
 70
     0
  0
ENDTAB
  0
TABLE
  2
APPID
  5
9
330
0
100
AcDbSymbolTable
 70
     1
  0
APPID
  5
12
330
9
100
AcDbSymbolTableRecord
100
AcDbRegAppTableRecord
  2
ACAD
 70
     0
  0
ENDTAB
  0
TABLE
  2
DIMSTYLE
  5
A
330
0
100
AcDbSymbolTable
 70
     1
100
AcDbDimStyleTable
  0
DIMSTYLE
105
27
330
A
100
AcDbSymbolTableRecord
100
AcDbDimStyleTableRecord
  2
ISO-25
 70
     0
 41
2.5
 42
0.625
 43
3.75
 44
1.25
 73
     0
 74
     0
 77
     1
 78
     8
140
2.5
141
2.5
143
0.0393700787
147
0.625
171
     3
172
     1
271
     2
272
     2
274
     3
278
    44
283
     0
284
     8
340
11
  0
ENDTAB
  0
TABLE
  2
BLOCK_RECORD
  5
1
330
0
100
AcDbSymbolTable
 70
    10
  0
BLOCK_RECORD
  5
1F
330
1
100
AcDbSymbolTableRecord
100
AcDbBlockTableRecord
  2
*Model_Space
340
22
  0
BLOCK_RECORD
  5
1B
330
1
100
AcDbSymbolTableRecord
100
AcDbBlockTableRecord
  2
*Paper_Space
340
1E
  0
BLOCK_RECORD
  5
23
330
1
100
AcDbSymbolTableRecord
100
AcDbBlockTableRecord
  2
*Paper_Space0
340
26
  0
BLOCK_RECORD
  5
12F
330
1
100
AcDbSymbolTableRecord
100
AcDbBlockTableRecord
  2
ﾌﾞﾛｯｸ7
340
0
102
{BLKREFS
331
3FF
102
}
1001
ACAD
1000
DesignCenter Data
1002
{
1070
     1
1070
     0
1002
}
  0
BLOCK_RECORD
  5
2C8
330
1
100
AcDbSymbolTableRecord
100
AcDbBlockTableRecord
  2
KOZU0020
340
0
1001
ACAD
1000
DesignCenter Data
1002
{
1070
     1
1070
     0
1002
}
  0
BLOCK_RECORD
  5
2D2
330
1
100
AcDbSymbolTableRecord
100
AcDbBlockTableRecord
  2
KOZU0021
340
0
1001
ACAD
1000
DesignCenter Data
1002
{
1070
     1
1070
     0
1002
}
  0
BLOCK_RECORD
  5
2DC
330
1
100
AcDbSymbolTableRecord
100
AcDbBlockTableRecord
  2
KOZU0023
340
0
1001
ACAD
1000
DesignCenter Data
1002
{
1070
     1
1070
     0
1002
}
  0
BLOCK_RECORD
  5
2E6
330
1
100
AcDbSymbolTableRecord
100
AcDbBlockTableRecord
  2
KOZU0022
340
0
1001
ACAD
1000
DesignCenter Data
1002
{
1070
     1
1070
     0
1002
}
  0
BLOCK_RECORD
  5
2F0
330
1
100
AcDbSymbolTableRecord
100
AcDbBlockTableRecord
  2
KOZU0024
340
0
1001
ACAD
1000
DesignCenter Data
1002
{
1070
     1
1070
     0
1002
}
  0
BLOCK_RECORD
  5
2F9
330
1
100
AcDbSymbolTableRecord
100
AcDbBlockTableRecord
  2
KOZU0025
340
0
1001
ACAD
1000
DesignCenter Data
1002
{
1070
     1
1070
     0
1002
}
  0
BLOCK_RECORD
  5
3DC
330
1
100
AcDbSymbolTableRecord
100
AcDbBlockTableRecord
  2
SW_NOTE_0
340
0
102
{BLKREFS
331
3E1
102
}
1001
ACAD
1000
DesignCenter Data
1002
{
1070
     1
1070
     0
1002
}
  0
BLOCK_RECORD
  5
3F5
330
1
100
AcDbSymbolTableRecord
100
AcDbBlockTableRecord
  2
SW_NOTE_1
340
0
102
{BLKREFS
331
3FA
102
}
1001
ACAD
1000
DesignCenter Data
1002
{
1070
     1
1070
     0
1002
}
  0
ENDTAB
  0
ENDSEC
  0
SECTION
  2
BLOCKS
  0
BLOCK
  5
20
330
1F
100
AcDbEntity
  8
0
100
AcDbBlockBegin
  2
*Model_Space
 70
     0
 71
     0
 10
0.0
 20
0.0
 30
0.0
  3
*Model_Space
  1

  0
ENDBLK
  5
21
330
1F
100
AcDbEntity
  8
0
100
AcDbBlockEnd
  0
BLOCK
  5
1C
330
1B
100
AcDbEntity
 67
     1
  8
0
100
AcDbBlockBegin
  2
*Paper_Space
 70
     0
 71
     0
 10
0.0
 20
0.0
 30
0.0
  3
*Paper_Space
  1

  0
ENDBLK
  5
1D
330
1B
100
AcDbEntity
 67
     1
  8
0
100
AcDbBlockEnd
  0
BLOCK
  5
24
330
23
100
AcDbEntity
  8
0
100
AcDbBlockBegin
  2
*Paper_Space0
 70
     0
 71
     0
 10
0.0
 20
0.0
 30
0.0
  3
*Paper_Space0
  1

  0
ENDBLK
  5
25
330
23
100
AcDbEntity
  8
0
100
AcDbBlockEnd
  0
BLOCK
  5
130
330
12F
100
AcDbEntity
  8
0
100
AcDbBlockBegin
  2
ﾌﾞﾛｯｸ7
 70
     0
 71
     0
 10
0.0
 20
0.0
 30
0.0
  3
ﾌﾞﾛｯｸ7
  1

  0
CIRCLE
  5
132
330
12F
100
AcDbEntity
  8
SLD-0
  6
Continuous
 62
   179
100
AcDbCircle
 10
221.025
 20
31.9730034093
 30
0.0
 40
0.5
  0
CIRCLE
  5
133
330
12F
100
AcDbEntity
  8
SLD-0
  6
Continuous
 62
     6
100
AcDbCircle
 10
2.695
 20
31.9730034093
 30
0.0
 40
0.5000000000000004
  0
CIRCLE
  5
134
330
12F
100
AcDbEntity
  8
SLD-0
  6
Continuous
 62
   179
100
AcDbCircle
 10
197.995
 20
31.9730034093
 30
0.0
 40
1.5
  0
CIRCLE
  5
135
330
12F
100
AcDbEntity
  8
SLD-0
  6
Continuous
 62
   179
100
AcDbCircle
 10
197.995
 20
31.9730034093
 30
0.0
 40
1.25
  0
CIRCLE
  5
136
330
12F
100
AcDbEntity
  8
SLD-0
  6
Continuous
 62
   179
100
AcDbCircle
 10
192.995
 20
31.9730034093
 30
0.0
 40
1.25
  0
CIRCLE
  5
137
330
12F
100
AcDbEntity
  8
SLD-0
  6
Continuous
 62
   179
100
AcDbCircle
 10
192.995
 20
31.9730034093
 30
0.0
 40
1.5
  0
CIRCLE
  5
138
330
12F
100
AcDbEntity
  8
SLD-0
  6
Continuous
 62
   179
100
AcDbCircle
 10
182.495
 20
41.973007224
 30
0.0
 40
1.25
  0
CIRCLE
  5
139
330
12F
100
AcDbEntity
  8
SLD-0
  6
Continuous
 62
   179
100
AcDbCircle
 10
182.495
 20
41.973007224
 30
0.0
 40
1.5
  0
CIRCLE
  5
13A
330
12F
100
AcDbEntity
  8
SLD-0
  6
Continuous
 62
   179
100
AcDbCircle
 10
172.995
 20
21.9729995946
 30
0.0
 40
1.25
  0
CIRCLE
  5
13B
330
12F
100
AcDbEntity
  8
SLD-0
  6
Continuous
 62
   179
100
AcDbCircle
 10
172.995
 20
21.9729995946
 30
0.0
 40
1.5
  0
ARC
  5
13C
330
12F
100
AcDbEntity
  8
SLD-0
  6
Continuous
 62
   179
100
AcDbCircle
 10
120.8248618684
 20
42.4471760923
 30
0.0
 40
0.8705214617406154
100
AcDbArc
 50
1.7003970243
 51
24.2003970243
  0
ARC
  5
13D
330
12F
100
AcDbEntity
  8
SLD-0
  6
Continuous
 62
   179
100
AcDbCircle
 10
120.8050915762
 20
42.3994463845
 30
0.0
 40
0.9088110031289167
100
AcDbArc
 50
26.434681505
 51
48.934681505
  0
ARC
  5
13E
330
12F
100
AcDbEntity
  8
SLD-0
  6
Continuous
 62
   179
100
AcDbCircle
 10
120.7685608394
 20
42.3629156478
 30
0.0
 40
0.9603580377087895
100
AcDbArc
 50
48.7231819712
 51
71.2231819712
  0
ARC
  5
13F
330
12F
100
AcDbEntity
  8
SLD-0
  6
Continuous
 62
   179
100
AcDbCircle
 10
120.7208311317
 20
42.3431453555
 30
0.0
 40
0.9951971586821623
100
AcDbArc
 50
68.987324441
 51
91.487324441
  0
ARC
  5
140
330
12F
100
AcDbEntity
  8
SLD-0
  6
Continuous
 62
   179
100
AcDbCircle
 10
120.6691688683
 20
42.3431453555
 30
0.0
 40
0.9951971586821725
100
AcDbArc
 50
88.512675559
 51
111.012675559
  0
ARC
  5
141
330
12F
100
AcDbEntity
  8
SLD-0
  6
Continuous
 62
   179
100
AcDbCircle
 10
120.6214391606
 20
42.3629156478
 30
0.0
 40
0.9603580377087793
100
AcDbArc
 50
108.7768180288
 51
131.2768180288
  0
ARC
  5
142
330
12F
100
AcDbEntity
  8
SLD-0
  6
Continuous
 62
   179
100
AcDbCircle
 10
120.5849084238
 20
42.3994463845
 30
0.0
 40
0.9088110031288981
100
AcDbArc
 50
131.065318495
 51
153.565318495
  0
ARC
  5
143
330
12F
100
AcDbEntity
  8
SLD-0
  6
Continuous
 62
   179
100
AcDbCircle
 10
120.5651381316
 20
42.4471760923
 30
0.0
 40
0.8705214617406187
100
AcDbArc
 50
155.7996029757
 51
178.2996029757
  0
ARC
  5
144
330
12F
100
AcDbEntity
  8
SLD-0
  6
Continuous
 62
   179
100
AcDbCircle
 10
120.5651381316
 20
42.4988383556
 30
0.0
 40
0.8705214617406187
100
AcDbArc
 50
181.7003970243
 51
204.2003970243
  0
ARC
  5
145
330
12F
100
AcDbEntity
  8
SLD-0
  6
Continuous
 62
   179
100
AcDbCircle
 10
120.5849084238
 20
42.5465680634
 30
0.0
 40
0.9088110031288886
100
AcDbArc
 50
206.434681505
 51
228.934681505
  0
ARC
  5
146
330
12F
100
AcDbEntity
  8
SLD-0
  6
Continuous
 62
   179
100
AcDbCircle
 10
120.6214391606
 20
42.5830988001
 30
0.0
 40
0.9603580377087655
100
AcDbArc
 50
228.7231819712
 51
251.2231819712
  0
ARC
  5
147
330
12F
100
AcDbEntity
  8
SLD-0
  6
Continuous
 62
   179
100
AcDbCircle
 10
120.6691688683
 20
42.6028690924
 30
0.0
 40
0.9951971586821725
100
AcDbArc
 50
248.987324441
 51
271.487324441
  0
ARC
  5
148
330
12F
100
AcDbEntity
  8
SLD-0
  6
Continuous
 62
   179
100
AcDbCircle
 10
120.7208311317
 20
42.6028690924
 30
0.0
 40
0.9951971586821358
100
AcDbArc
 50
268.512675559
 51
291.012675559
  0
ARC
  5
149
330
12F
100
AcDbEntity
  8
SLD-0
  6
Continuous
 62
   179
100
AcDbCircle
 10
120.7685608394
 20
42.5830988001
 30
0.0
 40
0.9603580377087655
100
AcDbArc
 50
288.7768180288
 51
311.2768180288
  0
ARC
  5
14A
330
12F
100
AcDbEntity
  8
SLD-0
  6
Continuous
 62
   179
100
AcDbCircle
 10
120.8050915762
 20
42.5465680634
 30
0.0
 40
0.9088110031288898
100
AcDbArc
 50
311.065318495
 51
333.565318495
  0
ARC
  5
14B
330
12F
100
AcDbEntity
  8
SLD-0
  6
Continuous
 62
   179
100
AcDbCircle
 10
120.8248618684
 20
42.4988383556
 30
0.0
 40
0.8705214617406175
100
AcDbArc
 50
335.7996029757
 51
358.2996029757
  0
ARC
  5
14C
330
12F
100
AcDbEntity
  8
SLD-0
  6
Continuous
 62
   179
100
AcDbCircle
 10
120.8008133743
 20
42.4519596352
 30
0.0
 40
0.6945056315903418
100
AcDbArc
 50
1.7366636431
 51
24.2366636431
  0
ARC
  5
14D
330
12F
100
AcDbEntity
  8
SLD-0
  6
Continuous
 62
   179
100
AcDbCircle
 10
120.7847042473
 20
42.4130687622
 30
0.0
 40
0.7257334860109977
100
AcDbArc
 50
26.5149393292
 51
49.0149393292
  0
ARC
  5
14E
330
12F
100
AcDbEntity
  8
SLD-0
  6
Continuous
 62
   179
100
AcDbCircle
 10
120.7549384617
 20
42.3833029767
 30
0.0
 40
0.7677310123228993
100
AcDbArc
 50
48.794977241
 51
71.294977241
  0
ARC
  5
14F
330
12F
100
AcDbEntity
  8
SLD-0
  6
Continuous
 62
   179
100
AcDbCircle
 10
120.7160475888
 20
42.3671938497
 30
0.0
 40
0.7960916578443105
100
AcDbArc
 50
69.0149995991
 51
91.5149995991
  0
ARC
  5
150
330
12F
100
AcDbEntity
  8
SLD-0
  6
Continuous
 62
   179
100
AcDbCircle
 10
120.6739524112
 20
42.3671938497
 30
0.0
 40
0.7960916578443004
100
AcDbArc
 50
88.4850004009
 51
110.9850004009
  0
ARC
  5
151
330
12F
100
AcDbEntity
  8
SLD-0
  6
Continuous
 62
   179
100
AcDbCircle
 10
120.6350615383
 20
42.3833029767
 30
0.0
 40
0.7677310123228901
100
AcDbArc
 50
108.705022759
 51
131.205022759
  0
ARC
  5
152
330
12F
100
AcDbEntity
  8
SLD-0
  6
Continuous
 62
   179
100
AcDbCircle
 10
120.6052957527
 20
42.4130687622
 30
0.0
 40
0.7257334860109977
100
AcDbArc
 50
130.9850606708
 51
153.4850606708
  0
ARC
  5
153
330
12F
100
AcDbEntity
  8
SLD-0
  6
Continuous
 62
   179
100
AcDbCircle
 10
120.5891866257
 20
42.4519596352
 30
0.0
 40
0.6945056315903276
100
AcDbArc
 50
155.7633363569
 51
178.2633363569
  0
ARC
  5
154
330
12F
100
AcDbEntity
  8
SLD-0
  6
Continuous
 62
   179
100
AcDbCircle
 10
120.5891866257
 20
42.4940548127
 30
0.0
 40
0.6945056315903276
100
AcDbArc
 50
181.7366636431
 51
204.2366636431
  0
ARC
  5
155
330
12F
100
AcDbEntity
  8
SLD-0
  6
Continuous
 62
   179
100
AcDbCircle
 10
120.6052957527
 20
42.5329456857
 30
0.0
 40
0.7257334860110349
100
AcDbArc
 50
206.5149393292
 51
229.0149393292
  0
ARC
  5
156
330
12F
100
AcDbEntity
  8
SLD-0
  6
Continuous
 62
   179
100
AcDbCircle
 10
120.6350615383
 20
42.5627114712
 30
0.0
 40
0.7677310123228841
100
AcDbArc
 50
228.794977241
 51
251.294977241
  0
ARC
  5
157
330
12F
100
AcDbEntity
  8
SLD-0
  6
Continuous
 62
   179
100
AcDbCircle
 10
120.6739524112
 20
42.5788205982
 30
0.0
 40
0.7960916578443252
100
AcDbArc
 50
249.0149995991
 51
271.5149995991
  0
ARC
  5
158
330
12F
100
AcDbEntity
  8
SLD-0
  6
Continuous
 62
   179
100
AcDbCircle
 10
120.7160475888
 20
42.5788205982
 30
0.0
 40
0.7960916578443039
100
AcDbArc
 50
268.4850004009
 51
290.9850004009
  0
ARC
  5
159
330
12F
100
AcDbEntity
  8
SLD-0
  6
Continuous
 62
   179
100
AcDbCircle
 10
120.7549384617
 20
42.5627114712
 30
0.0
 40
0.7677310123228925
100
AcDbArc
 50
288.705022759
 51
311.205022759
  0
ARC
  5
15A
330
12F
100
AcDbEntity
  8
SLD-0
  6
Continuous
 62
   179
100
AcDbCircle
 10
120.7847042473
 20
42.5329456857
 30
0.0
 40
0.7257334860110135
100
AcDbArc
 50
310.9850606708
 51
333.4850606708
  0
ARC
  5
15B
330
12F
100
AcDbEntity
  8
SLD-0
  6
Continuous
 62
   179
100
AcDbCircle
 10
120.8008133743
 20
42.4940548127
 30
0.0
 40
0.6945056315903426
100
AcDbArc
 50
335.7633363569
 51
358.2633363569
  0
ARC
  5
15C
330
12F
100
AcDbEntity
  8
SLD-0
  6
Continuous
 62
   179
100
AcDbCircle
 10
124.9354849416
 20
42.4251717949
 30
0.0
 40
1.51027280314433
100
AcDbArc
 50
1.8150539785
 51
24.3150539785
  0
ARC
  5
15D
330
12F
100
AcDbEntity
  8
SLD-0
  6
Continuous
 62
   179
100
AcDbCircle
 10
124.8988732892
 20
42.3367834473
 30
0.0
 40
1.581387003741226
100
AcDbArc
 50
26.6879028743
 51
49.1879028743
  0
ARC
  5
15E
330
12F
100
AcDbEntity
  8
SLD-0
  6
Continuous
 62
   179
100
AcDbCircle
 10
124.8312237767
 20
42.2691339347
 30
0.0
 40
1.676816968067251
100
AcDbArc
 50
48.9491739221
 51
71.4491739221
  0
ARC
  5
15F
330
12F
100
AcDbEntity
  8
SLD-0
  6
Continuous
 62
   179
100
AcDbCircle
 10
124.742835429
 20
42.2325222824
 30
0.0
 40
1.741142171128707
100
AcDbArc
 50
69.0743189419
 51
91.5743189419
  0
ARC
  5
160
330
12F
100
AcDbEntity
  8
SLD-0
  6
Continuous
 62
   179
100
AcDbCircle
 10
124.647164571
 20
42.2325222824
 30
0.0
 40
1.741142171128643
100
AcDbArc
 50
88.4256810581
 51
110.9256810581
  0
ARC
  5
161
330
12F
100
AcDbEntity
  8
SLD-0
  6
Continuous
 62
   179
100
AcDbCircle
 10
124.5587762233
 20
42.2691339347
 30
0.0
 40
1.676816968067279
100
AcDbArc
 50
108.5508260779
 51
131.0508260779
  0
ARC
  5
162
330
12F
100
AcDbEntity
  8
SLD-0
  6
Continuous
 62
   179
100
AcDbCircle
 10
124.4911267108
 20
42.3367834473
 30
0.0
 40
1.581387003741226
100
AcDbArc
 50
130.8120971257
 51
153.3120971257
  0
ARC
  5
163
330
12F
100
AcDbEntity
  8
SLD-0
  6
Continuous
 62
   179
100
AcDbCircle
 10
124.4545150584
 20
42.4251717949
 30
0.0
 40
1.510272803144275
100
AcDbArc
 50
155.6849460215
 51
178.1849460215
  0
ARC
  5
164
330
12F
100
AcDbEntity
  8
SLD-0
  6
Continuous
 62
   179
100
AcDbCircle
 10
124.4545150584
 20
42.520842653
 30
0.0
 40
1.510272803144287
100
AcDbArc
 50
181.8150539785
 51
204.3150539785
  0
ARC
  5
165
330
12F
100
AcDbEntity
  8
SLD-0
  6
Continuous
 62
   179
100
AcDbCircle
 10
124.4911267108
 20
42.6092310006
 30
0.0
 40
1.581387003741241
100
AcDbArc
 50
206.6879028743
 51
229.1879028743
  0
ARC
  5
166
330
12F
100
AcDbEntity
  8
SLD-0
  6
Continuous
 62
   179
100
AcDbCircle
 10
124.5587762233
 20
42.6768805132
 30
0.0
 40
1.67681696806726
100
AcDbArc
 50
228.9491739221
 51
251.4491739221
  0
ARC
  5
167
330
12F
100
AcDbEntity
  8
SLD-0
  6
Continuous
 62
   179
100
AcDbCircle
 10
124.647164571
 20
42.7134921655
 30
0.0
 40
1.741142171128713
100
AcDbArc
 50
249.0743189419
 51
271.5743189419
  0
ARC
  5
168
330
12F
100
AcDbEntity
  8
SLD-0
  6
Continuous
 62
   179
100
AcDbCircle
 10
124.742835429
 20
42.7134921655
 30
0.0
 40
1.741142171128702
100
AcDbArc
 50
268.4256810581
 51
290.9256810581
  0
ARC
  5
169
330
12F
100
AcDbEntity
  8
SLD-0
  6
Continuous
 62
   179
100
AcDbCircle
 10
124.8312237767
 20
42.6768805132
 30
0.0
 40
1.676816968067251
100
AcDbArc
 50
288.5508260779
 51
311.0508260779
  0
ARC
  5
16A
330
12F
100
AcDbEntity
  8
SLD-0
  6
Continuous
 62
   179
100
AcDbCircle
 10
124.8988732892
 20
42.6092310006
 30
0.0
 40
1.581387003741229
100
AcDbArc
 50
310.8120971257
 51
333.3120971257
  0
ARC
  5
16B
330
12F
100
AcDbEntity
  8
SLD-0
  6
Continuous
 62
   179
100
AcDbCircle
 10
124.9354849416
 20
42.520842653
 30
0.0
 40
1.510272803144331
100
AcDbArc
 50
335.6849460215
 51
358.1849460215
  0
ARC
  5
16C
330
12F
100
AcDbEntity
  8
SLD-0
  6
Continuous
 62
   179
100
AcDbCircle
 10
124.9354849416
 20
21.4251641655
 30
0.0
 40
1.510272803144302
100
AcDbArc
 50
1.8150539785
 51
24.3150539785
  0
ARC
  5
16D
330
12F
100
AcDbEntity
  8
SLD-0
  6
Continuous
 62
   179
100
AcDbCircle
 10
124.8988732892
 20
21.3367758179
 30
0.0
 40
1.581387003741231
100
AcDbArc
 50
26.6879028743
 51
49.1879028743
  0
ARC
  5
16E
330
12F
100
AcDbEntity
  8
SLD-0
  6
Continuous
 62
   179
100
AcDbCircle
 10
124.8312237767
 20
21.2691263053
 30
0.0
 40
1.676816968067268
100
AcDbArc
 50
48.9491739221
 51
71.4491739221
  0
ARC
  5
16F
330
12F
100
AcDbEntity
  8
SLD-0
  6
Continuous
 62
   179
100
AcDbCircle
 10
124.742835429
 20
21.232514653
 30
0.0
 40
1.741142171128711
100
AcDbArc
 50
69.0743189419
 51
91.5743189419
  0
ARC
  5
170
330
12F
100
AcDbEntity
  8
SLD-0
  6
Continuous
 62
   179
100
AcDbCircle
 10
124.647164571
 20
21.232514653
 30
0.0
 40
1.741142171128645
100
AcDbArc
 50
88.4256810581
 51
110.9256810581
  0
ARC
  5
171
330
12F
100
AcDbEntity
  8
SLD-0
  6
Continuous
 62
   179
100
AcDbCircle
 10
124.5587762233
 20
21.2691263053
 30
0.0
 40
1.676816968067279
100
AcDbArc
 50
108.5508260779
 51
131.0508260779
  0
ARC
  5
172
330
12F
100
AcDbEntity
  8
SLD-0
  6
Continuous
 62
   179
100
AcDbCircle
 10
124.4911267108
 20
21.3367758179
 30
0.0
 40
1.581387003741261
100
AcDbArc
 50
130.8120971257
 51
153.3120971257
  0
ARC
  5
173
330
12F
100
AcDbEntity
  8
SLD-0
  6
Continuous
 62
   179
100
AcDbCircle
 10
124.4545150584
 20
21.4251641655
 30
0.0
 40
1.510272803144287
100
AcDbArc
 50
155.6849460215
 51
178.1849460215
  0
ARC
  5
174
330
12F
100
AcDbEntity
  8
SLD-0
  6
Continuous
 62
   179
100
AcDbCircle
 10
124.4545150584
 20
21.5208350236
 30
0.0
 40
1.510272803144261
100
AcDbArc
 50
181.8150539785
 51
204.3150539785
  0
ARC
  5
175
330
12F
100
AcDbEntity
  8
SLD-0
  6
Continuous
 62
   179
100
AcDbCircle
 10
124.4911267108
 20
21.6092233713
 30
0.0
 40
1.58138700374127
100
AcDbArc
 50
206.6879028743
 51
229.1879028743
  0
ARC
  5
176
330
12F
100
AcDbEntity
  8
SLD-0
  6
Continuous
 62
   179
100
AcDbCircle
 10
124.5587762233
 20
21.6768728838
 30
0.0
 40
1.676816968067257
100
AcDbArc
 50
228.9491739221
 51
251.4491739221
  0
ARC
  5
177
330
12F
100
AcDbEntity
  8
SLD-0
  6
Continuous
 62
   179
100
AcDbCircle
 10
124.647164571
 20
21.7134845361
 30
0.0
 40
1.741142171128693
100
AcDbArc
 50
249.0743189419
 51
271.5743189419
  0
ARC
  5
178
330
12F
100
AcDbEntity
  8
SLD-0
  6
Continuous
 62
   179
100
AcDbCircle
 10
124.742835429
 20
21.7134845361
 30
0.0
 40
1.741142171128684
100
AcDbArc
 50
268.4256810581
 51
290.9256810581
  0
ARC
  5
179
330
12F
100
AcDbEntity
  8
SLD-0
  6
Continuous
 62
   179
100
AcDbCircle
 10
124.8312237767
 20
21.6768728838
 30
0.0
 40
1.676816968067261
100
AcDbArc
 50
288.5508260779
 51
311.0508260779
  0
ARC
  5
17A
330
12F
100
AcDbEntity
  8
SLD-0
  6
Continuous
 62
   179
100
AcDbCircle
 10
124.8988732892
 20
21.6092233713
 30
0.0
 40
1.58138700374121
100
AcDbArc
 50
310.8120971257
 51
333.3120971257
  0
ARC
  5
17B
330
12F
100
AcDbEntity
  8
SLD-0
  6
Continuous
 62
   179
100
AcDbCircle
 10
124.9354849416
 20
21.5208350236
 30
0.0
 40
1.510272803144359
100
AcDbArc
 50
335.6849460215
 51
358.1849460215
  0
ARC
  5
17C
330
12F
100
AcDbEntity
  8
SLD-0
  6
Continuous
 62
   179
100
AcDbCircle
 10
120.8248618684
 20
21.4471684629
 30
0.0
 40
0.8705214617405915
100
AcDbArc
 50
1.7003970243
 51
24.2003970243
  0
ARC
  5
17D
330
12F
100
AcDbEntity
  8
SLD-0
  6
Continuous
 62
   179
100
AcDbCircle
 10
120.8050915762
 20
21.3994387551
 30
0.0
 40
0.9088110031288886
100
AcDbArc
 50
26.434681505
 51
48.934681505
  0
ARC
  5
17E
330
12F
100
AcDbEntity
  8
SLD-0
  6
Continuous
 62
   179
100
AcDbCircle
 10
120.7685608394
 20
21.3629080184
 30
0.0
 40
0.9603580377087574
100
AcDbArc
 50
48.7231819712
 51
71.2231819712
  0
ARC
  5
17F
330
12F
100
AcDbEntity
  8
SLD-0
  6
Continuous
 62
   179
100
AcDbCircle
 10
120.7208311317
 20
21.3431377261
 30
0.0
 40
0.9951971586821567
100
AcDbArc
 50
68.987324441
 51
91.487324441
  0
ARC
  5
180
330
12F
100
AcDbEntity
  8
SLD-0
  6
Continuous
 62
   179
100
AcDbCircle
 10
120.6691688683
 20
21.3431377261
 30
0.0
 40
0.9951971586821727
100
AcDbArc
 50
88.512675559
 51
111.012675559
  0
ARC
  5
181
330
12F
100
AcDbEntity
  8
SLD-0
  6
Continuous
 62
   179
100
AcDbCircle
 10
120.6214391606
 20
21.3629080184
 30
0.0
 40
0.9603580377087975
100
AcDbArc
 50
108.7768180288
 51
131.2768180288
  0
ARC
  5
182
330
12F
100
AcDbEntity
  8
SLD-0
  6
Continuous
 62
   179
100
AcDbCircle
 10
120.5849084238
 20
21.3994387551
 30
0.0
 40
0.908811003128922
100
AcDbArc
 50
131.065318495
 51
153.565318495
  0
ARC
  5
183
330
12F
100
AcDbEntity
  8
SLD-0
  6
Continuous
 62
   179
100
AcDbCircle
 10
120.5651381316
 20
21.4471684629
 30
0.0
 40
0.8705214617405929
100
AcDbArc
 50
155.7996029757
 51
178.2996029757
  0
ARC
  5
184
330
12F
100
AcDbEntity
  8
SLD-0
  6
Continuous
 62
   179
100
AcDbCircle
 10
120.5651381316
 20
21.4988307262
 30
0.0
 40
0.870521461740587
100
AcDbArc
 50
181.7003970243
 51
204.2003970243
  0
ARC
  5
185
330
12F
100
AcDbEntity
  8
SLD-0
  6
Continuous
 62
   179
100
AcDbCircle
 10
120.5849084238
 20
21.546560434
 30
0.0
 40
0.908811003128922
100
AcDbArc
 50
206.434681505
 51
228.934681505
  0
ARC
  5
186
330
12F
100
AcDbEntity
  8
SLD-0
  6
Continuous
 62
   179
100
AcDbCircle
 10
120.6214391606
 20
21.5830911707
 30
0.0
 40
0.9603580377087523
100
AcDbArc
 50
228.7231819712
 51
251.2231819712
  0
ARC
  5
187
330
12F
100
AcDbEntity
  8
SLD-0
  6
Continuous
 62
   179
100
AcDbCircle
 10
120.6691688683
 20
21.602861463
 30
0.0
 40
0.9951971586821567
100
AcDbArc
 50
248.987324441
 51
271.487324441
  0
ARC
  5
188
330
12F
100
AcDbEntity
  8
SLD-0
  6
Continuous
 62
   179
100
AcDbCircle
 10
120.7208311317
 20
21.602861463
 30
0.0
 40
0.9951971586821425
100
AcDbArc
 50
268.512675559
 51
291.012675559
  0
ARC
  5
189
330
12F
100
AcDbEntity
  8
SLD-0
  6
Continuous
 62
   179
100
AcDbCircle
 10
120.7685608394
 20
21.5830911707
 30
0.0
 40
0.9603580377087659
100
AcDbArc
 50
288.7768180288
 51
311.2768180288
  0
ARC
  5
18A
330
12F
100
AcDbEntity
  8
SLD-0
  6
Continuous
 62
   179
100
AcDbCircle
 10
120.8050915762
 20
21.546560434
 30
0.0
 40
0.9088110031288903
100
AcDbArc
 50
311.065318495
 51
333.565318495
  0
ARC
  5
18B
330
12F
100
AcDbEntity
  8
SLD-0
  6
Continuous
 62
   179
100
AcDbCircle
 10
120.8248618684
 20
21.4988307262
 30
0.0
 40
0.8705214617406156
100
AcDbArc
 50
335.7996029757
 51
358.2996029757
  0
ARC
  5
18C
330
12F
100
AcDbEntity
  8
SLD-0
  6
Continuous
 62
   179
100
AcDbCircle
 10
120.8008133743
 20
21.4519520058
 30
0.0
 40
0.6945056315903423
100
AcDbArc
 50
1.7366636431
 51
24.2366636431
  0
ARC
  5
18D
330
12F
100
AcDbEntity
  8
SLD-0
  6
Continuous
 62
   179
100
AcDbCircle
 10
120.7847042473
 20
21.4130611328
 30
0.0
 40
0.7257334860110073
100
AcDbArc
 50
26.5149393292
 51
49.0149393292
  0
ARC
  5
18E
330
12F
100
AcDbEntity
  8
SLD-0
  6
Continuous
 62
   179
100
AcDbCircle
 10
120.7549384617
 20
21.3832953473
 30
0.0
 40
0.7677310123228959
100
AcDbArc
 50
48.794977241
 51
71.294977241
  0
ARC
  5
18F
330
12F
100
AcDbEntity
  8
SLD-0
  6
Continuous
 62
   179
100
AcDbCircle
 10
120.7160475888
 20
21.3671862203
 30
0.0
 40
0.7960916578443171
100
AcDbArc
 50
69.0149995991
 51
91.5149995991
  0
ARC
  5
190
330
12F
100
AcDbEntity
  8
SLD-0
  6
Continuous
 62
   179
100
AcDbCircle
 10
120.6739524112
 20
21.3671862203
 30
0.0
 40
0.7960916578443225
100
AcDbArc
 50
88.4850004009
 51
110.9850004009
  0
ARC
  5
191
330
12F
100
AcDbEntity
  8
SLD-0
  6
Continuous
 62
   179
100
AcDbCircle
 10
120.6350615383
 20
21.3832953473
 30
0.0
 40
0.7677310123228642
100
AcDbArc
 50
108.705022759
 51
131.205022759
  0
ARC
  5
192
330
12F
100
AcDbEntity
  8
SLD-0
  6
Continuous
 62
   179
100
AcDbCircle
 10
120.6052957527
 20
21.4130611328
 30
0.0
 40
0.7257334860109922
100
AcDbArc
 50
130.9850606708
 51
153.4850606708
  0
ARC
  5
193
330
12F
100
AcDbEntity
  8
SLD-0
  6
Continuous
 62
   179
100
AcDbCircle
 10
120.5891866257
 20
21.4519520058
 30
0.0
 40
0.6945056315903281
100
AcDbArc
 50
155.7633363569
 51
178.2633363569
  0
ARC
  5
194
330
12F
100
AcDbEntity
  8
SLD-0
  6
Continuous
 62
   179
100
AcDbCircle
 10
120.5891866257
 20
21.4940471833
 30
0.0
 40
0.6945056315903333
100
AcDbArc
 50
181.7366636431
 51
204.2366636431
  0
ARC
  5
195
330
12F
100
AcDbEntity
  8
SLD-0
  6
Continuous
 62
   179
100
AcDbCircle
 10
120.6052957527
 20
21.5329380563
 30
0.0
 40
0.7257334860110264
100
AcDbArc
 50
206.5149393292
 51
229.0149393292
  0
ARC
  5
196
330
12F
100
AcDbEntity
  8
SLD-0
  6
Continuous
 62
   179
100
AcDbCircle
 10
120.6350615383
 20
21.5627038418
 30
0.0
 40
0.7677310123228573
100
AcDbArc
 50
228.794977241
 51
251.294977241
  0
ARC
  5
197
330
12F
100
AcDbEntity
  8
SLD-0
  6
Continuous
 62
   179
100
AcDbCircle
 10
120.6739524112
 20
21.5788129688
 30
0.0
 40
0.7960916578443217
100
AcDbArc
 50
249.0149995991
 51
271.5149995991
  0
ARC
  5
198
330
12F
100
AcDbEntity
  8
SLD-0
  6
Continuous
 62
   179
100
AcDbCircle
 10
120.7160475888
 20
21.5788129688
 30
0.0
 40
0.7960916578443209
100
AcDbArc
 50
268.4850004009
 51
290.9850004009
  0
ARC
  5
199
330
12F
100
AcDbEntity
  8
SLD-0
  6
Continuous
 62
   179
100
AcDbCircle
 10
120.7549384617
 20
21.5627038418
 30
0.0
 40
0.7677310123228868
100
AcDbArc
 50
288.705022759
 51
311.205022759
  0
ARC
  5
19A
330
12F
100
AcDbEntity
  8
SLD-0
  6
Continuous
 62
   179
100
AcDbCircle
 10
120.7847042473
 20
21.5329380563
 30
0.0
 40
0.725733486011001
100
AcDbArc
 50
310.9850606708
 51
333.4850606708
  0
ARC
  5
19B
330
12F
100
AcDbEntity
  8
SLD-0
  6
Continuous
 62
   179
100
AcDbCircle
 10
120.8008133743
 20
21.4940471833
 30
0.0
 40
0.6945056315903417
100
AcDbArc
 50
335.7633363569
 51
358.2633363569
  0
LINE
  5
19C
330
12F
100
AcDbEntity
  8
SLD-0
  6
CENTER
 62
   179
100
AcDbLine
 10
0.0
 20
31.9730034093
 30
0.0
 11
65.0830866426
 21
31.9730034093
 31
0.0
  0
LINE
  5
19D
330
12F
100
AcDbEntity
  8
SLD-0
  6
Continuous
 62
   179
100
AcDbLine
 10
104.695
 20
45.173007224
 30
0.0
 11
104.695
 21
18.7729995946
 31
0.0
  0
LINE
  5
19E
330
12F
100
AcDbEntity
  8
SLD-0
  6
CENTER
 62
   179
100
AcDbLine
 10
221.025
 20
35.2952679383
 30
0.0
 11
221.025
 21
30.667614982
 31
0.0
  0
LINE
  5
19F
330
12F
100
AcDbEntity
  8
SLD-0
  6
Continuous
 62
   179
100
AcDbLine
 10
207.495
 20
44.2730071947
 30
0.0
 11
207.495
 21
19.6729996238
 31
0.0
  0
LINE
  5
1A0
330
12F
100
AcDbEntity
  8
SLD-0
  6
Continuous
 62
   179
100
AcDbLine
 10
204.295
 20
44.673007224
 30
0.0
 11
207.095
 21
44.673007224
 31
0.0
  0
LINE
  5
1A1
330
12F
100
AcDbEntity
  8
SLD-0
  6
Continuous
 62
   179
100
AcDbLine
 10
204.295
 20
19.2729995946
 30
0.0
 11
207.095
 21
19.2729995946
 31
0.0
  0
LINE
  5
1A2
330
12F
100
AcDbEntity
  8
SLD-0
  6
Continuous
 62
   179
100
AcDbLine
 10
203.495
 20
44.2730071947
 30
0.0
 11
204.295
 21
44.2730071947
 31
0.0
  0
LINE
  5
1A3
330
12F
100
AcDbEntity
  8
SLD-0
  6
Continuous
 62
   179
100
AcDbLine
 10
203.495
 20
19.6729996238
 30
0.0
 11
204.295
 21
19.6729996238
 31
0.0
  0
LINE
  5
1A4
330
12F
100
AcDbEntity
  8
SLD-0
  6
Continuous
 62
   179
100
AcDbLine
 10
204.295
 20
44.673007224
 30
0.0
 11
204.295
 21
19.2729995946
 31
0.0
  0
LINE
  5
1A5
330
12F
100
AcDbEntity
  8
SLD-0
  6
Continuous
 62
   179
100
AcDbLine
 10
204.295
 20
44.2730071947
 30
0.0
 11
207.495
 21
44.2730071947
 31
0.0
  0
LINE
  5
1A6
330
12F
100
AcDbEntity
  8
SLD-0
  6
Continuous
 62
   179
100
AcDbLine
 10
204.295
 20
19.6729996238
 30
0.0
 11
207.495
 21
19.6729996238
 31
0.0
  0
LINE
  5
1A7
330
12F
100
AcDbEntity
  8
SLD-0
  6
Continuous
 62
   179
100
AcDbLine
 10
207.095
 20
44.673007224
 30
0.0
 11
207.495
 21
44.2730071947
 31
0.0
  0
LINE
  5
1A8
330
12F
100
AcDbEntity
  8
SLD-0
  6
Continuous
 62
   179
100
AcDbLine
 10
207.095
 20
19.2729995946
 30
0.0
 11
207.495
 21
19.6729996238
 31
0.0
  0
LINE
  5
1A9
330
12F
100
AcDbEntity
  8
SLD-0
  6
CENTER
 62
   179
100
AcDbLine
 10
100.4988947599
 20
31.9730034093
 30
0.0
 11
118.195
 21
31.9730034093
 31
0.0
  0
LINE
  5
1AA
330
12F
100
AcDbEntity
  8
SLD-0
  6
CENTER
 62
   179
100
AcDbLine
 10
2.695
 20
35.2884950759
 30
0.0
 11
2.695
 21
30.667614982
 31
0.0
  0
LINE
  5
1AB
330
12F
100
AcDbEntity
  8
SLD-0
  6
Continuous
 62
   179
100
AcDbLine
 10
112.495
 20
45.973007224
 30
0.0
 11
118.195
 21
45.973007224
 31
0.0
  0
LINE
  5
1AC
330
12F
100
AcDbEntity
  8
SLD-0
  6
Continuous
 62
   179
100
AcDbLine
 10
112.495
 20
17.9729995946
 30
0.0
 11
118.195
 21
17.9729995946
 31
0.0
  0
LINE
  5
1AD
330
12F
100
AcDbEntity
  8
SLD-0
  6
Continuous
 62
   179
100
AcDbLine
 10
104.995
 20
45.473007224
 30
0.0
 11
112.195
 21
45.473007224
 31
0.0
  0
LINE
  5
1AE
330
12F
100
AcDbEntity
  8
SLD-0
  6
Continuous
 62
   179
100
AcDbLine
 10
104.995
 20
18.4729995946
 30
0.0
 11
112.195
 21
18.4729995946
 31
0.0
  0
LINE
  5
1AF
330
12F
100
AcDbEntity
  8
SLD-0
  6
Continuous
 62
   179
100
AcDbLine
 10
118.195
 20
45.973007224
 30
0.0
 11
118.195
 21
17.9729995946
 31
0.0
  0
LINE
  5
1B0
330
12F
100
AcDbEntity
  8
SLD-0
  6
Continuous
 62
   179
100
AcDbLine
 10
112.195
 20
45.673007224
 30
0.0
 11
112.195
 21
18.2729995946
 31
0.0
  0
LINE
  5
1B1
330
12F
100
AcDbEntity
  8
SLD-0
  6
Continuous
 62
   179
100
AcDbLine
 10
116.195
 20
45.973007224
 30
0.0
 11
116.195
 21
17.9729995946
 31
0.0
  0
LINE
  5
1B2
330
12F
100
AcDbEntity
  8
SLD-0
  6
Continuous
 62
   179
100
AcDbLine
 10
151.195
 20
45.473007224
 30
0.0
 11
151.195
 21
18.4729995946
 31
0.0
  0
LINE
  5
1B3
330
12F
100
AcDbEntity
  8
SLD-0
  6
Continuous
 62
   179
100
AcDbLine
 10
118.195
 20
45.473007224
 30
0.0
 11
151.195
 21
45.473007224
 31
0.0
  0
LINE
  5
1B4
330
12F
100
AcDbEntity
  8
SLD-0
  6
Continuous
 62
   179
100
AcDbLine
 10
118.195
 20
18.4729995946
 30
0.0
 11
151.195
 21
18.4729995946
 31
0.0
  0
LINE
  5
1B5
330
12F
100
AcDbEntity
  8
SLD-0
  6
Continuous
 62
   179
100
AcDbLine
 10
190.495
 20
45.673007224
 30
0.0
 11
190.495
 21
18.2729995946
 31
0.0
  0
LINE
  5
1B6
330
12F
100
AcDbEntity
  8
SLD-0
  6
Continuous
 62
   179
100
AcDbLine
 10
151.795
 20
45.973007224
 30
0.0
 11
153.495
 21
45.973007224
 31
0.0
  0
LINE
  5
1B7
330
12F
100
AcDbEntity
  8
SLD-0
  6
Continuous
 62
   179
100
AcDbLine
 10
151.795
 20
17.9729995946
 30
0.0
 11
153.495
 21
17.9729995946
 31
0.0
  0
LINE
  5
1B8
330
12F
100
AcDbEntity
  8
SLD-0
  6
Continuous
 62
   179
100
AcDbLine
 10
153.495
 20
46.473007224
 30
0.0
 11
153.495
 21
17.4729995946
 31
0.0
  0
LINE
  5
1B9
330
12F
100
AcDbEntity
  8
SLD-0
  6
Continuous
 62
   179
100
AcDbLine
 10
167.495
 20
46.473007224
 30
0.0
 11
167.495
 21
17.4729995946
 31
0.0
  0
LINE
  5
1BA
330
12F
100
AcDbEntity
  8
SLD-0
  6
Continuous
 62
   179
100
AcDbLine
 10
189.495
 20
46.473007224
 30
0.0
 11
189.495
 21
17.4729995946
 31
0.0
  0
LINE
  5
1BB
330
12F
100
AcDbEntity
  8
SLD-0
  6
Continuous
 62
   179
100
AcDbLine
 10
184.495
 20
46.473007224
 30
0.0
 11
184.495
 21
17.4729995946
 31
0.0
  0
LINE
  5
1BC
330
12F
100
AcDbEntity
  8
SLD-0
  6
Continuous
 62
   179
100
AcDbLine
 10
180.495
 20
45.973007224
 30
0.0
 11
180.495
 21
17.9729995946
 31
0.0
  0
LINE
  5
1BD
330
12F
100
AcDbEntity
  8
SLD-0
  6
Continuous
 62
   179
100
AcDbLine
 10
175.495
 20
45.973007224
 30
0.0
 11
175.495
 21
17.9729995946
 31
0.0
  0
LINE
  5
1BE
330
12F
100
AcDbEntity
  8
SLD-0
  6
Continuous
 62
   179
100
AcDbLine
 10
153.495
 20
46.473007224
 30
0.0
 11
167.495
 21
46.473007224
 31
0.0
  0
LINE
  5
1BF
330
12F
100
AcDbEntity
  8
SLD-0
  6
Continuous
 62
   179
100
AcDbLine
 10
153.495
 20
17.4729995946
 30
0.0
 11
167.495
 21
17.4729995946
 31
0.0
  0
LINE
  5
1C0
330
12F
100
AcDbEntity
  8
SLD-0
  6
Continuous
 62
   179
100
AcDbLine
 10
184.495
 20
46.473007224
 30
0.0
 11
189.495
 21
46.473007224
 31
0.0
  0
LINE
  5
1C1
330
12F
100
AcDbEntity
  8
SLD-0
  6
Continuous
 62
   179
100
AcDbLine
 10
184.495
 20
17.4729995946
 30
0.0
 11
189.495
 21
17.4729995946
 31
0.0
  0
LINE
  5
1C2
330
12F
100
AcDbEntity
  8
SLD-0
  6
Continuous
 62
   179
100
AcDbLine
 10
203.495
 20
45.473007224
 30
0.0
 11
203.495
 21
18.4729995946
 31
0.0
  0
LINE
  5
1C3
330
12F
100
AcDbEntity
  8
SLD-0
  6
Continuous
 62
   179
100
AcDbLine
 10
195.495
 20
45.473007224
 30
0.0
 11
195.495
 21
18.4729995946
 31
0.0
  0
LINE
  5
1C4
330
12F
100
AcDbEntity
  8
SLD-0
  6
Continuous
 62
   179
100
AcDbLine
 10
195.495
 20
44.473007224
 30
0.0
 11
190.495
 21
44.473007224
 31
0.0
  0
LINE
  5
1C5
330
12F
100
AcDbEntity
  8
SLD-0
  6
Continuous
 62
   179
100
AcDbLine
 10
195.495
 20
19.4729995946
 30
0.0
 11
190.495
 21
19.4729995946
 31
0.0
  0
LINE
  5
1C6
330
12F
100
AcDbEntity
  8
SLD-0
  6
Continuous
 62
   179
100
AcDbLine
 10
202.995
 20
45.973007224
 30
0.0
 11
195.995
 21
45.973007224
 31
0.0
  0
LINE
  5
1C7
330
12F
100
AcDbEntity
  8
SLD-0
  6
Continuous
 62
   179
100
AcDbLine
 10
202.995
 20
17.9729995946
 30
0.0
 11
195.995
 21
17.9729995946
 31
0.0
  0
LINE
  5
1C8
330
12F
100
AcDbEntity
  8
SLD-0
  6
CENTER
 62
   179
100
AcDbLine
 10
197.995
 20
34.1064677918
 30
0.0
 11
197.995
 21
29.6582173242
 31
0.0
  0
LINE
  5
1C9
330
12F
100
AcDbEntity
  8
SLD-0
  6
Continuous
 62
   179
100
AcDbLine
 10
153.495
 20
45.973007224
 30
0.0
 11
167.495
 21
45.973007224
 31
0.0
  0
LINE
  5
1CA
330
12F
100
AcDbEntity
  8
SLD-0
  6
Continuous
 62
   179
100
AcDbLine
 10
167.495
 20
45.973007224
 30
0.0
 11
184.495
 21
45.973007224
 31
0.0
  0
LINE
  5
1CB
330
12F
100
AcDbEntity
  8
SLD-0
  6
Continuous
 62
   179
100
AcDbLine
 10
189.495
 20
45.973007224
 30
0.0
 11
190.195
 21
45.973007224
 31
0.0
  0
LINE
  5
1CC
330
12F
100
AcDbEntity
  8
SLD-0
  6
Continuous
 62
   179
100
AcDbLine
 10
184.495
 20
45.973007224
 30
0.0
 11
189.495
 21
45.973007224
 31
0.0
  0
LINE
  5
1CD
330
12F
100
AcDbEntity
  8
SLD-0
  6
Continuous
 62
   179
100
AcDbLine
 10
184.495
 20
17.9729995946
 30
0.0
 11
189.495
 21
17.9729995946
 31
0.0
  0
LINE
  5
1CE
330
12F
100
AcDbEntity
  8
SLD-0
  6
Continuous
 62
   179
100
AcDbLine
 10
189.495
 20
17.9729995946
 30
0.0
 11
190.195
 21
17.9729995946
 31
0.0
  0
LINE
  5
1CF
330
12F
100
AcDbEntity
  8
SLD-0
  6
Continuous
 62
   179
100
AcDbLine
 10
167.495
 20
17.9729995946
 30
0.0
 11
184.495
 21
17.9729995946
 31
0.0
  0
LINE
  5
1D0
330
12F
100
AcDbEntity
  8
SLD-0
  6
Continuous
 62
   179
100
AcDbLine
 10
153.495
 20
17.9729995946
 30
0.0
 11
167.495
 21
17.9729995946
 31
0.0
  0
LINE
  5
1D1
330
12F
100
AcDbEntity
  8
SLD-0
  6
CENTER
 62
   179
100
AcDbLine
 10
120.695
 20
43.8692110863
 30
0.0
 11
120.695
 21
40.7210144765
 31
0.0
  0
LINE
  5
1D2
330
12F
100
AcDbEntity
  8
SLD-0
  6
CENTER
 62
   179
100
AcDbLine
 10
124.695
 20
44.5906728094
 30
0.0
 11
124.695
 21
40.2619024709
 31
0.0
  0
LINE
  5
1D3
330
12F
100
AcDbEntity
  8
SLD-0
  6
CENTER
 62
   179
100
AcDbLine
 10
119.2141157495
 20
42.473007224
 30
0.0
 11
127.2813695622
 21
42.473007224
 31
0.0
  0
LINE
  5
1D4
330
12F
100
AcDbEntity
  8
SLD-0
  6
Continuous
 62
   179
100
AcDbLine
 10
118.195
 20
31.9730034093
 30
0.0
 11
122.695
 21
31.9730034093
 31
0.0
  0
LINE
  5
1D5
330
12F
100
AcDbEntity
  8
SLD-0
  6
CENTER
 62
   179
100
AcDbLine
 10
123.195
 20
31.9730034093
 30
0.0
 11
175.195
 21
31.9730034093
 31
0.0
  0
LINE
  5
1D6
330
12F
100
AcDbEntity
  8
SLD-0
  6
Continuous
 62
   179
100
AcDbLine
 10
175.195
 20
31.9730034093
 30
0.0
 11
180.195
 21
31.9730034093
 31
0.0
  0
LINE
  5
1D7
330
12F
100
AcDbEntity
  8
SLD-0
  6
CENTER
 62
   179
100
AcDbLine
 10
180.195
 20
31.9730034093
 30
0.0
 11
224.4796281067
 21
31.9730034093
 31
0.0
  0
LINE
  5
1D8
330
12F
100
AcDbEntity
  8
SLD-0
  6
Continuous
 62
   179
100
AcDbLine
 10
182.495
 20
28.4801991003
 30
0.0
 11
182.495
 21
22.4801991003
 31
0.0
  0
LINE
  5
1D9
330
12F
100
AcDbEntity
  8
SLD-0
  6
CENTER
 62
   179
100
AcDbLine
 10
180.7030892211
 20
41.973007224
 30
0.0
 11
184.2310120058
 21
41.973007224
 31
0.0
  0
LINE
  5
1DA
330
12F
100
AcDbEntity
  8
SLD-0
  6
HIDDEN
 62
   179
100
AcDbLine
 10
104.695
 20
44.673007224
 30
0.0
 11
108.695
 21
44.673007224
 31
0.0
  0
LINE
  5
1DB
330
12F
100
AcDbEntity
  8
SLD-0
  6
HIDDEN
 62
   179
100
AcDbLine
 10
104.695
 20
44.273007224
 30
0.0
 11
108.695
 21
44.273007224
 31
0.0
  0
LINE
  5
1DC
330
12F
100
AcDbEntity
  8
SLD-0
  6
Continuous
 62
   179
100
AcDbLine
 10
198.8610254038
 20
31.9730034093
 30
0.0
 11
198.4280127019
 21
32.7230034093
 31
0.0
  0
LINE
  5
1DD
330
12F
100
AcDbEntity
  8
SLD-0
  6
Continuous
 62
   179
100
AcDbLine
 10
198.4280127019
 20
32.7230034093
 30
0.0
 11
197.5619872981
 21
32.7230034093
 31
0.0
  0
LINE
  5
1DE
330
12F
100
AcDbEntity
  8
SLD-0
  6
Continuous
 62
   179
100
AcDbLine
 10
197.1289745962
 20
31.9730034093
 30
0.0
 11
197.5619872981
 21
32.7230034093
 31
0.0
  0
LINE
  5
1DF
330
12F
100
AcDbEntity
  8
SLD-0
  6
Continuous
 62
   179
100
AcDbLine
 10
197.5619872981
 20
31.2230034093
 30
0.0
 11
197.1289745962
 21
31.9730034093
 31
0.0
  0
LINE
  5
1E0
330
12F
100
AcDbEntity
  8
SLD-0
  6
Continuous
 62
   179
100
AcDbLine
 10
198.4280127019
 20
31.2230034093
 30
0.0
 11
197.5619872981
 21
31.2230034093
 31
0.0
  0
LINE
  5
1E1
330
12F
100
AcDbEntity
  8
SLD-0
  6
Continuous
 62
   179
100
AcDbLine
 10
198.8610254038
 20
31.9730034093
 30
0.0
 11
198.4280127019
 21
31.2230034093
 31
0.0
  0
LINE
  5
1E2
330
12F
100
AcDbEntity
  8
SLD-0
  6
Continuous
 62
   179
100
AcDbLine
 10
193.8610254038
 20
31.9730034093
 30
0.0
 11
193.4280127019
 21
31.2230034093
 31
0.0
  0
LINE
  5
1E3
330
12F
100
AcDbEntity
  8
SLD-0
  6
Continuous
 62
   179
100
AcDbLine
 10
193.4280127019
 20
31.2230034093
 30
0.0
 11
192.5619872981
 21
31.2230034093
 31
0.0
  0
LINE
  5
1E4
330
12F
100
AcDbEntity
  8
SLD-0
  6
Continuous
 62
   179
100
AcDbLine
 10
192.5619872981
 20
31.2230034093
 30
0.0
 11
192.1289745962
 21
31.9730034093
 31
0.0
  0
LINE
  5
1E5
330
12F
100
AcDbEntity
  8
SLD-0
  6
Continuous
 62
   179
100
AcDbLine
 10
192.1289745962
 20
31.9730034093
 30
0.0
 11
192.5619872981
 21
32.7230034093
 31
0.0
  0
LINE
  5
1E6
330
12F
100
AcDbEntity
  8
SLD-0
  6
Continuous
 62
   179
100
AcDbLine
 10
193.4280127019
 20
32.7230034093
 30
0.0
 11
192.5619872981
 21
32.7230034093
 31
0.0
  0
LINE
  5
1E7
330
12F
100
AcDbEntity
  8
SLD-0
  6
Continuous
 62
   179
100
AcDbLine
 10
193.8610254038
 20
31.9730034093
 30
0.0
 11
193.4280127019
 21
32.7230034093
 31
0.0
  0
LINE
  5
1E8
330
12F
100
AcDbEntity
  8
SLD-0
  6
CENTER
 62
   179
100
AcDbLine
 10
192.995
 20
34.1064677918
 30
0.0
 11
192.995
 21
29.6582173242
 31
0.0
  0
LINE
  5
1E9
330
12F
100
AcDbEntity
  8
SLD-0
  6
Continuous
 62
   179
100
AcDbLine
 10
182.0619872981
 20
41.223007224
 30
0.0
 11
181.6289745962
 21
41.973007224
 31
0.0
  0
LINE
  5
1EA
330
12F
100
AcDbEntity
  8
SLD-0
  6
Continuous
 62
   179
100
AcDbLine
 10
183.3610254038
 20
41.973007224
 30
0.0
 11
182.9280127019
 21
41.223007224
 31
0.0
  0
LINE
  5
1EB
330
12F
100
AcDbEntity
  8
SLD-0
  6
Continuous
 62
   179
100
AcDbLine
 10
182.9280127019
 20
41.223007224
 30
0.0
 11
182.0619872981
 21
41.223007224
 31
0.0
  0
LINE
  5
1EC
330
12F
100
AcDbEntity
  8
SLD-0
  6
CENTER
 62
   179
100
AcDbLine
 10
182.495
 20
44.1064716065
 30
0.0
 11
182.495
 21
39.6582211389
 31
0.0
  0
LINE
  5
1ED
330
12F
100
AcDbEntity
  8
SLD-0
  6
Continuous
 62
   179
100
AcDbLine
 10
183.3610254038
 20
41.973007224
 30
0.0
 11
182.9280127019
 21
42.723007224
 31
0.0
  0
LINE
  5
1EE
330
12F
100
AcDbEntity
  8
SLD-0
  6
Continuous
 62
   179
100
AcDbLine
 10
181.6289745962
 20
41.973007224
 30
0.0
 11
182.0619872981
 21
42.723007224
 31
0.0
  0
LINE
  5
1EF
330
12F
100
AcDbEntity
  8
SLD-0
  6
Continuous
 62
   179
100
AcDbLine
 10
182.9280127019
 20
42.723007224
 30
0.0
 11
182.0619872981
 21
42.723007224
 31
0.0
  0
LINE
  5
1F0
330
12F
100
AcDbEntity
  8
SLD-0
  6
Continuous
 62
   179
100
AcDbLine
 10
173.4280127019
 20
21.2229995946
 30
0.0
 11
172.5619872981
 21
21.2229995946
 31
0.0
  0
LINE
  5
1F1
330
12F
100
AcDbEntity
  8
SLD-0
  6
CENTER
 62
   179
100
AcDbLine
 10
171.2030892211
 20
21.9729995946
 30
0.0
 11
174.7310120058
 21
21.9729995946
 31
0.0
  0
LINE
  5
1F2
330
12F
100
AcDbEntity
  8
SLD-0
  6
Continuous
 62
   179
100
AcDbLine
 10
173.4280127019
 20
22.7229995946
 30
0.0
 11
172.5619872981
 21
22.7229995946
 31
0.0
  0
LINE
  5
1F3
330
12F
100
AcDbEntity
  8
SLD-0
  6
Continuous
 62
   179
100
AcDbLine
 10
172.1289745962
 20
21.9729995946
 30
0.0
 11
172.5619872981
 21
22.7229995946
 31
0.0
  0
LINE
  5
1F4
330
12F
100
AcDbEntity
  8
SLD-0
  6
CENTER
 62
   179
100
AcDbLine
 10
172.995
 20
24.1064639771
 30
0.0
 11
172.995
 21
19.6582135095
 31
0.0
  0
LINE
  5
1F5
330
12F
100
AcDbEntity
  8
SLD-0
  6
Continuous
 62
   179
100
AcDbLine
 10
173.8610254038
 20
21.9729995946
 30
0.0
 11
173.4280127019
 21
22.7229995946
 31
0.0
  0
LINE
  5
1F6
330
12F
100
AcDbEntity
  8
SLD-0
  6
Continuous
 62
   179
100
AcDbLine
 10
173.8610254038
 20
21.9729995946
 30
0.0
 11
173.4280127019
 21
21.2229995946
 31
0.0
  0
LINE
  5
1F7
330
12F
100
AcDbEntity
  8
SLD-0
  6
Continuous
 62
   179
100
AcDbLine
 10
172.5619872981
 20
21.2229995946
 30
0.0
 11
172.1289745962
 21
21.9729995946
 31
0.0
  0
LINE
  5
1F8
330
12F
100
AcDbEntity
  8
SLD-0
  6
Continuous
 62
   179
100
AcDbLine
 10
182.995
 20
23.4801991003
 30
0.0
 11
182.495
 21
22.4801991003
 31
0.0
  0
LINE
  5
1F9
330
12F
100
AcDbEntity
  8
SLD-0
  6
Continuous
 62
   179
100
AcDbLine
 10
182.495
 20
22.4801991003
 30
0.0
 11
181.995
 21
23.4801991003
 31
0.0
  0
LINE
  5
1FA
330
12F
100
AcDbEntity
  8
SLD-0
  6
Continuous
 62
   179
100
AcDbLine
 10
182.495
 20
28.4801991003
 30
0.0
 11
181.995
 21
27.4801991003
 31
0.0
  0
LINE
  5
1FB
330
12F
100
AcDbEntity
  8
SLD-0
  6
Continuous
 62
   179
100
AcDbLine
 10
182.995
 20
27.4801991003
 30
0.0
 11
182.495
 21
28.4801991003
 31
0.0
  0
LINE
  5
1FC
330
12F
100
AcDbEntity
  8
SLD-0
  6
Continuous
 62
   179
100
AcDbLine
 10
123.6250636369
 20
41.8552791767
 30
0.0
 11
125.6895749798
 21
43.0472253563
 31
0.0
  0
LINE
  5
1FD
330
12F
100
AcDbEntity
  8
SLD-0
  6
Continuous
 62
   179
100
AcDbLine
 10
123.6250636369
 20
43.0907352712
 30
0.0
 11
125.6895749798
 21
41.8987890916
 31
0.0
  0
LINE
  5
1FE
330
12F
100
AcDbEntity
  8
SLD-0
  6
CENTER
 62
   179
100
AcDbLine
 10
120.695
 20
20.0767957322
 30
0.0
 11
120.695
 21
23.224992342
 31
0.0
  0
LINE
  5
1FF
330
12F
100
AcDbEntity
  8
SLD-0
  6
CENTER
 62
   179
100
AcDbLine
 10
124.695
 20
19.3553340091
 30
0.0
 11
124.695
 21
23.6841043476
 31
0.0
  0
LINE
  5
200
330
12F
100
AcDbEntity
  8
SLD-0
  6
CENTER
 62
   179
100
AcDbLine
 10
119.2141157495
 20
21.4729995946
 30
0.0
 11
127.2813695622
 21
21.4729995946
 31
0.0
  0
LINE
  5
201
330
12F
100
AcDbEntity
  8
SLD-0
  6
Continuous
 62
   179
100
AcDbLine
 10
123.6250636369
 20
22.0907276418
 30
0.0
 11
125.6895749798
 21
20.8987814622
 31
0.0
  0
LINE
  5
202
330
12F
100
AcDbEntity
  8
SLD-0
  6
Continuous
 62
   179
100
AcDbLine
 10
123.6250636369
 20
20.8552715473
 30
0.0
 11
125.6895749798
 21
22.0472177269
 31
0.0
  0
LINE
  5
203
330
12F
100
AcDbEntity
  8
SLD-0
  6
HIDDEN
 62
   179
100
AcDbLine
 10
104.695
 20
19.6729995946
 30
0.0
 11
108.695
 21
19.6729995946
 31
0.0
  0
LINE
  5
204
330
12F
100
AcDbEntity
  8
SLD-0
  6
HIDDEN
 62
   179
100
AcDbLine
 10
104.695
 20
19.2729995946
 30
0.0
 11
108.695
 21
19.2729995946
 31
0.0
  0
LINE
  5
205
330
12F
100
AcDbEntity
  8
SLD-0
  6
Continuous
 62
   179
100
AcDbLine
 10
104.695
 20
45.173007224
 30
0.0
 11
104.995
 21
45.473007224
 31
0.0
  0
LINE
  5
206
330
12F
100
AcDbEntity
  8
SLD-0
  6
Continuous
 62
   179
100
AcDbLine
 10
104.695
 20
18.7729995946
 30
0.0
 11
104.995
 21
18.4729995946
 31
0.0
  0
LINE
  5
207
330
12F
100
AcDbEntity
  8
SLD-0
  6
Continuous
 62
   179
100
AcDbLine
 10
112.495
 20
33.9730034093
 30
0.0
 11
116.195
 21
33.9730034093
 31
0.0
  0
LINE
  5
208
330
12F
100
AcDbEntity
  8
SLD-0
  6
Continuous
 62
   179
100
AcDbLine
 10
112.495
 20
35.9730034093
 30
0.0
 11
116.195
 21
35.9730034093
 31
0.0
  0
LINE
  5
209
330
12F
100
AcDbEntity
  8
SLD-0
  6
Continuous
 62
   179
100
AcDbLine
 10
112.495
 20
37.9730034093
 30
0.0
 11
116.195
 21
37.9730034093
 31
0.0
  0
LINE
  5
20A
330
12F
100
AcDbEntity
  8
SLD-0
  6
Continuous
 62
   179
100
AcDbLine
 10
112.495
 20
39.9730034093
 30
0.0
 11
116.195
 21
39.9730034093
 31
0.0
  0
LINE
  5
20B
330
12F
100
AcDbEntity
  8
SLD-0
  6
Continuous
 62
   179
100
AcDbLine
 10
112.495
 20
41.4730034093
 30
0.0
 11
116.195
 21
41.4730034093
 31
0.0
  0
LINE
  5
20C
330
12F
100
AcDbEntity
  8
SLD-0
  6
Continuous
 62
   179
100
AcDbLine
 10
112.495
 20
42.9730034093
 30
0.0
 11
116.195
 21
42.9730034093
 31
0.0
  0
LINE
  5
20D
330
12F
100
AcDbEntity
  8
SLD-0
  6
Continuous
 62
   179
100
AcDbLine
 10
112.495
 20
43.9730034093
 30
0.0
 11
116.195
 21
43.9730034093
 31
0.0
  0
LINE
  5
20E
330
12F
100
AcDbEntity
  8
SLD-0
  6
Continuous
 62
   179
100
AcDbLine
 10
112.495
 20
44.9730034093
 30
0.0
 11
116.195
 21
44.9730034093
 31
0.0
  0
LINE
  5
20F
330
12F
100
AcDbEntity
  8
SLD-0
  6
Continuous
 62
   179
100
AcDbLine
 10
112.495
 20
45.973007224
 30
0.0
 11
112.495
 21
17.9729995946
 31
0.0
  0
LINE
  5
210
330
12F
100
AcDbEntity
  8
SLD-0
  6
Continuous
 62
   179
100
AcDbLine
 10
112.195
 20
45.673007224
 30
0.0
 11
112.495
 21
45.973007224
 31
0.0
  0
LINE
  5
211
330
12F
100
AcDbEntity
  8
SLD-0
  6
Continuous
 62
   179
100
AcDbLine
 10
112.195
 20
18.2729995946
 30
0.0
 11
112.495
 21
17.9729995946
 31
0.0
  0
LINE
  5
212
330
12F
100
AcDbEntity
  8
SLD-0
  6
Continuous
 62
   179
100
AcDbLine
 10
112.495
 20
25.9730034093
 30
0.0
 11
116.195
 21
25.9730034093
 31
0.0
  0
LINE
  5
213
330
12F
100
AcDbEntity
  8
SLD-0
  6
Continuous
 62
   179
100
AcDbLine
 10
112.495
 20
27.9730034093
 30
0.0
 11
116.195
 21
27.9730034093
 31
0.0
  0
LINE
  5
214
330
12F
100
AcDbEntity
  8
SLD-0
  6
Continuous
 62
   179
100
AcDbLine
 10
112.495
 20
23.9730034093
 30
0.0
 11
116.195
 21
23.9730034093
 31
0.0
  0
LINE
  5
215
330
12F
100
AcDbEntity
  8
SLD-0
  6
Continuous
 62
   179
100
AcDbLine
 10
112.495
 20
20.9730034093
 30
0.0
 11
116.195
 21
20.9730034093
 31
0.0
  0
LINE
  5
216
330
12F
100
AcDbEntity
  8
SLD-0
  6
Continuous
 62
   179
100
AcDbLine
 10
112.495
 20
22.4730034093
 30
0.0
 11
116.195
 21
22.4730034093
 31
0.0
  0
LINE
  5
217
330
12F
100
AcDbEntity
  8
SLD-0
  6
Continuous
 62
   179
100
AcDbLine
 10
112.495
 20
29.9730034093
 30
0.0
 11
116.195
 21
29.9730034093
 31
0.0
  0
LINE
  5
218
330
12F
100
AcDbEntity
  8
SLD-0
  6
Continuous
 62
   179
100
AcDbLine
 10
112.495
 20
19.9730034093
 30
0.0
 11
116.195
 21
19.9730034093
 31
0.0
  0
LINE
  5
219
330
12F
100
AcDbEntity
  8
SLD-0
  6
Continuous
 62
   179
100
AcDbLine
 10
112.495
 20
18.9730034093
 30
0.0
 11
116.195
 21
18.9730034093
 31
0.0
  0
LINE
  5
21A
330
12F
100
AcDbEntity
  8
SLD-0
  6
Continuous
 62
   179
100
AcDbLine
 10
112.495
 20
31.9730034093
 30
0.0
 11
116.195
 21
31.9730034093
 31
0.0
  0
LINE
  5
21B
330
12F
100
AcDbEntity
  8
SLD-0
  6
Continuous
 62
   179
100
AcDbLine
 10
104.995
 20
45.473007224
 30
0.0
 11
104.995
 21
18.4729995946
 31
0.0
  0
LINE
  5
21C
330
12F
100
AcDbEntity
  8
SLD-0
  6
Continuous
 62
   179
100
AcDbLine
 10
151.495
 20
45.673007224
 30
0.0
 11
151.495
 21
18.2729995946
 31
0.0
  0
LINE
  5
21D
330
12F
100
AcDbEntity
  8
SLD-0
  6
Continuous
 62
   179
100
AcDbLine
 10
151.195
 20
44.973007224
 30
0.0
 11
151.495
 21
44.973007224
 31
0.0
  0
LINE
  5
21E
330
12F
100
AcDbEntity
  8
SLD-0
  6
Continuous
 62
   179
100
AcDbLine
 10
151.195
 20
18.9729995946
 30
0.0
 11
151.495
 21
18.9729995946
 31
0.0
  0
LINE
  5
21F
330
12F
100
AcDbEntity
  8
SLD-0
  6
Continuous
 62
   179
100
AcDbLine
 10
151.795
 20
45.973007224
 30
0.0
 11
151.795
 21
17.9729995946
 31
0.0
  0
LINE
  5
220
330
12F
100
AcDbEntity
  8
SLD-0
  6
Continuous
 62
   179
100
AcDbLine
 10
151.495
 20
45.673007224
 30
0.0
 11
151.795
 21
45.973007224
 31
0.0
  0
LINE
  5
221
330
12F
100
AcDbEntity
  8
SLD-0
  6
Continuous
 62
   179
100
AcDbLine
 10
151.495
 20
18.2729995946
 30
0.0
 11
151.795
 21
17.9729995946
 31
0.0
  0
LINE
  5
222
330
12F
100
AcDbEntity
  8
SLD-0
  6
Continuous
 62
   179
100
AcDbLine
 10
155.495
 20
46.473007224
 30
0.0
 11
155.495
 21
17.4729995946
 31
0.0
  0
LINE
  5
223
330
12F
100
AcDbEntity
  8
SLD-0
  6
Continuous
 62
   179
100
AcDbLine
 10
157.495
 20
46.473007224
 30
0.0
 11
157.495
 21
17.4729995946
 31
0.0
  0
LINE
  5
224
330
12F
100
AcDbEntity
  8
SLD-0
  6
Continuous
 62
   179
100
AcDbLine
 10
159.495
 20
46.473007224
 30
0.0
 11
159.495
 21
17.4729995946
 31
0.0
  0
LINE
  5
225
330
12F
100
AcDbEntity
  8
SLD-0
  6
Continuous
 62
   179
100
AcDbLine
 10
161.495
 20
46.473007224
 30
0.0
 11
161.495
 21
17.4729995946
 31
0.0
  0
LINE
  5
226
330
12F
100
AcDbEntity
  8
SLD-0
  6
Continuous
 62
   179
100
AcDbLine
 10
163.495
 20
46.473007224
 30
0.0
 11
163.495
 21
17.4729995946
 31
0.0
  0
LINE
  5
227
330
12F
100
AcDbEntity
  8
SLD-0
  6
Continuous
 62
   179
100
AcDbLine
 10
165.495
 20
46.473007224
 30
0.0
 11
165.495
 21
17.4729995946
 31
0.0
  0
LINE
  5
228
330
12F
100
AcDbEntity
  8
SLD-0
  6
Continuous
 62
   179
100
AcDbLine
 10
153.495
 20
45.473007224
 30
0.0
 11
167.495
 21
45.473007224
 31
0.0
  0
LINE
  5
229
330
12F
100
AcDbEntity
  8
SLD-0
  6
Continuous
 62
   179
100
AcDbLine
 10
153.495
 20
44.723007224
 30
0.0
 11
167.495
 21
44.723007224
 31
0.0
  0
LINE
  5
22A
330
12F
100
AcDbEntity
  8
SLD-0
  6
Continuous
 62
   179
100
AcDbLine
 10
153.495
 20
43.973007224
 30
0.0
 11
167.495
 21
43.973007224
 31
0.0
  0
LINE
  5
22B
330
12F
100
AcDbEntity
  8
SLD-0
  6
Continuous
 62
   179
100
AcDbLine
 10
153.495
 20
42.973007224
 30
0.0
 11
167.495
 21
42.973007224
 31
0.0
  0
LINE
  5
22C
330
12F
100
AcDbEntity
  8
SLD-0
  6
Continuous
 62
   179
100
AcDbLine
 10
153.495
 20
41.973007224
 30
0.0
 11
167.495
 21
41.973007224
 31
0.0
  0
LINE
  5
22D
330
12F
100
AcDbEntity
  8
SLD-0
  6
Continuous
 62
   179
100
AcDbLine
 10
153.495
 20
39.973007224
 30
0.0
 11
167.495
 21
39.973007224
 31
0.0
  0
LINE
  5
22E
330
12F
100
AcDbEntity
  8
SLD-0
  6
Continuous
 62
   179
100
AcDbLine
 10
153.495
 20
37.973007224
 30
0.0
 11
167.495
 21
37.973007224
 31
0.0
  0
LINE
  5
22F
330
12F
100
AcDbEntity
  8
SLD-0
  6
Continuous
 62
   179
100
AcDbLine
 10
153.495
 20
35.973007224
 30
0.0
 11
167.495
 21
35.973007224
 31
0.0
  0
LINE
  5
230
330
12F
100
AcDbEntity
  8
SLD-0
  6
Continuous
 62
   179
100
AcDbLine
 10
153.495
 20
33.973007224
 30
0.0
 11
167.495
 21
33.973007224
 31
0.0
  0
LINE
  5
231
330
12F
100
AcDbEntity
  8
SLD-0
  6
Continuous
 62
   179
100
AcDbLine
 10
153.495
 20
18.4729995946
 30
0.0
 11
167.495
 21
18.4729995946
 31
0.0
  0
LINE
  5
232
330
12F
100
AcDbEntity
  8
SLD-0
  6
Continuous
 62
   179
100
AcDbLine
 10
153.495
 20
19.2229995946
 30
0.0
 11
167.495
 21
19.2229995946
 31
0.0
  0
LINE
  5
233
330
12F
100
AcDbEntity
  8
SLD-0
  6
Continuous
 62
   179
100
AcDbLine
 10
153.495
 20
19.9729995946
 30
0.0
 11
167.495
 21
19.9729995946
 31
0.0
  0
LINE
  5
234
330
12F
100
AcDbEntity
  8
SLD-0
  6
Continuous
 62
   179
100
AcDbLine
 10
153.495
 20
20.9729995946
 30
0.0
 11
167.495
 21
20.9729995946
 31
0.0
  0
LINE
  5
235
330
12F
100
AcDbEntity
  8
SLD-0
  6
Continuous
 62
   179
100
AcDbLine
 10
153.495
 20
21.9729995946
 30
0.0
 11
167.495
 21
21.9729995946
 31
0.0
  0
LINE
  5
236
330
12F
100
AcDbEntity
  8
SLD-0
  6
Continuous
 62
   179
100
AcDbLine
 10
153.495
 20
23.9729995946
 30
0.0
 11
167.495
 21
23.9729995946
 31
0.0
  0
LINE
  5
237
330
12F
100
AcDbEntity
  8
SLD-0
  6
Continuous
 62
   179
100
AcDbLine
 10
153.495
 20
25.9729995946
 30
0.0
 11
167.495
 21
25.9729995946
 31
0.0
  0
LINE
  5
238
330
12F
100
AcDbEntity
  8
SLD-0
  6
Continuous
 62
   179
100
AcDbLine
 10
153.495
 20
27.9729995946
 30
0.0
 11
167.495
 21
27.9729995946
 31
0.0
  0
LINE
  5
239
330
12F
100
AcDbEntity
  8
SLD-0
  6
Continuous
 62
   179
100
AcDbLine
 10
153.495
 20
29.9729995946
 30
0.0
 11
167.495
 21
29.9729995946
 31
0.0
  0
LINE
  5
23A
330
12F
100
AcDbEntity
  8
SLD-0
  6
Continuous
 62
   179
100
AcDbLine
 10
153.495
 20
31.9730034093
 30
0.0
 11
167.495
 21
31.9730034093
 31
0.0
  0
LINE
  5
23B
330
12F
100
AcDbEntity
  8
SLD-0
  6
Continuous
 62
   179
100
AcDbLine
 10
195.995
 20
45.973007224
 30
0.0
 11
195.995
 21
17.9729995946
 31
0.0
  0
LINE
  5
23C
330
12F
100
AcDbEntity
  8
SLD-0
  6
Continuous
 62
   179
100
AcDbLine
 10
202.995
 20
45.973007224
 30
0.0
 11
202.995
 21
17.9729995946
 31
0.0
  0
LINE
  5
23D
330
12F
100
AcDbEntity
  8
SLD-0
  6
Continuous
 62
   179
100
AcDbLine
 10
195.495
 20
45.473007224
 30
0.0
 11
195.995
 21
45.973007224
 31
0.0
  0
LINE
  5
23E
330
12F
100
AcDbEntity
  8
SLD-0
  6
Continuous
 62
   179
100
AcDbLine
 10
202.995
 20
45.973007224
 30
0.0
 11
203.495
 21
45.473007224
 31
0.0
  0
LINE
  5
23F
330
12F
100
AcDbEntity
  8
SLD-0
  6
Continuous
 62
   179
100
AcDbLine
 10
195.495
 20
18.4729995946
 30
0.0
 11
195.995
 21
17.9729995946
 31
0.0
  0
LINE
  5
240
330
12F
100
AcDbEntity
  8
SLD-0
  6
Continuous
 62
   179
100
AcDbLine
 10
202.995
 20
17.9729995946
 30
0.0
 11
203.495
 21
18.4729995946
 31
0.0
  0
LINE
  5
241
330
12F
100
AcDbEntity
  8
SLD-0
  6
Continuous
 62
   179
100
AcDbLine
 10
190.195
 20
45.973007224
 30
0.0
 11
190.195
 21
17.9729995946
 31
0.0
  0
LINE
  5
242
330
12F
100
AcDbEntity
  8
SLD-0
  6
Continuous
 62
   179
100
AcDbLine
 10
190.195
 20
45.973007224
 30
0.0
 11
190.495
 21
45.673007224
 31
0.0
  0
LINE
  5
243
330
12F
100
AcDbEntity
  8
SLD-0
  6
Continuous
 62
   179
100
AcDbLine
 10
190.195
 20
17.9729995946
 30
0.0
 11
190.495
 21
18.2729995946
 31
0.0
  0
LINE
  5
244
330
12F
100
AcDbEntity
  8
SLD-0
  6
Continuous
 62
   179
100
AcDbLine
 10
186.995
 20
46.473007224
 30
0.0
 11
186.995
 21
17.4729995946
 31
0.0
  0
LINE
  5
245
330
12F
100
AcDbEntity
  8
SLD-0
  6
Continuous
 62
   179
100
AcDbLine
 10
185.745
 20
46.473007224
 30
0.0
 11
185.745
 21
17.4729995946
 31
0.0
  0
LINE
  5
246
330
12F
100
AcDbEntity
  8
SLD-0
  6
Continuous
 62
   179
100
AcDbLine
 10
188.245
 20
46.473007224
 30
0.0
 11
188.245
 21
17.4729995946
 31
0.0
  0
LINE
  5
247
330
12F
100
AcDbEntity
  8
SLD-0
  6
Continuous
 62
   179
100
AcDbLine
 10
184.495
 20
45.473007224
 30
0.0
 11
189.495
 21
45.473007224
 31
0.0
  0
LINE
  5
248
330
12F
100
AcDbEntity
  8
SLD-0
  6
Continuous
 62
   179
100
AcDbLine
 10
184.495
 20
44.973007224
 30
0.0
 11
189.495
 21
44.973007224
 31
0.0
  0
LINE
  5
249
330
12F
100
AcDbEntity
  8
SLD-0
  6
Continuous
 62
   179
100
AcDbLine
 10
184.495
 20
44.223007224
 30
0.0
 11
189.495
 21
44.223007224
 31
0.0
  0
LINE
  5
24A
330
12F
100
AcDbEntity
  8
SLD-0
  6
Continuous
 62
   179
100
AcDbLine
 10
184.495
 20
43.473007224
 30
0.0
 11
189.495
 21
43.473007224
 31
0.0
  0
LINE
  5
24B
330
12F
100
AcDbEntity
  8
SLD-0
  6
Continuous
 62
   179
100
AcDbLine
 10
184.495
 20
42.723007224
 30
0.0
 11
189.495
 21
42.723007224
 31
0.0
  0
LINE
  5
24C
330
12F
100
AcDbEntity
  8
SLD-0
  6
Continuous
 62
   179
100
AcDbLine
 10
184.495
 20
41.973007224
 30
0.0
 11
189.495
 21
41.973007224
 31
0.0
  0
LINE
  5
24D
330
12F
100
AcDbEntity
  8
SLD-0
  6
Continuous
 62
   179
100
AcDbLine
 10
184.495
 20
40.973007224
 30
0.0
 11
189.495
 21
40.973007224
 31
0.0
  0
LINE
  5
24E
330
12F
100
AcDbEntity
  8
SLD-0
  6
Continuous
 62
   179
100
AcDbLine
 10
184.495
 20
39.973007224
 30
0.0
 11
189.495
 21
39.973007224
 31
0.0
  0
LINE
  5
24F
330
12F
100
AcDbEntity
  8
SLD-0
  6
Continuous
 62
   179
100
AcDbLine
 10
184.495
 20
38.973007224
 30
0.0
 11
189.495
 21
38.973007224
 31
0.0
  0
LINE
  5
250
330
12F
100
AcDbEntity
  8
SLD-0
  6
Continuous
 62
   179
100
AcDbLine
 10
184.495
 20
37.723007224
 30
0.0
 11
189.495
 21
37.723007224
 31
0.0
  0
LINE
  5
251
330
12F
100
AcDbEntity
  8
SLD-0
  6
Continuous
 62
   179
100
AcDbLine
 10
184.495
 20
36.473007224
 30
0.0
 11
189.495
 21
36.473007224
 31
0.0
  0
LINE
  5
252
330
12F
100
AcDbEntity
  8
SLD-0
  6
Continuous
 62
   179
100
AcDbLine
 10
184.495
 20
35.223007224
 30
0.0
 11
189.495
 21
35.223007224
 31
0.0
  0
LINE
  5
253
330
12F
100
AcDbEntity
  8
SLD-0
  6
Continuous
 62
   179
100
AcDbLine
 10
184.495
 20
33.973007224
 30
0.0
 11
189.495
 21
33.973007224
 31
0.0
  0
LINE
  5
254
330
12F
100
AcDbEntity
  8
SLD-0
  6
Continuous
 62
   179
100
AcDbLine
 10
184.495
 20
32.723007224
 30
0.0
 11
189.495
 21
32.723007224
 31
0.0
  0
LINE
  5
255
330
12F
100
AcDbEntity
  8
SLD-0
  6
Continuous
 62
   179
100
AcDbLine
 10
184.495
 20
21.9729995946
 30
0.0
 11
189.495
 21
21.9729995946
 31
0.0
  0
LINE
  5
256
330
12F
100
AcDbEntity
  8
SLD-0
  6
Continuous
 62
   179
100
AcDbLine
 10
184.495
 20
18.9729995946
 30
0.0
 11
189.495
 21
18.9729995946
 31
0.0
  0
LINE
  5
257
330
12F
100
AcDbEntity
  8
SLD-0
  6
Continuous
 62
   179
100
AcDbLine
 10
184.495
 20
18.4729995946
 30
0.0
 11
189.495
 21
18.4729995946
 31
0.0
  0
LINE
  5
258
330
12F
100
AcDbEntity
  8
SLD-0
  6
Continuous
 62
   179
100
AcDbLine
 10
184.495
 20
21.2229995946
 30
0.0
 11
189.495
 21
21.2229995946
 31
0.0
  0
LINE
  5
259
330
12F
100
AcDbEntity
  8
SLD-0
  6
Continuous
 62
   179
100
AcDbLine
 10
184.495
 20
20.4729995946
 30
0.0
 11
189.495
 21
20.4729995946
 31
0.0
  0
LINE
  5
25A
330
12F
100
AcDbEntity
  8
SLD-0
  6
Continuous
 62
   179
100
AcDbLine
 10
184.495
 20
19.7229995946
 30
0.0
 11
189.495
 21
19.7229995946
 31
0.0
  0
LINE
  5
25B
330
12F
100
AcDbEntity
  8
SLD-0
  6
Continuous
 62
   179
100
AcDbLine
 10
184.495
 20
22.9729995946
 30
0.0
 11
189.495
 21
22.9729995946
 31
0.0
  0
LINE
  5
25C
330
12F
100
AcDbEntity
  8
SLD-0
  6
Continuous
 62
   179
100
AcDbLine
 10
184.495
 20
23.9729995946
 30
0.0
 11
189.495
 21
23.9729995946
 31
0.0
  0
LINE
  5
25D
330
12F
100
AcDbEntity
  8
SLD-0
  6
Continuous
 62
   179
100
AcDbLine
 10
184.495
 20
24.9729995946
 30
0.0
 11
189.495
 21
24.9729995946
 31
0.0
  0
LINE
  5
25E
330
12F
100
AcDbEntity
  8
SLD-0
  6
Continuous
 62
   179
100
AcDbLine
 10
184.495
 20
26.2229995946
 30
0.0
 11
189.495
 21
26.2229995946
 31
0.0
  0
LINE
  5
25F
330
12F
100
AcDbEntity
  8
SLD-0
  6
Continuous
 62
   179
100
AcDbLine
 10
184.495
 20
27.4729995946
 30
0.0
 11
189.495
 21
27.4729995946
 31
0.0
  0
LINE
  5
260
330
12F
100
AcDbEntity
  8
SLD-0
  6
Continuous
 62
   179
100
AcDbLine
 10
184.495
 20
28.7229995946
 30
0.0
 11
189.495
 21
28.7229995946
 31
0.0
  0
LINE
  5
261
330
12F
100
AcDbEntity
  8
SLD-0
  6
Continuous
 62
   179
100
AcDbLine
 10
184.495
 20
29.9729995946
 30
0.0
 11
189.495
 21
29.9729995946
 31
0.0
  0
LINE
  5
262
330
12F
100
AcDbEntity
  8
SLD-0
  6
Continuous
 62
   179
100
AcDbLine
 10
184.495
 20
31.2229995946
 30
0.0
 11
189.495
 21
31.2229995946
 31
0.0
  0
LINE
  5
263
330
12F
100
AcDbEntity
  8
SLD-0
  6
Continuous
 62
   179
100
AcDbLine
 10
203.495
 20
47.4730071874
 30
0.0
 11
203.495
 21
69.7327879784
 31
0.0
  0
LINE
  5
264
330
12F
100
AcDbEntity
  8
SLD-0
  6
Continuous
 62
   179
100
AcDbLine
 10
220.125
 20
67.3427879784
 30
0.0
 11
221.025
 21
67.1927879784
 31
0.0
  0
LINE
  5
265
330
12F
100
AcDbEntity
  8
SLD-0
  6
Continuous
 62
   179
100
AcDbLine
 10
221.025
 20
67.1927879784
 30
0.0
 11
220.125
 21
67.0427879784
 31
0.0
  0
LINE
  5
266
330
12F
100
AcDbEntity
  8
SLD-0
  6
Continuous
 62
   179
100
AcDbLine
 10
204.395
 20
67.0427879784
 30
0.0
 11
203.495
 21
67.1927879784
 31
0.0
  0
LINE
  5
267
330
12F
100
AcDbEntity
  8
SLD-0
  6
Continuous
 62
   179
100
AcDbLine
 10
203.495
 20
67.1927879784
 30
0.0
 11
204.395
 21
67.3427879784
 31
0.0
  0
LINE
  5
268
330
12F
100
AcDbEntity
  8
SLD-0
  6
Continuous
 62
   179
100
AcDbLine
 10
221.025
 20
67.1927879784
 30
0.0
 11
203.495
 21
67.1927879784
 31
0.0
  0
LINE
  5
269
330
12F
100
AcDbEntity
  8
SLD-0
  6
Continuous
 62
   179
100
AcDbLine
 10
3.595
 20
67.0427879784
 30
0.0
 11
2.695
 21
67.1927879784
 31
0.0
  0
LINE
  5
26A
330
12F
100
AcDbEntity
  8
SLD-0
  6
Continuous
 62
   179
100
AcDbLine
 10
2.695
 20
67.1927879784
 30
0.0
 11
3.595
 21
67.3427879784
 31
0.0
  0
LINE
  5
26B
330
12F
100
AcDbEntity
  8
SLD-0
  6
Continuous
 62
   179
100
AcDbLine
 10
103.795
 20
67.3427879784
 30
0.0
 11
104.695
 21
67.1927879784
 31
0.0
  0
LINE
  5
26C
330
12F
100
AcDbEntity
  8
SLD-0
  6
Continuous
 62
   179
100
AcDbLine
 10
104.695
 20
67.1927879784
 30
0.0
 11
103.795
 21
67.0427879784
 31
0.0
  0
LINE
  5
26D
330
12F
100
AcDbEntity
  8
SLD-0
  6
Continuous
 62
   179
100
AcDbLine
 10
2.695
 20
67.1927879784
 30
0.0
 11
104.695
 21
67.1927879784
 31
0.0
  0
LINE
  5
26E
330
12F
100
AcDbEntity
  8
SLD-0
  6
Continuous
 62
   179
100
AcDbLine
 10
103.695
 20
44.673007224
 30
0.0
 11
93.2195518644
 21
44.673007224
 31
0.0
  0
LINE
  5
26F
330
12F
100
AcDbEntity
  8
SLD-0
  6
Continuous
 62
   179
100
AcDbLine
 10
103.695
 20
19.2729995946
 30
0.0
 11
93.2195518644
 21
19.2729995946
 31
0.0
  0
LINE
  5
270
330
12F
100
AcDbEntity
  8
SLD-0
  6
Continuous
 62
   179
100
AcDbLine
 10
95.6095518644
 20
43.773007224
 30
0.0
 11
95.7595518644
 21
44.673007224
 31
0.0
  0
LINE
  5
271
330
12F
100
AcDbEntity
  8
SLD-0
  6
Continuous
 62
   179
100
AcDbLine
 10
95.7595518644
 20
44.673007224
 30
0.0
 11
95.9095518644
 21
43.773007224
 31
0.0
  0
LINE
  5
272
330
12F
100
AcDbEntity
  8
SLD-0
  6
Continuous
 62
   179
100
AcDbLine
 10
95.9095518644
 20
20.1729995946
 30
0.0
 11
95.7595518644
 21
19.2729995946
 31
0.0
  0
LINE
  5
273
330
12F
100
AcDbEntity
  8
SLD-0
  6
Continuous
 62
   179
100
AcDbLine
 10
95.7595518644
 20
19.2729995946
 30
0.0
 11
95.6095518644
 21
20.1729995946
 31
0.0
  0
LINE
  5
274
330
12F
100
AcDbEntity
  8
SLD-0
  6
Continuous
 62
   179
100
AcDbLine
 10
95.7595518644
 20
44.673007224
 30
0.0
 11
95.7595518644
 21
19.2729995946
 31
0.0
  0
LINE
  5
275
330
12F
100
AcDbEntity
  8
SLD-0
  6
Continuous
 62
   179
100
AcDbLine
 10
103.995
 20
45.473007224
 30
0.0
 11
80.4330776173
 21
45.473007224
 31
0.0
  0
LINE
  5
276
330
12F
100
AcDbEntity
  8
SLD-0
  6
Continuous
 62
   179
100
AcDbLine
 10
103.995
 20
18.4729995946
 30
0.0
 11
80.4330776173
 21
18.4729995946
 31
0.0
  0
LINE
  5
277
330
12F
100
AcDbEntity
  8
SLD-0
  6
Continuous
 62
   179
100
AcDbLine
 10
82.8230776173
 20
44.573007224
 30
0.0
 11
82.9730776173
 21
45.473007224
 31
0.0
  0
LINE
  5
278
330
12F
100
AcDbEntity
  8
SLD-0
  6
Continuous
 62
   179
100
AcDbLine
 10
82.9730776173
 20
45.473007224
 30
0.0
 11
83.1230776173
 21
44.573007224
 31
0.0
  0
LINE
  5
279
330
12F
100
AcDbEntity
  8
SLD-0
  6
Continuous
 62
   179
100
AcDbLine
 10
83.1230776173
 20
19.3729995946
 30
0.0
 11
82.9730776173
 21
18.4729995946
 31
0.0
  0
LINE
  5
27A
330
12F
100
AcDbEntity
  8
SLD-0
  6
Continuous
 62
   179
100
AcDbLine
 10
82.9730776173
 20
18.4729995946
 30
0.0
 11
82.8230776173
 21
19.3729995946
 31
0.0
  0
LINE
  5
27B
330
12F
100
AcDbEntity
  8
SLD-0
  6
Continuous
 62
   179
100
AcDbLine
 10
82.9730776173
 20
45.473007224
 30
0.0
 11
82.9730776173
 21
18.4729995946
 31
0.0
  0
LINE
  5
27C
330
12F
100
AcDbEntity
  8
SLD-0
  6
Continuous
 62
   179
100
AcDbLine
 10
111.495
 20
45.973007224
 30
0.0
 11
73.4155144404
 21
45.973007224
 31
0.0
  0
LINE
  5
27D
330
12F
100
AcDbEntity
  8
SLD-0
  6
Continuous
 62
   179
100
AcDbLine
 10
111.495
 20
17.9729995946
 30
0.0
 11
73.4155144404
 21
17.9729995946
 31
0.0
  0
LINE
  5
27E
330
12F
100
AcDbEntity
  8
SLD-0
  6
Continuous
 62
   179
100
AcDbLine
 10
75.8055144404
 20
45.073007224
 30
0.0
 11
75.9555144404
 21
45.973007224
 31
0.0
  0
LINE
  5
27F
330
12F
100
AcDbEntity
  8
SLD-0
  6
Continuous
 62
   179
100
AcDbLine
 10
75.9555144404
 20
45.973007224
 30
0.0
 11
76.1055144404
 21
45.073007224
 31
0.0
  0
LINE
  5
280
330
12F
100
AcDbEntity
  8
SLD-0
  6
Continuous
 62
   179
100
AcDbLine
 10
76.1055144404
 20
18.8729995946
 30
0.0
 11
75.9555144404
 21
17.9729995946
 31
0.0
  0
LINE
  5
281
330
12F
100
AcDbEntity
  8
SLD-0
  6
Continuous
 62
   179
100
AcDbLine
 10
75.9555144404
 20
17.9729995946
 30
0.0
 11
75.8055144404
 21
18.8729995946
 31
0.0
  0
LINE
  5
282
330
12F
100
AcDbEntity
  8
SLD-0
  6
Continuous
 62
   179
100
AcDbLine
 10
75.9555144404
 20
45.973007224
 30
0.0
 11
75.9555144404
 21
17.9729995946
 31
0.0
  0
LINE
  5
283
330
12F
100
AcDbEntity
  8
SLD-0
  6
Continuous
 62
   179
100
AcDbLine
 10
104.695
 20
46.173007224
 30
0.0
 11
104.695
 21
69.7327879784
 31
0.0
  0
LINE
  5
284
330
12F
100
AcDbEntity
  8
SLD-0
  6
Continuous
 62
   179
100
AcDbLine
 10
105.595
 20
67.0427879784
 30
0.0
 11
104.695
 21
67.1927879784
 31
0.0
  0
LINE
  5
285
330
12F
100
AcDbEntity
  8
SLD-0
  6
Continuous
 62
   179
100
AcDbLine
 10
104.695
 20
67.1927879784
 30
0.0
 11
105.595
 21
67.3427879784
 31
0.0
  0
LINE
  5
286
330
12F
100
AcDbEntity
  8
SLD-0
  6
Continuous
 62
   179
100
AcDbLine
 10
202.595
 20
67.3427879784
 30
0.0
 11
203.495
 21
67.1927879784
 31
0.0
  0
LINE
  5
287
330
12F
100
AcDbEntity
  8
SLD-0
  6
Continuous
 62
   179
100
AcDbLine
 10
203.495
 20
67.1927879784
 30
0.0
 11
202.595
 21
67.0427879784
 31
0.0
  0
LINE
  5
288
330
12F
100
AcDbEntity
  8
SLD-0
  6
Continuous
 62
   179
100
AcDbLine
 10
104.695
 20
67.1927879784
 30
0.0
 11
203.495
 21
67.1927879784
 31
0.0
  0
LINE
  5
289
330
12F
100
AcDbEntity
  8
SLD-0
  6
Continuous
 62
   179
100
AcDbLine
 10
2.695
 20
36.2884950759
 30
0.0
 11
2.695
 21
76.1122919864
 31
0.0
  0
LINE
  5
28A
330
12F
100
AcDbEntity
  8
SLD-0
  6
Continuous
 62
   179
100
AcDbLine
 10
221.025
 20
36.2952679383
 30
0.0
 11
221.025
 21
76.1122919864
 31
0.0
  0
LINE
  5
28B
330
12F
100
AcDbEntity
  8
SLD-0
  6
Continuous
 62
   179
100
AcDbLine
 10
3.595
 20
73.4222919864
 30
0.0
 11
2.695
 21
73.5722919864
 31
0.0
  0
LINE
  5
28C
330
12F
100
AcDbEntity
  8
SLD-0
  6
Continuous
 62
   179
100
AcDbLine
 10
2.695
 20
73.5722919864
 30
0.0
 11
3.595
 21
73.7222919864
 31
0.0
  0
LINE
  5
28D
330
12F
100
AcDbEntity
  8
SLD-0
  6
Continuous
 62
   179
100
AcDbLine
 10
220.125
 20
73.7222919864
 30
0.0
 11
221.025
 21
73.5722919864
 31
0.0
  0
LINE
  5
28E
330
12F
100
AcDbEntity
  8
SLD-0
  6
Continuous
 62
   179
100
AcDbLine
 10
221.025
 20
73.5722919864
 30
0.0
 11
220.125
 21
73.4222919864
 31
0.0
  0
LINE
  5
28F
330
12F
100
AcDbEntity
  8
SLD-0
  6
Continuous
 62
   179
100
AcDbLine
 10
2.695
 20
73.5722919864
 30
0.0
 11
221.025
 21
73.5722919864
 31
0.0
  0
LINE
  5
290
330
12F
100
AcDbEntity
  8
SLD-0
  6
Continuous
 62
   179
100
AcDbLine
 10
208.095
 20
44.673007224
 30
0.0
 11
233.4254759338
 21
44.673007224
 31
0.0
  0
LINE
  5
291
330
12F
100
AcDbEntity
  8
SLD-0
  6
Continuous
 62
   179
100
AcDbLine
 10
208.095
 20
19.2729995946
 30
0.0
 11
233.4254759338
 21
19.2729995946
 31
0.0
  0
LINE
  5
292
330
12F
100
AcDbEntity
  8
SLD-0
  6
Continuous
 62
   179
100
AcDbLine
 10
230.7354759338
 20
43.773007224
 30
0.0
 11
230.8854759338
 21
44.673007224
 31
0.0
  0
LINE
  5
293
330
12F
100
AcDbEntity
  8
SLD-0
  6
Continuous
 62
   179
100
AcDbLine
 10
230.8854759338
 20
44.673007224
 30
0.0
 11
231.0354759338
 21
43.773007224
 31
0.0
  0
LINE
  5
294
330
12F
100
AcDbEntity
  8
SLD-0
  6
Continuous
 62
   179
100
AcDbLine
 10
231.0354759338
 20
20.1729995946
 30
0.0
 11
230.8854759338
 21
19.2729995946
 31
0.0
  0
LINE
  5
295
330
12F
100
AcDbEntity
  8
SLD-0
  6
Continuous
 62
   179
100
AcDbLine
 10
230.8854759338
 20
19.2729995946
 30
0.0
 11
230.7354759338
 21
20.1729995946
 31
0.0
  0
LINE
  5
296
330
12F
100
AcDbEntity
  8
SLD-0
  6
Continuous
 62
   179
100
AcDbLine
 10
230.8854759338
 20
44.673007224
 30
0.0
 11
230.8854759338
 21
19.2729995946
 31
0.0
  0
LINE
  5
297
330
12F
100
AcDbEntity
  8
SLD-0
  6
Continuous
 62
   179
100
AcDbLine
 10
203.995
 20
45.973007224
 30
0.0
 11
240.6636245325
 21
45.973007224
 31
0.0
  0
LINE
  5
298
330
12F
100
AcDbEntity
  8
SLD-0
  6
Continuous
 62
   179
100
AcDbLine
 10
203.995
 20
17.9729995946
 30
0.0
 11
240.6636245325
 21
17.9729995946
 31
0.0
  0
LINE
  5
299
330
12F
100
AcDbEntity
  8
SLD-0
  6
Continuous
 62
   179
100
AcDbLine
 10
237.9736245325
 20
45.073007224
 30
0.0
 11
238.1236245325
 21
45.973007224
 31
0.0
  0
LINE
  5
29A
330
12F
100
AcDbEntity
  8
SLD-0
  6
Continuous
 62
   179
100
AcDbLine
 10
238.1236245325
 20
45.973007224
 30
0.0
 11
238.2736245325
 21
45.073007224
 31
0.0
  0
LINE
  5
29B
330
12F
100
AcDbEntity
  8
SLD-0
  6
Continuous
 62
   179
100
AcDbLine
 10
238.2736245325
 20
18.8729995946
 30
0.0
 11
238.1236245325
 21
17.9729995946
 31
0.0
  0
LINE
  5
29C
330
12F
100
AcDbEntity
  8
SLD-0
  6
Continuous
 62
   179
100
AcDbLine
 10
238.1236245325
 20
17.9729995946
 30
0.0
 11
237.9736245325
 21
18.8729995946
 31
0.0
  0
LINE
  5
29D
330
12F
100
AcDbEntity
  8
SLD-0
  6
Continuous
 62
   179
100
AcDbLine
 10
238.1236245325
 20
45.973007224
 30
0.0
 11
238.1236245325
 21
17.9729995946
 31
0.0
  0
POINT
  5
29E
330
12F
100
AcDbEntity
  8
0
  6
Continuous
 62
     7
370
     0
100
AcDbPoint
 10
104.695
 20
31.9730034093
 30
0.0
  0
POINT
  5
29F
330
12F
100
AcDbEntity
  8
0
  6
Continuous
 62
     7
370
     0
100
AcDbPoint
 10
2.695
 20
31.9730034093
 30
0.0
  0
POINT
  5
2A0
330
12F
100
AcDbEntity
  8
0
  6
Continuous
 62
     7
370
     0
100
AcDbPoint
 10
203.495
 20
31.9730034093
 30
0.0
  0
POINT
  5
2A1
330
12F
100
AcDbEntity
  8
0
  6
Continuous
 62
     7
370
     0
100
AcDbPoint
 10
197.995
 20
31.9730034093
 30
0.0
  0
POINT
  5
2A2
330
12F
100
AcDbEntity
  8
0
  6
Continuous
 62
     7
370
     0
100
AcDbPoint
 10
192.995
 20
31.9730034093
 30
0.0
  0
POINT
  5
2A3
330
12F
100
AcDbEntity
  8
0
  6
Continuous
 62
     7
370
     0
100
AcDbPoint
 10
120.695
 20
42.473007224
 30
0.0
  0
POINT
  5
2A4
330
12F
100
AcDbEntity
  8
0
  6
Continuous
 62
     7
370
     0
100
AcDbPoint
 10
182.495
 20
41.973007224
 30
0.0
  0
POINT
  5
2A5
330
12F
100
AcDbEntity
  8
0
  6
Continuous
 62
     7
370
     0
100
AcDbPoint
 10
172.995
 20
21.9729995946
 30
0.0
  0
POINT
  5
2A6
330
12F
100
AcDbEntity
  8
0
  6
Continuous
 62
     7
370
     0
100
AcDbPoint
 10
172.995
 20
31.9730034093
 30
0.0
  0
POINT
  5
2A7
330
12F
100
AcDbEntity
  8
0
  6
Continuous
 62
     7
370
     0
100
AcDbPoint
 10
172.995
 20
41.973007224
 30
0.0
  0
POINT
  5
2A8
330
12F
100
AcDbEntity
  8
0
  6
Continuous
 62
     7
370
     0
100
AcDbPoint
 10
112.195
 20
31.9730034093
 30
0.0
  0
POINT
  5
2A9
330
12F
100
AcDbEntity
  8
0
  6
Continuous
 62
     7
370
     0
100
AcDbPoint
 10
124.695
 20
42.473007224
 30
0.0
  0
POINT
  5
2AA
330
12F
100
AcDbEntity
  8
0
  6
Continuous
 62
     7
370
     0
100
AcDbPoint
 10
124.695
 20
21.4729995946
 30
0.0
  0
POINT
  5
2AB
330
12F
100
AcDbEntity
  8
0
  6
Continuous
 62
     7
370
     0
100
AcDbPoint
 10
120.695
 20
21.4729995946
 30
0.0
  0
POINT
  5
2AC
330
12F
100
AcDbEntity
  8
0
  6
Continuous
 62
     7
370
     0
100
AcDbPoint
 10
187.0210122013
 20
16.2351189784
 30
0.0
  0
POINT
  5
2AD
330
12F
100
AcDbEntity
  8
0
  6
Continuous
 62
     7
370
     0
100
AcDbPoint
 10
186.995
 20
16.2351189784
 30
0.0
  0
POINT
  5
2AE
330
12F
100
AcDbEntity
  8
0
  6
Continuous
 62
     7
370
     0
100
AcDbPoint
 10
186.995
 20
17.4729995946
 30
0.0
  0
POINT
  5
2AF
330
12F
100
AcDbEntity
  8
0
  6
Continuous
 62
     7
370
     0
100
AcDbPoint
 10
114.4765827355
 20
45.973007224
 30
0.0
  0
POINT
  5
2B0
330
12F
100
AcDbEntity
  8
0
  6
Continuous
 62
     7
370
     0
100
AcDbPoint
 10
155.495
 20
46.473007224
 30
0.0
  0
MTEXT
  5
2B2
330
12F
100
AcDbEntity
  8
SLD-0
100
AcDbMText
 10
234.3837755758
 20
28.0093670109
 30
0.0
 40
3.2017300962
 41
0.0
 71
     1
 72
     1
  1
28.0
  7
SLDTEXTSTYLE0
 11
6.123031769111886E-17
 21
1.0
 31
0.0
 73
     1
 44
1.0
  0
MTEXT
  5
2B3
330
12F
100
AcDbEntity
  8
SLD-0
100
AcDbMText
 10
227.1460446115
 20
28.0093670109
 30
0.0
 40
3.2012965348
 41
0.0
 71
     1
 72
     1
  1
25.4
  7
SLDTEXTSTYLE0
 11
6.123031769111886E-17
 21
1.0
 31
0.0
 73
     1
 44
1.0
  0
MTEXT
  5
2B4
330
12F
100
AcDbEntity
  8
SLD-0
100
AcDbMText
 10
105.5690911865
 20
77.3121784355
 30
0.0
 40
3.201768866
 41
0.0
 71
     1
 72
     1
  1
311.33
  7
SLDTEXTSTYLE0
 73
     1
 44
1.0
  0
MTEXT
  5
2B5
330
12F
100
AcDbEntity
  8
SLD-0
100
AcDbMText
 10
150.1313636017
 20
70.933016399
 30
0.0
 40
3.2021237403
 41
0.0
 71
     1
 72
     1
  1
98.8
  7
SLDTEXTSTYLE0
 73
     1
 44
1.0
  0
MTEXT
  5
2B6
330
12F
100
AcDbEntity
  8
SLD-0
100
AcDbMText
 10
72.2156631864
 20
28.0093670109
 30
0.0
 40
3.20173253
 41
0.0
 71
     1
 72
     1
  1
28.0
  7
SLDTEXTSTYLE0
 11
6.123031769111886E-17
 21
1.0
 31
0.0
 73
     1
 44
1.0
  0
MTEXT
  5
2B7
330
12F
100
AcDbEntity
  8
SLD-0
100
AcDbMText
 10
79.2332265111
 20
28.0093670109
 30
0.0
 40
3.2017323272
 41
0.0
 71
     1
 72
     1
  1
27.0
  7
SLDTEXTSTYLE0
 11
6.123031769111886E-17
 21
1.0
 31
0.0
 73
     1
 44
1.0
  0
MTEXT
  5
2B8
330
12F
100
AcDbEntity
  8
SLD-0
100
AcDbMText
 10
92.020121478
 20
28.0093670109
 30
0.0
 40
3.2012957256
 41
0.0
 71
     1
 72
     1
  1
25.4
  7
SLDTEXTSTYLE0
 11
6.123031769111886E-17
 21
1.0
 31
0.0
 73
     1
 44
1.0
  0
MTEXT
  5
2B9
330
12F
100
AcDbEntity
  8
SLD-0
100
AcDbMText
 10
51.9495452985
 20
70.932470398
 30
0.0
 40
3.2015572979
 41
0.0
 71
     1
 72
     1
  1
±5㎜
  7
SLDTEXTSTYLE0
 73
     1
 44
1.0
  0
MTEXT
  5
2BA
330
12F
100
AcDbEntity
  8
SLD-0
100
AcDbMText
 10
43.8040907184
 20
70.931831347
 30
0.0
 40
3.2008941244
 41
0.0
 71
     1
 72
     1
  1
195
  7
SLDTEXTSTYLE0
 73
     1
 44
1.0
  0
MTEXT
  5
2BB
330
12F
100
AcDbEntity
  8
SLD-0
100
AcDbMText
 10
207.1327273941
 20
70.9322894037
 30
0.0
 40
3.2013693163
 41
0.0
 71
     1
 72
     1
  1
17.53
  7
SLDTEXTSTYLE0
 73
     1
 44
1.0
  0
MTEXT
  5
2BD
330
12F
100
AcDbEntity
  8
SLD-0
100
AcDbMText
 10
151.333455234
 20
57.6497406515
 30
0.0
 40
2.3572741005
 41
0.0
 71
     1
 72
     1
  1
（可変絞りリングロック）
  7
SLDTEXTSTYLE1
 73
     1
 44
1.0
  0
MTEXT
  5
2BF
330
12F
100
AcDbEntity
  8
SLD-0
100
AcDbMText
 10
129.2707329421
 20
2.5658084014
 30
0.0
 40
2.3584961738
 41
0.0
 71
     1
 72
     1
  1
（ズ－ムリングロック）
  7
SLDTEXTSTYLE2
 73
     1
 44
1.0
  0
MTEXT
  5
2C1
330
12F
100
AcDbEntity
  8
SLD-0
100
AcDbMText
 10
76.5429794153
 20
3.3284097831
 30
0.0
 40
2.4712731291
 41
0.0
 71
     1
 72
     1
  1
（フォ－カスロック）
  7
SLDTEXTSTYLE3
 73
     1
 44
1.0
  0
MTEXT
  5
2C3
330
12F
100
AcDbEntity
  8
SLD-0
100
AcDbMText
 10
173.8769885452
 20
33.7321694494
 30
0.0
 40
2.1131283811
 41
0.0
 71
     1
 72
     1
  1
０．１Ｘ
  7
SLDTEXTSTYLE4
 11
-1.836909530733566E-16
 21
-1.0
 31
0.0
 73
     1
 44
1.0
  0
MTEXT
  5
2C4
330
12F
100
AcDbEntity
  8
SLD-0
100
AcDbMText
 10
173.9570953292
 20
43.2648767413
 30
0.0
 40
2.1131283811
 41
0.0
 71
     1
 72
     1
  1
０．２Ｘ
  7
SLDTEXTSTYLE4
 11
-1.836909530733566E-16
 21
-1.0
 31
0.0
 73
     1
 44
1.0
  0
MTEXT
  5
2C6
330
12F
100
AcDbEntity
  8
SLD-0
100
AcDbMText
 10
182.6703478505
 20
20.8040373049
 30
0.0
 40
1.2197006105
 41
0.0
 71
     1
 72
     1
  1
Ｃ
  7
SLDTEXTSTYLE5
 11
-1.836909530733566E-16
 21
-1.0
 31
0.0
 73
     1
 44
1.0
  0
MTEXT
  5
2C7
330
12F
100
AcDbEntity
  8
SLD-0
100
AcDbMText
 10
182.5897243858
 20
32.6873784283
 30
0.0
 40
1.1360347907
 41
0.0
 71
     1
 72
     1
  1
Ｏ
  7
SLDTEXTSTYLE5
 11
-1.836909530733566E-16
 21
-1.0
 31
0.0
 73
     1
 44
1.0
  0
ENDBLK
  5
131
330
12F
100
AcDbEntity
  8
0
100
AcDbBlockEnd
  0
BLOCK
  5
2C9
330
2C8
100
AcDbEntity
  8
0
100
AcDbBlockBegin
  2
KOZU0020
 70
     0
 71
     0
 10
0.0
 20
0.0
 30
0.0
  3
KOZU0020
  1

  0
LINE
  5
2CB
330
2C8
100
AcDbEntity
  8
SLD-0
  6
Continuous
 62
   179
100
AcDbLine
 10
0.0
 20
0.0
 30
0.0
 11
4.0733503176
 21
13.7111818088
 31
0.0
  0
LINE
  5
2CC
330
2C8
100
AcDbEntity
  8
SLD-0
  6
Continuous
 62
   179
100
AcDbLine
 10
0.0
 20
0.0
 30
0.0
 11
-0.1042497304
 21
3.1605587628
 31
0.0
  0
LINE
  5
2CD
330
2C8
100
AcDbEntity
  8
SLD-0
  6
Continuous
 62
   179
100
AcDbLine
 10
0.0
 20
0.0
 30
0.0
 11
1.8129354734
 21
2.5909968485
 31
0.0
  0
LINE
  5
2CE
330
2C8
100
AcDbEntity
  8
SLD-0
  6
Continuous
 62
   179
100
AcDbLine
 10
0.0
 20
0.0
 30
0.0
 11
4.0733503176
 21
13.7111818088
 31
0.0
  0
LINE
  5
2CF
330
2C8
100
AcDbEntity
  8
SLD-0
  6
Continuous
 62
   179
100
AcDbLine
 10
4.0733503176
 20
13.7111818088
 30
0.0
 11
31.5024501717
 21
13.7111818088
 31
0.0
  0
MTEXT
  5
2D1
330
2C8
100
AcDbEntity
  8
SLD-0
100
AcDbMText
 10
5.1813193551
 20
16.5582464691
 30
0.0
 40
2.1243124149
 41
0.0
 71
     1
 72
     1
  1
フォ－カスリング
  7
SLDTEXTSTYLE6
 73
     1
 44
1.0
  0
ENDBLK
  5
2CA
330
2C8
100
AcDbEntity
  8
0
100
AcDbBlockEnd
  0
BLOCK
  5
2D3
330
2D2
100
AcDbEntity
  8
0
100
AcDbBlockBegin
  2
KOZU0021
 70
     0
 71
     0
 10
0.0
 20
0.0
 30
0.0
  3
KOZU0021
  1

  0
LINE
  5
2D5
330
2D2
100
AcDbEntity
  8
SLD-0
  6
Continuous
 62
   179
100
AcDbLine
 10
0.0
 20
0.0
 30
0.0
 11
-3.6854121921
 21
5.4524192991
 31
0.0
  0
LINE
  5
2D6
330
2D2
100
AcDbEntity
  8
SLD-0
  6
Continuous
 62
   179
100
AcDbLine
 10
0.0
 20
0.0
 30
0.0
 11
-2.5084872877
 21
1.9254846732
 31
0.0
  0
LINE
  5
2D7
330
2D2
100
AcDbEntity
  8
SLD-0
  6
Continuous
 62
   179
100
AcDbLine
 10
0.0
 20
0.0
 30
0.0
 11
-0.8514990263
 21
3.0454801112
 31
0.0
  0
LINE
  5
2D8
330
2D2
100
AcDbEntity
  8
SLD-0
  6
Continuous
 62
   179
100
AcDbLine
 10
0.0
 20
0.0
 30
0.0
 11
-3.6854121921
 21
5.4524192991
 31
0.0
  0
LINE
  5
2D9
330
2D2
100
AcDbEntity
  8
SLD-0
  6
Continuous
 62
   179
100
AcDbLine
 10
-3.6854121921
 20
5.4524192991
 30
0.0
 11
-26.0711955092
 21
5.4524192991
 31
0.0
  0
MTEXT
  5
2DB
330
2D2
100
AcDbEntity
  8
SLD-0
100
AcDbMText
 10
-24.2431955598
 20
8.1536208922
 30
0.0
 40
1.972944992
 41
0.0
 71
     1
 72
     1
  1
ズ－ムリング
  7
SLDTEXTSTYLE7
 73
     1
 44
1.0
  0
ENDBLK
  5
2D4
330
2D2
100
AcDbEntity
  8
0
100
AcDbBlockEnd
  0
BLOCK
  5
2DD
330
2DC
100
AcDbEntity
  8
0
100
AcDbBlockBegin
  2
KOZU0023
 70
     0
 71
     0
 10
0.0
 20
0.0
 30
0.0
  3
KOZU0023
  1

  0
LINE
  5
2DF
330
2DC
100
AcDbEntity
  8
SLD-0
  6
Continuous
 62
   179
100
AcDbLine
 10
0.0
 20
0.0
 30
0.0
 11
-5.1573748763
 21
-15.2432449075
 31
0.0
  0
LINE
  5
2E0
330
2DC
100
AcDbEntity
  8
SLD-0
  6
Continuous
 62
   179
100
AcDbLine
 10
0.0
 20
0.0
 30
0.0
 11
-0.0142231285
 21
-3.1622456265
 31
0.0
  0
LINE
  5
2E1
330
2DC
100
AcDbEntity
  8
SLD-0
  6
Continuous
 62
   179
100
AcDbLine
 10
0.0
 20
0.0
 30
0.0
 11
-1.9087258787
 21
-2.5212626241
 31
0.0
  0
LINE
  5
2E2
330
2DC
100
AcDbEntity
  8
SLD-0
  6
Continuous
 62
   179
100
AcDbLine
 10
0.0
 20
0.0
 30
0.0
 11
-5.1573748763
 21
-15.2432449075
 31
0.0
  0
LINE
  5
2E3
330
2DC
100
AcDbEntity
  8
SLD-0
  6
Continuous
 62
   179
100
AcDbLine
 10
-5.1573748763
 20
-15.2432449075
 30
0.0
 11
-46.7431581219
 21
-15.2432449075
 31
0.0
  0
MTEXT
  5
2E5
330
2DC
100
AcDbEntity
  8
SLD-0
100
AcDbMText
 10
-44.9151581725
 20
-12.4552133588
 30
0.0
 40
2.0630516803
 41
0.0
 71
     1
 72
     1
  1
３－Ｍ２六角穴付止メビス
  7
SLDTEXTSTYLE8
 73
     1
 44
1.0
  0
ENDBLK
  5
2DE
330
2DC
100
AcDbEntity
  8
0
100
AcDbBlockEnd
  0
BLOCK
  5
2E7
330
2E6
100
AcDbEntity
  8
0
100
AcDbBlockBegin
  2
KOZU0022
 70
     0
 71
     0
 10
0.0
 20
0.0
 30
0.0
  3
KOZU0022
  1

  0
LINE
  5
2E9
330
2E6
100
AcDbEntity
  8
SLD-0
  6
Continuous
 62
   179
100
AcDbLine
 10
0.0
 20
0.0
 30
0.0
 11
3.3234862679
 21
-11.906179067
 31
0.0
  0
LINE
  5
2EA
330
2E6
100
AcDbEntity
  8
SLD-0
  6
Continuous
 62
   179
100
AcDbLine
 10
0.0
 20
0.0
 30
0.0
 11
1.7697630064
 21
-2.6206752185
 31
0.0
  0
LINE
  5
2EB
330
2E6
100
AcDbEntity
  8
SLD-0
  6
Continuous
 62
   179
100
AcDbLine
 10
0.0
 20
0.0
 30
0.0
 11
-0.156594726
 21
-3.1583979786
 31
0.0
  0
LINE
  5
2EC
330
2E6
100
AcDbEntity
  8
SLD-0
  6
Continuous
 62
   179
100
AcDbLine
 10
0.0
 20
0.0
 30
0.0
 11
3.3234862679
 21
-11.906179067
 31
0.0
  0
LINE
  5
2ED
330
2E6
100
AcDbEntity
  8
SLD-0
  6
Continuous
 62
   179
100
AcDbLine
 10
3.3234862679
 20
-11.906179067
 30
0.0
 11
28.7153005103
 21
-11.906179067
 31
0.0
  0
MTEXT
  5
2EF
330
2E6
100
AcDbEntity
  8
SLD-0
100
AcDbMText
 10
5.4013006191
 20
-9.1511390857
 30
0.0
 40
2.0288151205
 41
0.0
 71
     1
 72
     1
  1
可変絞りリング
  7
SLDTEXTSTYLE9
 73
     1
 44
1.0
  0
ENDBLK
  5
2E8
330
2E6
100
AcDbEntity
  8
0
100
AcDbBlockEnd
  0
BLOCK
  5
2F1
330
2F0
100
AcDbEntity
  8
0
100
AcDbBlockBegin
  2
KOZU0024
 70
     0
 71
     0
 10
0.0
 20
0.0
 30
0.0
  3
KOZU0024
  1

  0
LINE
  5
2F3
330
2F0
100
AcDbEntity
  8
SLD-0
  6
Continuous
 62
   179
100
AcDbLine
 10
0.0
 20
0.0
 30
0.0
 11
-5.9951363603
 21
-15.5152773143
 31
0.0
  0
LINE
  5
2F4
330
2F0
100
AcDbEntity
  8
SLD-0
  6
Continuous
 62
   179
100
AcDbLine
 10
0.0
 20
0.0
 30
0.0
 11
-0.1485055276
 21
-3.1587886615
 31
0.0
  0
LINE
  5
2F5
330
2F0
100
AcDbEntity
  8
SLD-0
  6
Continuous
 62
   179
100
AcDbLine
 10
0.0
 20
0.0
 30
0.0
 11
-2.0140776189
 21
-2.4379276126
 31
0.0
  0
LINE
  5
2F6
330
2F0
100
AcDbEntity
  8
SLD-0
  6
Continuous
 62
   179
100
AcDbLine
 10
0.0
 20
0.0
 30
0.0
 11
-5.9951363603
 21
-15.5152773143
 31
0.0
  0
LINE
  5
2F7
330
2F0
100
AcDbEntity
  8
SLD-0
  6
Continuous
 62
   179
100
AcDbLine
 10
-5.9951363603
 20
-15.5152773143
 30
0.0
 11
-46.2242361667
 21
-15.5152773143
 31
0.0
  0
MTEXT
  5
2F8
330
2F0
100
AcDbEntity
  8
SLD-0
100
AcDbMText
 10
-45.0078073506
 20
-12.7272457655
 30
0.0
 40
2.0630516803
 41
0.0
 71
     1
 72
     1
  1
３－Ｍ３六角穴付止メビス
  7
SLDTEXTSTYLE8
 73
     1
 44
1.0
  0
ENDBLK
  5
2F2
330
2F0
100
AcDbEntity
  8
0
100
AcDbBlockEnd
  0
BLOCK
  5
2FA
330
2F9
100
AcDbEntity
  8
0
100
AcDbBlockBegin
  2
KOZU0025
 70
     0
 71
     0
 10
0.0
 20
0.0
 30
0.0
  3
KOZU0025
  1

  0
LINE
  5
2FC
330
2F9
100
AcDbEntity
  8
SLD-0
  6
Continuous
 62
   179
100
AcDbLine
 10
0.0
 20
0.0
 30
0.0
 11
8.113624664
 21
16.1791335087
 31
0.0
  0
LINE
  5
2FD
330
2F9
100
AcDbEntity
  8
SLD-0
  6
Continuous
 62
   179
100
AcDbLine
 10
0.0
 20
0.0
 30
0.0
 11
0.4509350219
 21
3.1299612307
 31
0.0
  0
LINE
  5
2FE
330
2F9
100
AcDbEntity
  8
SLD-0
  6
Continuous
 62
   179
100
AcDbLine
 10
0.0
 20
0.0
 30
0.0
 11
2.238724756
 21
2.2334079714
 31
0.0
  0
LINE
  5
2FF
330
2F9
100
AcDbEntity
  8
SLD-0
  6
Continuous
 62
   179
100
AcDbLine
 10
0.0
 20
0.0
 30
0.0
 11
8.113624664
 21
16.1791335087
 31
0.0
  0
LINE
  5
300
330
2F9
100
AcDbEntity
  8
SLD-0
  6
Continuous
 62
   179
100
AcDbLine
 10
8.113624664
 20
16.1791335087
 30
0.0
 11
-32.1154751424
 21
16.1791335087
 31
0.0
  0
MTEXT
  5
301
330
2F9
100
AcDbEntity
  8
SLD-0
100
AcDbMText
 10
-30.6423497142
 20
18.9671650041
 30
0.0
 40
2.0630515346
 41
0.0
 71
     1
 72
     1
  1
３－Ｍ３六角穴付止メビス
  7
SLDTEXTSTYLE8
 73
     1
 44
1.0
  0
ENDBLK
  5
2FB
330
2F9
100
AcDbEntity
  8
0
100
AcDbBlockEnd
  0
BLOCK
  5
3DD
330
3DC
100
AcDbEntity
  8
0
100
AcDbBlockBegin
  2
SW_NOTE_0
 70
     0
 71
     0
 10
0.0
 20
0.0
 30
0.0
  3
SW_NOTE_0
  1

  0
MTEXT
  5
3DF
330
3DC
100
AcDbEntity
  8
0
  6
Continuous
 62
     0
370
     0
100
AcDbMText
 10
0.0
 20
3.4909090909
 30
0.0
 40
3.0
 41
0.0
 71
     1
 72
     1
  1
一般
  7
SLDTEXTSTYLE12
 73
     1
 44
1.0
  0
MTEXT
  5
3E0
330
3DC
100
AcDbEntity
  8
0
  6
Continuous
 62
     0
370
     0
100
AcDbMText
 10
0.0
 20
-0.2090909102
 30
0.0
 40
3.0
 41
0.0
 71
     1
 72
     1
  1
公差
  7
SLDTEXTSTYLE12
 73
     1
 44
1.0
  0
ENDBLK
  5
3DE
330
3DC
100
AcDbEntity
  8
0
100
AcDbBlockEnd
  0
BLOCK
  5
3F6
330
3F5
100
AcDbEntity
  8
0
100
AcDbBlockBegin
  2
SW_NOTE_1
 70
     0
 71
     0
 10
0.0
 20
0.0
 30
0.0
  3
SW_NOTE_1
  1

  0
MTEXT
  5
3F8
330
3F5
100
AcDbEntity
  8
0
  6
Continuous
 62
     0
370
     0
100
AcDbMText
 10
0.0
 20
2.463030303
 30
0.0
 40
2.1166666667
 41
0.0
 71
     1
 72
     1
  1
1
  7
SLDTEXTSTYLE0
 73
     1
 44
1.0
  0
MTEXT
  5
3F9
330
3F5
100
AcDbEntity
  8
0
  6
Continuous
 62
     0
370
     0
100
AcDbMText
 10
1.4111110941
 20
2.463030303
 30
0.0
 40
2.1166666667
 41
0.0
 71
     1
 72
     1
  1
.6
  7
SLDTEXTSTYLE0
 73
     1
 44
1.0
  0
ENDBLK
  5
3F7
330
3F5
100
AcDbEntity
  8
0
100
AcDbBlockEnd
  0
ENDSEC
  0
SECTION
  2
ENTITIES
  0
LINE
  5
302
330
1F
100
AcDbEntity
  8
0
  6
Continuous
 62
     7
370
    15
100
AcDbLine
 10
161.6997342202
 20
21.8965533177
 30
0.0
 11
160.1997342202
 21
19.4979426292
 31
0.0
  0
LINE
  5
303
330
1F
100
AcDbEntity
  8
0
  6
Continuous
 62
     7
370
    15
100
AcDbLine
 10
158.6997342202
 20
21.8965533177
 30
0.0
 11
160.1997342202
 21
19.4979426292
 31
0.0
  0
LINE
  5
304
330
1F
100
AcDbEntity
  8
0
  6
Continuous
 62
     7
370
    15
100
AcDbLine
 10
148.8990295637
 20
21.8965533177
 30
0.0
 11
147.3990295637
 21
19.4979426292
 31
0.0
  0
LINE
  5
305
330
1F
100
AcDbEntity
  8
0
  6
Continuous
 62
     7
370
    15
100
AcDbLine
 10
145.8990295637
 20
21.8965533177
 30
0.0
 11
147.3990295637
 21
19.4979426292
 31
0.0
  0
LINE
  5
306
330
1F
100
AcDbEntity
  8
0
  6
Continuous
 62
     7
370
    15
100
AcDbLine
 10
136.5350227208
 20
21.54399829
 30
0.0
 11
135.0350227208
 21
19.1850803655
 31
0.0
  0
LINE
  5
307
330
1F
100
AcDbEntity
  8
0
  6
Continuous
 62
     7
370
    15
100
AcDbLine
 10
133.5350227208
 20
21.54399829
 30
0.0
 11
135.0350227208
 21
19.1850803655
 31
0.0
  0
LINE
  5
308
330
1F
100
AcDbEntity
  8
0
  6
Continuous
 62
     7
370
    15
100
AcDbLine
 10
174.1773135274
 20
22.3612920535
 30
0.0
 11
172.6773135274
 21
19.7632158421
 31
0.0
  0
LINE
  5
309
330
1F
100
AcDbEntity
  8
0
  6
Continuous
 62
     7
370
    15
100
AcDbLine
 10
130.5350227208
 20
16.5943757159
 30
0.0
 11
133.5350227208
 21
16.5943757159
 31
0.0
  0
LINE
  5
30A
330
1F
100
AcDbEntity
  8
0
  6
Continuous
 62
     7
370
    15
100
AcDbLine
 10
133.5350227208
 20
16.5943757159
 30
0.0
 11
132.0350227208
 21
13.9962995046
 31
0.0
  0
LINE
  5
30B
330
1F
100
AcDbEntity
  8
0
  6
Continuous
 62
     7
370
    15
100
AcDbLine
 10
130.5350227208
 20
16.5943757159
 30
0.0
 11
132.0350227208
 21
13.9962995046
 31
0.0
  0
LINE
  5
30C
330
1F
100
AcDbEntity
  8
0
  6
CENTER
 62
     7
370
    15
100
AcDbLine
 10
133.5350227208
 20
16.5943757159
 30
0.0
 11
136.5350227208
 21
16.5943757159
 31
0.0
  0
LINE
  5
30D
330
1F
100
AcDbEntity
  8
0
  6
Continuous
 62
     7
370
     0
100
AcDbLine
 10
247.3333333333
 20
20.25
 30
0.0
 11
243.5
 21
20.25
 31
0.0
  0
LINE
  5
30E
330
1F
100
AcDbEntity
  8
0
  6
Continuous
 62
     7
370
    15
100
AcDbLine
 10
247.3333333333
 20
13.0
 30
0.0
 11
238.3333333333
 21
13.0
 31
0.0
  0
LINE
  5
30F
330
1F
100
AcDbEntity
  8
0
  6
Continuous
 62
     7
370
     0
100
AcDbLine
 10
247.3333333333
 20
13.0
 30
0.0
 11
247.3333333333
 21
20.25
 31
0.0
  0
LINE
  5
310
330
1F
100
AcDbEntity
  8
0
  6
Continuous
 62
     7
370
     0
100
AcDbLine
 10
238.3333333333
 20
20.25
 30
0.0
 11
233.5
 21
20.25
 31
0.0
  0
LINE
  5
311
330
1F
100
AcDbEntity
  8
0
  6
Continuous
 62
     7
370
    15
100
AcDbLine
 10
238.3333333333
 20
13.0
 30
0.0
 11
217.6666666667
 21
13.0
 31
0.0
  0
LINE
  5
312
330
1F
100
AcDbEntity
  8
0
  6
Continuous
 62
     7
370
     0
100
AcDbLine
 10
238.3333333333
 20
13.0
 30
0.0
 11
238.3333333333
 21
20.25
 31
0.0
  0
LINE
  5
313
330
1F
100
AcDbEntity
  8
0
  6
Continuous
 62
     7
370
     0
100
AcDbLine
 10
217.6666666667
 20
20.25
 30
0.0
 11
222.0
 21
20.25
 31
0.0
  0
LINE
  5
314
330
1F
100
AcDbEntity
  8
0
  6
Continuous
 62
     7
370
    15
100
AcDbLine
 10
217.6666666667
 20
13.0
 30
0.0
 11
208.6666666667
 21
13.0
 31
0.0
  0
LINE
  5
315
330
1F
100
AcDbEntity
  8
0
  6
Continuous
 62
     7
370
     0
100
AcDbLine
 10
217.6666666667
 20
13.0
 30
0.0
 11
217.6666666667
 21
20.25
 31
0.0
  0
LINE
  5
316
330
1F
100
AcDbEntity
  8
0
  6
Continuous
 62
     7
370
    15
100
AcDbLine
 10
208.6666666667
 20
13.0
 30
0.0
 11
188.0
 21
13.0
 31
0.0
  0
LINE
  5
317
330
1F
100
AcDbEntity
  8
0
  6
Continuous
 62
     7
370
     0
100
AcDbLine
 10
208.6666666667
 20
20.25
 30
0.0
 11
212.0
 21
20.25
 31
0.0
  0
LINE
  5
318
330
1F
100
AcDbEntity
  8
0
  6
Continuous
 62
     7
370
     0
100
AcDbLine
 10
208.6666666667
 20
20.25
 30
0.0
 11
208.6666666667
 21
13.0
 31
0.0
  0
LINE
  5
319
330
1F
100
AcDbEntity
  8
0
  6
Continuous
 62
     7
370
    15
100
AcDbLine
 10
188.0
 20
13.0
 30
0.0
 11
179.0
 21
13.0
 31
0.0
  0
LINE
  5
31A
330
1F
100
AcDbEntity
  8
0
  6
Continuous
 62
     7
370
     0
100
AcDbLine
 10
188.0
 20
20.25
 30
0.0
 11
190.5
 21
20.25
 31
0.0
  0
LINE
  5
31B
330
1F
100
AcDbEntity
  8
0
  6
Continuous
 62
     7
370
     0
100
AcDbLine
 10
188.0
 20
20.25
 30
0.0
 11
188.0
 21
13.0
 31
0.0
  0
LINE
  5
31C
330
1F
100
AcDbEntity
  8
0
  6
Continuous
 62
     7
370
     0
100
AcDbLine
 10
254.0
 20
20.25
 30
0.0
 11
247.3333333333
 21
20.25
 31
0.0
  0
LINE
  5
31D
330
1F
100
AcDbEntity
  8
0
  6
Continuous
 62
     7
370
     0
100
AcDbLine
 10
254.0
 20
27.5
 30
0.0
 11
246.0
 21
27.5
 31
0.0
  0
LINE
  5
31E
330
1F
100
AcDbEntity
  8
0
  6
Continuous
 62
     7
370
     0
100
AcDbLine
 10
254.0
 20
27.5
 30
0.0
 11
254.0
 21
20.25
 31
0.0
  0
LINE
  5
31F
330
1F
100
AcDbEntity
  8
0
  6
Continuous
 62
     7
370
     0
100
AcDbLine
 10
243.5
 20
20.25
 30
0.0
 11
238.3333333333
 21
20.25
 31
0.0
  0
LINE
  5
320
330
1F
100
AcDbEntity
  8
0
  6
Continuous
 62
     7
370
     0
100
AcDbLine
 10
243.5
 20
27.5
 30
0.0
 11
246.0
 21
27.5
 31
0.0
  0
LINE
  5
321
330
1F
100
AcDbEntity
  8
0
  6
Continuous
 62
     7
370
     0
100
AcDbLine
 10
243.5
 20
27.5
 30
0.0
 11
243.5
 21
20.25
 31
0.0
  0
LINE
  5
322
330
1F
100
AcDbEntity
  8
0
  6
Continuous
 62
     7
370
     0
100
AcDbLine
 10
233.5
 20
27.5
 30
0.0
 11
243.5
 21
27.5
 31
0.0
  0
LINE
  5
323
330
1F
100
AcDbEntity
  8
0
  6
Continuous
 62
     7
370
     0
100
AcDbLine
 10
233.5
 20
27.5
 30
0.0
 11
233.5
 21
20.25
 31
0.0
  0
LINE
  5
324
330
1F
100
AcDbEntity
  8
0
  6
Continuous
 62
     7
370
     0
100
AcDbLine
 10
222.0
 20
20.25
 30
0.0
 11
233.5
 21
20.25
 31
0.0
  0
LINE
  5
325
330
1F
100
AcDbEntity
  8
0
  6
Continuous
 62
     7
370
     0
100
AcDbLine
 10
222.0
 20
27.5
 30
0.0
 11
233.5
 21
27.5
 31
0.0
  0
LINE
  5
326
330
1F
100
AcDbEntity
  8
0
  6
Continuous
 62
     7
370
     0
100
AcDbLine
 10
222.0
 20
27.5
 30
0.0
 11
222.0
 21
20.25
 31
0.0
  0
LINE
  5
327
330
1F
100
AcDbEntity
  8
0
  6
Continuous
 62
     7
370
     0
100
AcDbLine
 10
212.0
 20
20.25
 30
0.0
 11
217.6666666667
 21
20.25
 31
0.0
  0
LINE
  5
328
330
1F
100
AcDbEntity
  8
0
  6
Continuous
 62
     7
370
     0
100
AcDbLine
 10
212.0
 20
27.5
 30
0.0
 11
222.0
 21
27.5
 31
0.0
  0
LINE
  5
329
330
1F
100
AcDbEntity
  8
0
  6
Continuous
 62
     7
370
     0
100
AcDbLine
 10
212.0
 20
27.5
 30
0.0
 11
212.0
 21
20.25
 31
0.0
  0
LINE
  5
32A
330
1F
100
AcDbEntity
  8
0
  6
Continuous
 62
     7
370
     0
100
AcDbLine
 10
200.5
 20
20.25
 30
0.0
 11
208.6666666667
 21
20.25
 31
0.0
  0
LINE
  5
32B
330
1F
100
AcDbEntity
  8
0
  6
Continuous
 62
     7
370
     0
100
AcDbLine
 10
200.5
 20
27.5
 30
0.0
 11
212.0
 21
27.5
 31
0.0
  0
LINE
  5
32C
330
1F
100
AcDbEntity
  8
0
  6
Continuous
 62
     7
370
     0
100
AcDbLine
 10
200.5
 20
27.5
 30
0.0
 11
200.5
 21
20.25
 31
0.0
  0
LINE
  5
32D
330
1F
100
AcDbEntity
  8
0
  6
Continuous
 62
     7
370
     0
100
AcDbLine
 10
190.5
 20
20.25
 30
0.0
 11
200.5
 21
20.25
 31
0.0
  0
LINE
  5
32E
330
1F
100
AcDbEntity
  8
0
  6
Continuous
 62
     7
370
     0
100
AcDbLine
 10
190.5
 20
27.5
 30
0.0
 11
200.5
 21
27.5
 31
0.0
  0
LINE
  5
32F
330
1F
100
AcDbEntity
  8
0
  6
Continuous
 62
     7
370
     0
100
AcDbLine
 10
190.5
 20
27.5
 30
0.0
 11
190.5
 21
20.25
 31
0.0
  0
LINE
  5
330
330
1F
100
AcDbEntity
  8
0
  6
Continuous
 62
     7
370
     0
100
AcDbLine
 10
230.6
 20
27.5
 30
0.0
 11
230.6
 21
47.3
 31
0.0
  0
LINE
  5
331
330
1F
100
AcDbEntity
  8
0
  6
Continuous
 62
     7
370
    15
100
AcDbLine
 10
273.0
 20
13.0
 30
0.0
 11
273.0
 21
193.0
 31
0.0
  0
LINE
  5
332
330
1F
100
AcDbEntity
  8
0
  6
Continuous
 62
     7
370
    15
100
AcDbLine
 10
273.0
 20
193.0
 30
0.0
 11
25.0
 21
193.0
 31
0.0
  0
LINE
  5
333
330
1F
100
AcDbEntity
  8
0
  6
Continuous
 62
     7
370
    15
100
AcDbLine
 10
25.0
 20
193.0
 30
0.0
 11
25.0
 21
58.0
 31
0.0
  0
LINE
  5
334
330
1F
100
AcDbEntity
  8
0
  6
Continuous
 62
     7
370
     0
100
AcDbLine
 10
25.0
 20
58.0
 30
0.0
 11
35.0
 21
58.0
 31
0.0
  0
LINE
  5
335
330
1F
100
AcDbEntity
  8
0
  6
Continuous
 62
     7
370
    15
100
AcDbLine
 10
25.0
 20
58.0
 30
0.0
 11
25.0
 21
50.5
 31
0.0
  0
LINE
  5
336
330
1F
100
AcDbEntity
  8
0
  6
Continuous
 62
     7
370
     0
100
AcDbLine
 10
129.0
 20
58.0
 30
0.0
 11
129.0
 21
54.0
 31
0.0
  0
LINE
  5
337
330
1F
100
AcDbEntity
  8
0
  6
Continuous
 62
     7
370
    15
100
AcDbLine
 10
129.0
 20
13.0
 30
0.0
 11
141.5
 21
13.0
 31
0.0
  0
LINE
  5
338
330
1F
100
AcDbEntity
  8
0
  6
Continuous
 62
     7
370
     0
100
AcDbLine
 10
129.0
 20
20.5
 30
0.0
 11
96.9735538908
 21
20.5
 31
0.0
  0
LINE
  5
339
330
1F
100
AcDbEntity
  8
0
  6
Continuous
 62
     7
370
     0
100
AcDbLine
 10
129.0
 20
20.5
 30
0.0
 11
129.0
 21
13.0
 31
0.0
  0
LINE
  5
33A
330
1F
100
AcDbEntity
  8
0
  6
Continuous
 62
     7
370
    15
100
AcDbLine
 10
25.0
 20
20.5
 30
0.0
 11
25.0
 21
13.0
 31
0.0
  0
LINE
  5
33B
330
1F
100
AcDbEntity
  8
0
  6
Continuous
 62
     7
370
     0
100
AcDbLine
 10
129.0
 20
58.0
 30
0.0
 11
179.0
 21
58.0
 31
0.0
  0
LINE
  5
33C
330
1F
100
AcDbEntity
  8
0
  6
Continuous
 62
     7
370
     0
100
AcDbLine
 10
179.0
 20
58.0
 30
0.0
 11
179.0
 21
54.0
 31
0.0
  0
LINE
  5
33D
330
1F
100
AcDbEntity
  8
0
  6
Continuous
 62
     7
370
     0
100
AcDbLine
 10
179.0
 20
58.0
 30
0.0
 11
273.0
 21
58.0
 31
0.0
  0
LINE
  5
33E
330
1F
100
AcDbEntity
  8
0
  6
Continuous
 62
     7
370
     0
100
AcDbLine
 10
109.8666374141
 20
58.0
 30
0.0
 11
109.8666374141
 21
20.5
 31
0.0
  0
LINE
  5
33F
330
1F
100
AcDbEntity
  8
0
  6
Continuous
 62
     7
370
     0
100
AcDbLine
 10
115.7569070807
 20
58.0
 30
0.0
 11
129.0
 21
58.0
 31
0.0
  0
LINE
  5
340
330
1F
100
AcDbEntity
  8
0
  6
Continuous
 62
     7
370
     0
100
AcDbLine
 10
55.0
 20
58.0
 30
0.0
 11
55.0
 21
20.5
 31
0.0
  0
LINE
  5
341
330
1F
100
AcDbEntity
  8
0
  6
Continuous
 62
     7
370
     0
100
AcDbLine
 10
55.0
 20
58.0
 30
0.0
 11
115.7569070807
 21
58.0
 31
0.0
  0
LINE
  5
342
330
1F
100
AcDbEntity
  8
0
  6
Continuous
 62
     7
370
     0
100
AcDbLine
 10
129.0
 20
54.0
 30
0.0
 11
148.5
 21
54.0
 31
0.0
  0
LINE
  5
343
330
1F
100
AcDbEntity
  8
0
  6
Continuous
 62
     7
370
     0
100
AcDbLine
 10
129.0
 20
54.0
 30
0.0
 11
129.0
 21
50.5
 31
0.0
  0
LINE
  5
344
330
1F
100
AcDbEntity
  8
0
  6
Continuous
 62
     7
370
     0
100
AcDbLine
 10
179.0
 20
54.0
 30
0.0
 11
179.0
 21
50.0
 31
0.0
  0
LINE
  5
345
330
1F
100
AcDbEntity
  8
0
  6
Continuous
 62
     7
370
     0
100
AcDbLine
 10
129.0
 20
30.0
 30
0.0
 11
148.5
 21
30.0
 31
0.0
  0
LINE
  5
346
330
1F
100
AcDbEntity
  8
0
  6
Continuous
 62
     7
370
     0
100
AcDbLine
 10
129.0
 20
30.0
 30
0.0
 11
129.0
 21
28.0
 31
0.0
  0
LINE
  5
347
330
1F
100
AcDbEntity
  8
0
  6
Continuous
 62
     7
370
     0
100
AcDbLine
 10
179.0
 20
30.0
 30
0.0
 11
179.0
 21
27.5
 31
0.0
  0
LINE
  5
348
330
1F
100
AcDbEntity
  8
0
  6
Continuous
 62
     7
370
     0
100
AcDbLine
 10
129.0
 20
25.5
 30
0.0
 11
141.5
 21
25.5
 31
0.0
  0
LINE
  5
349
330
1F
100
AcDbEntity
  8
0
  6
Continuous
 62
     7
370
     0
100
AcDbLine
 10
129.0
 20
25.5
 30
0.0
 11
129.0
 21
21.0
 31
0.0
  0
LINE
  5
34A
330
1F
100
AcDbEntity
  8
0
  6
Continuous
 62
     7
370
     0
100
AcDbLine
 10
179.0
 20
25.5
 30
0.0
 11
179.0
 21
21.0
 31
0.0
  0
LINE
  5
34B
330
1F
100
AcDbEntity
  8
0
  6
Continuous
 62
     7
370
     0
100
AcDbLine
 10
179.0
 20
47.3
 30
0.0
 11
179.0
 21
46.0
 31
0.0
  0
LINE
  5
34C
330
1F
100
AcDbEntity
  8
0
  6
Continuous
 62
     7
370
     0
100
AcDbLine
 10
129.0
 20
18.5432775977
 30
0.0
 11
179.0
 21
18.5432775977
 31
0.0
  0
LINE
  5
34D
330
1F
100
AcDbEntity
  8
0
  6
Continuous
 62
     7
370
     0
100
AcDbLine
 10
129.0
 20
21.0
 30
0.0
 11
129.0
 21
20.5
 31
0.0
  0
LINE
  5
34E
330
1F
100
AcDbEntity
  8
0
  6
Continuous
 62
     7
370
     0
100
AcDbLine
 10
179.0
 20
21.0
 30
0.0
 11
179.0
 21
20.25
 31
0.0
  0
LINE
  5
34F
330
1F
100
AcDbEntity
  8
0
  6
Continuous
 62
     7
370
     0
100
AcDbLine
 10
179.0
 20
27.5
 30
0.0
 11
179.0
 21
25.5
 31
0.0
  0
LINE
  5
350
330
1F
100
AcDbEntity
  8
0
  6
Continuous
 62
     7
370
     0
100
AcDbLine
 10
141.5
 20
25.5
 30
0.0
 11
141.5
 21
13.0
 31
0.0
  0
LINE
  5
351
330
1F
100
AcDbEntity
  8
0
  6
Continuous
 62
     7
370
     0
100
AcDbLine
 10
141.5
 20
25.5
 30
0.0
 11
154.0
 21
25.5
 31
0.0
  0
LINE
  5
352
330
1F
100
AcDbEntity
  8
0
  6
Continuous
 62
     7
370
    15
100
AcDbLine
 10
141.5
 20
13.0
 30
0.0
 11
154.0
 21
13.0
 31
0.0
  0
LINE
  5
353
330
1F
100
AcDbEntity
  8
0
  6
Continuous
 62
     7
370
     0
100
AcDbLine
 10
154.0
 20
13.0
 30
0.0
 11
154.0
 21
25.5
 31
0.0
  0
LINE
  5
354
330
1F
100
AcDbEntity
  8
0
  6
Continuous
 62
     7
370
    15
100
AcDbLine
 10
154.0
 20
13.0
 30
0.0
 11
166.5
 21
13.0
 31
0.0
  0
LINE
  5
355
330
1F
100
AcDbEntity
  8
0
  6
Continuous
 62
     7
370
     0
100
AcDbLine
 10
154.0
 20
25.5
 30
0.0
 11
166.5
 21
25.5
 31
0.0
  0
LINE
  5
356
330
1F
100
AcDbEntity
  8
0
  6
Continuous
 62
     7
370
     0
100
AcDbLine
 10
166.5
 20
25.5
 30
0.0
 11
166.5
 21
13.0
 31
0.0
  0
LINE
  5
357
330
1F
100
AcDbEntity
  8
0
  6
Continuous
 62
     7
370
     0
100
AcDbLine
 10
166.5
 20
25.5
 30
0.0
 11
179.0
 21
25.5
 31
0.0
  0
LINE
  5
358
330
1F
100
AcDbEntity
  8
0
  6
Continuous
 62
     7
370
    15
100
AcDbLine
 10
166.5
 20
13.0
 30
0.0
 11
179.0
 21
13.0
 31
0.0
  0
LINE
  5
359
330
1F
100
AcDbEntity
  8
0
  6
Continuous
 62
     7
370
     0
100
AcDbLine
 10
179.0
 20
20.25
 30
0.0
 11
179.0
 21
13.0
 31
0.0
  0
LINE
  5
35A
330
1F
100
AcDbEntity
  8
0
  6
Continuous
 62
     7
370
     0
100
AcDbLine
 10
179.0
 20
37.4
 30
0.0
 11
273.0
 21
37.4
 31
0.0
  0
LINE
  5
35B
330
1F
100
AcDbEntity
  8
0
  6
Continuous
 62
     7
370
     0
100
AcDbLine
 10
179.0
 20
37.4
 30
0.0
 11
179.0
 21
34.0
 31
0.0
  0
LINE
  5
35C
330
1F
100
AcDbEntity
  8
0
  6
Continuous
 62
     7
370
     0
100
AcDbLine
 10
273.0
 20
47.3
 30
0.0
 11
246.0
 21
47.3
 31
0.0
  0
LINE
  5
35D
330
1F
100
AcDbEntity
  8
0
  6
Continuous
 62
     7
370
     0
100
AcDbLine
 10
273.0
 20
27.5
 30
0.0
 11
254.0
 21
27.5
 31
0.0
  0
LINE
  5
35E
330
1F
100
AcDbEntity
  8
0
  6
Continuous
 62
     7
370
     0
100
AcDbLine
 10
273.0
 20
20.25
 30
0.0
 11
254.0
 21
20.25
 31
0.0
  0
LINE
  5
35F
330
1F
100
AcDbEntity
  8
0
  6
Continuous
 62
     7
370
    15
100
AcDbLine
 10
273.0
 20
13.0
 30
0.0
 11
247.3333333333
 21
13.0
 31
0.0
  0
LINE
  5
360
330
1F
100
AcDbEntity
  8
0
  6
Continuous
 62
     7
370
     0
100
AcDbLine
 10
194.5
 20
47.3
 30
0.0
 11
194.5
 21
27.5
 31
0.0
  0
LINE
  5
361
330
1F
100
AcDbEntity
  8
0
  6
Continuous
 62
     7
370
     0
100
AcDbLine
 10
194.5
 20
47.3
 30
0.0
 11
179.0
 21
47.3
 31
0.0
  0
LINE
  5
362
330
1F
100
AcDbEntity
  8
0
  6
Continuous
 62
     7
370
     0
100
AcDbLine
 10
179.0
 20
27.5
 30
0.0
 11
190.5
 21
27.5
 31
0.0
  0
LINE
  5
363
330
1F
100
AcDbEntity
  8
0
  6
Continuous
 62
     7
370
     0
100
AcDbLine
 10
179.0
 20
20.25
 30
0.0
 11
188.0
 21
20.25
 31
0.0
  0
LINE
  5
364
330
1F
100
AcDbEntity
  8
0
  6
Continuous
 62
     7
370
     0
100
AcDbLine
 10
230.6
 20
47.3
 30
0.0
 11
194.5
 21
47.3
 31
0.0
  0
LINE
  5
365
330
1F
100
AcDbEntity
  8
0
  6
Continuous
 62
     7
370
     0
100
AcDbLine
 10
246.0
 20
47.3
 30
0.0
 11
246.0
 21
27.5
 31
0.0
  0
LINE
  5
366
330
1F
100
AcDbEntity
  8
0
  6
Continuous
 62
     7
370
     0
100
AcDbLine
 10
246.0
 20
47.3
 30
0.0
 11
230.6
 21
47.3
 31
0.0
  0
LINE
  5
367
330
1F
100
AcDbEntity
  8
0
  6
Continuous
 62
     7
370
     0
100
AcDbLine
 10
148.5
 20
54.0
 30
0.0
 11
148.5
 21
30.0
 31
0.0
  0
LINE
  5
368
330
1F
100
AcDbEntity
  8
0
  6
Continuous
 62
     7
370
     0
100
AcDbLine
 10
148.5
 20
54.0
 30
0.0
 11
158.6666666667
 21
54.0
 31
0.0
  0
LINE
  5
369
330
1F
100
AcDbEntity
  8
0
  6
Continuous
 62
     7
370
     0
100
AcDbLine
 10
148.5
 20
30.0
 30
0.0
 11
158.6666666667
 21
30.0
 31
0.0
  0
LINE
  5
36A
330
1F
100
AcDbEntity
  8
0
  6
Continuous
 62
     7
370
     0
100
AcDbLine
 10
158.6666666667
 20
30.0
 30
0.0
 11
158.6666666667
 21
54.0
 31
0.0
  0
LINE
  5
36B
330
1F
100
AcDbEntity
  8
0
  6
Continuous
 62
     7
370
     0
100
AcDbLine
 10
158.6666666667
 20
30.0
 30
0.0
 11
168.8333333333
 21
30.0
 31
0.0
  0
LINE
  5
36C
330
1F
100
AcDbEntity
  8
0
  6
Continuous
 62
     7
370
     0
100
AcDbLine
 10
158.6666666667
 20
54.0
 30
0.0
 11
168.8333333333
 21
54.0
 31
0.0
  0
LINE
  5
36D
330
1F
100
AcDbEntity
  8
0
  6
Continuous
 62
     7
370
     0
100
AcDbLine
 10
168.8333333333
 20
54.0
 30
0.0
 11
168.8333333333
 21
30.0
 31
0.0
  0
LINE
  5
36E
330
1F
100
AcDbEntity
  8
0
  6
Continuous
 62
     7
370
     0
100
AcDbLine
 10
168.8333333333
 20
54.0
 30
0.0
 11
179.0
 21
54.0
 31
0.0
  0
LINE
  5
36F
330
1F
100
AcDbEntity
  8
0
  6
Continuous
 62
     7
370
     0
100
AcDbLine
 10
168.8333333333
 20
30.0
 30
0.0
 11
179.0
 21
30.0
 31
0.0
  0
LINE
  5
370
330
1F
100
AcDbEntity
  8
0
  6
Continuous
 62
     7
370
     0
100
AcDbLine
 10
35.0
 20
58.0
 30
0.0
 11
35.0
 21
20.5
 31
0.0
  0
LINE
  5
371
330
1F
100
AcDbEntity
  8
0
  6
Continuous
 62
     7
370
     0
100
AcDbLine
 10
35.0
 20
58.0
 30
0.0
 11
55.0
 21
58.0
 31
0.0
  0
LINE
  5
372
330
1F
100
AcDbEntity
  8
0
  6
Continuous
 62
     7
370
    15
100
AcDbLine
 10
25.0
 20
13.0
 30
0.0
 11
37.9503430537
 21
13.0
 31
0.0
  0
LINE
  5
373
330
1F
100
AcDbEntity
  8
0
  6
Continuous
 62
     7
370
     0
100
AcDbLine
 10
25.0
 20
50.5
 30
0.0
 11
129.0
 21
50.5
 31
0.0
  0
LINE
  5
374
330
1F
100
AcDbEntity
  8
0
  6
Continuous
 62
     7
370
    15
100
AcDbLine
 10
25.0
 20
50.5
 30
0.0
 11
25.0
 21
43.0
 31
0.0
  0
LINE
  5
375
330
1F
100
AcDbEntity
  8
0
  6
Continuous
 62
     7
370
     0
100
AcDbLine
 10
129.0
 20
50.5
 30
0.0
 11
129.0
 21
50.0
 31
0.0
  0
LINE
  5
376
330
1F
100
AcDbEntity
  8
0
  6
Continuous
 62
     7
370
     0
100
AcDbLine
 10
129.0
 20
43.0
 30
0.0
 11
25.0
 21
43.0
 31
0.0
  0
LINE
  5
377
330
1F
100
AcDbEntity
  8
0
  6
Continuous
 62
     7
370
     0
100
AcDbLine
 10
129.0
 20
43.0
 30
0.0
 11
129.0
 21
42.0
 31
0.0
  0
LINE
  5
378
330
1F
100
AcDbEntity
  8
0
  6
Continuous
 62
     7
370
    15
100
AcDbLine
 10
25.0
 20
43.0
 30
0.0
 11
25.0
 21
35.5
 31
0.0
  0
LINE
  5
379
330
1F
100
AcDbEntity
  8
0
  6
Continuous
 62
     7
370
     0
100
AcDbLine
 10
25.0
 20
35.5
 30
0.0
 11
129.0
 21
35.5
 31
0.0
  0
LINE
  5
37A
330
1F
100
AcDbEntity
  8
0
  6
Continuous
 62
     7
370
    15
100
AcDbLine
 10
25.0
 20
35.5
 30
0.0
 11
25.0
 21
28.0
 31
0.0
  0
LINE
  5
37B
330
1F
100
AcDbEntity
  8
0
  6
Continuous
 62
     7
370
     0
100
AcDbLine
 10
129.0
 20
35.5
 30
0.0
 11
129.0
 21
34.0
 31
0.0
  0
LINE
  5
37C
330
1F
100
AcDbEntity
  8
0
  6
Continuous
 62
     7
370
     0
100
AcDbLine
 10
25.0
 20
28.0
 30
0.0
 11
129.0
 21
28.0
 31
0.0
  0
LINE
  5
37D
330
1F
100
AcDbEntity
  8
0
  6
Continuous
 62
     7
370
    15
100
AcDbLine
 10
25.0
 20
28.0
 30
0.0
 11
25.0
 21
20.5
 31
0.0
  0
LINE
  5
37E
330
1F
100
AcDbEntity
  8
0
  6
Continuous
 62
     7
370
     0
100
AcDbLine
 10
129.0
 20
28.0
 30
0.0
 11
129.0
 21
25.5
 31
0.0
  0
LINE
  5
37F
330
1F
100
AcDbEntity
  8
0
  6
Continuous
 62
     7
370
     0
100
AcDbLine
 10
179.0
 20
50.0
 30
0.0
 11
129.0
 21
50.0
 31
0.0
  0
LINE
  5
380
330
1F
100
AcDbEntity
  8
0
  6
Continuous
 62
     7
370
     0
100
AcDbLine
 10
179.0
 20
50.0
 30
0.0
 11
179.0
 21
47.3
 31
0.0
  0
LINE
  5
381
330
1F
100
AcDbEntity
  8
0
  6
Continuous
 62
     7
370
     0
100
AcDbLine
 10
129.0
 20
50.0
 30
0.0
 11
129.0
 21
46.0
 31
0.0
  0
LINE
  5
382
330
1F
100
AcDbEntity
  8
0
  6
Continuous
 62
     7
370
     0
100
AcDbLine
 10
179.0
 20
46.0
 30
0.0
 11
129.0
 21
46.0
 31
0.0
  0
LINE
  5
383
330
1F
100
AcDbEntity
  8
0
  6
Continuous
 62
     7
370
     0
100
AcDbLine
 10
179.0
 20
46.0
 30
0.0
 11
179.0
 21
42.0
 31
0.0
  0
LINE
  5
384
330
1F
100
AcDbEntity
  8
0
  6
Continuous
 62
     7
370
     0
100
AcDbLine
 10
129.0
 20
46.0
 30
0.0
 11
129.0
 21
43.0
 31
0.0
  0
LINE
  5
385
330
1F
100
AcDbEntity
  8
0
  6
Continuous
 62
     7
370
     0
100
AcDbLine
 10
129.0
 20
42.0
 30
0.0
 11
179.0
 21
42.0
 31
0.0
  0
LINE
  5
386
330
1F
100
AcDbEntity
  8
0
  6
Continuous
 62
     7
370
     0
100
AcDbLine
 10
129.0
 20
42.0
 30
0.0
 11
129.0
 21
38.0
 31
0.0
  0
LINE
  5
387
330
1F
100
AcDbEntity
  8
0
  6
Continuous
 62
     7
370
     0
100
AcDbLine
 10
179.0
 20
42.0
 30
0.0
 11
179.0
 21
38.0
 31
0.0
  0
LINE
  5
388
330
1F
100
AcDbEntity
  8
0
  6
Continuous
 62
     7
370
     0
100
AcDbLine
 10
179.0
 20
38.0
 30
0.0
 11
129.0
 21
38.0
 31
0.0
  0
LINE
  5
389
330
1F
100
AcDbEntity
  8
0
  6
Continuous
 62
     7
370
     0
100
AcDbLine
 10
179.0
 20
38.0
 30
0.0
 11
179.0
 21
37.4
 31
0.0
  0
LINE
  5
38A
330
1F
100
AcDbEntity
  8
0
  6
Continuous
 62
     7
370
     0
100
AcDbLine
 10
129.0
 20
38.0
 30
0.0
 11
129.0
 21
35.5
 31
0.0
  0
LINE
  5
38B
330
1F
100
AcDbEntity
  8
0
  6
Continuous
 62
     7
370
     0
100
AcDbLine
 10
129.0
 20
34.0
 30
0.0
 11
179.0
 21
34.0
 31
0.0
  0
LINE
  5
38C
330
1F
100
AcDbEntity
  8
0
  6
Continuous
 62
     7
370
     0
100
AcDbLine
 10
129.0
 20
34.0
 30
0.0
 11
129.0
 21
30.0
 31
0.0
  0
LINE
  5
38D
330
1F
100
AcDbEntity
  8
0
  6
Continuous
 62
     7
370
     0
100
AcDbLine
 10
179.0
 20
34.0
 30
0.0
 11
179.0
 21
30.0
 31
0.0
  0
LINE
  5
38E
330
1F
100
AcDbEntity
  8
0
  6
Continuous
 62
     7
370
     0
100
AcDbLine
 10
37.9503430537
 20
13.0
 30
0.0
 11
37.9503430537
 21
20.5
 31
0.0
  0
LINE
  5
38F
330
1F
100
AcDbEntity
  8
0
  6
Continuous
 62
     7
370
    15
100
AcDbLine
 10
37.9503430537
 20
13.0
 30
0.0
 11
50.7632108866
 21
13.0
 31
0.0
  0
LINE
  5
390
330
1F
100
AcDbEntity
  8
0
  6
Continuous
 62
     7
370
     0
100
AcDbLine
 10
37.9503430537
 20
20.5
 30
0.0
 11
25.0
 21
20.5
 31
0.0
  0
LINE
  5
391
330
1F
100
AcDbEntity
  8
0
  6
Continuous
 62
     7
370
     0
100
AcDbLine
 10
50.7632108866
 20
20.5
 30
0.0
 11
50.7632108866
 21
13.0
 31
0.0
  0
LINE
  5
392
330
1F
100
AcDbEntity
  8
0
  6
Continuous
 62
     7
370
     0
100
AcDbLine
 10
50.7632108866
 20
20.5
 30
0.0
 11
37.9503430537
 21
20.5
 31
0.0
  0
LINE
  5
393
330
1F
100
AcDbEntity
  8
0
  6
Continuous
 62
     7
370
    15
100
AcDbLine
 10
50.7632108866
 20
13.0
 30
0.0
 11
85.6310151534
 21
13.0
 31
0.0
  0
LINE
  5
394
330
1F
100
AcDbEntity
  8
0
  6
Continuous
 62
     7
370
     0
100
AcDbLine
 10
85.6310151534
 20
20.5
 30
0.0
 11
85.6310151534
 21
13.0
 31
0.0
  0
LINE
  5
395
330
1F
100
AcDbEntity
  8
0
  6
Continuous
 62
     7
370
     0
100
AcDbLine
 10
85.6310151534
 20
20.5
 30
0.0
 11
50.7632108866
 21
20.5
 31
0.0
  0
LINE
  5
396
330
1F
100
AcDbEntity
  8
0
  6
Continuous
 62
     7
370
    15
100
AcDbLine
 10
85.6310151534
 20
13.0
 30
0.0
 11
96.9735538908
 21
13.0
 31
0.0
  0
LINE
  5
397
330
1F
100
AcDbEntity
  8
0
  6
Continuous
 62
     7
370
     0
100
AcDbLine
 10
96.9735538908
 20
20.5
 30
0.0
 11
96.9735538908
 21
13.0
 31
0.0
  0
LINE
  5
398
330
1F
100
AcDbEntity
  8
0
  6
Continuous
 62
     7
370
     0
100
AcDbLine
 10
96.9735538908
 20
20.5
 30
0.0
 11
85.6310151534
 21
20.5
 31
0.0
  0
LINE
  5
399
330
1F
100
AcDbEntity
  8
0
  6
Continuous
 62
     7
370
    15
100
AcDbLine
 10
96.9735538908
 20
13.0
 30
0.0
 11
129.0
 21
13.0
 31
0.0
  0
LINE
  5
39A
330
1F
100
AcDbEntity
  8
0
  6
CENTER
 62
     7
370
    15
100
AcDbLine
 10
133.5350227208
 20
16.5943757159
 30
0.0
 11
135.0350227208
 21
13.9962995046
 31
0.0
  0
LINE
  5
39B
330
1F
100
AcDbEntity
  8
0
  6
CENTER
 62
     7
370
    15
100
AcDbLine
 10
136.5350227208
 20
16.5943757159
 30
0.0
 11
135.0350227208
 21
13.9962995046
 31
0.0
  0
LINE
  5
39C
330
1F
100
AcDbEntity
  8
0
  6
CENTER
 62
     7
370
    15
100
AcDbLine
 10
136.5350227208
 20
16.5943757159
 30
0.0
 11
139.5350227208
 21
16.5943757159
 31
0.0
  0
LINE
  5
39D
330
1F
100
AcDbEntity
  8
0
  6
CENTER
 62
     7
370
    15
100
AcDbLine
 10
136.5350227208
 20
16.5943757159
 30
0.0
 11
138.0350227208
 21
13.9962995046
 31
0.0
  0
LINE
  5
39E
330
1F
100
AcDbEntity
  8
0
  6
CENTER
 62
     7
370
    15
100
AcDbLine
 10
139.5350227208
 20
16.5943757159
 30
0.0
 11
138.0350227208
 21
13.9962995046
 31
0.0
  0
LINE
  5
39F
330
1F
100
AcDbEntity
  8
0
  6
Continuous
 62
     7
370
    15
100
AcDbLine
 10
144.3990295637
 20
16.6216693293
 30
0.0
 11
147.3990295637
 21
16.6216693293
 31
0.0
  0
LINE
  5
3A0
330
1F
100
AcDbEntity
  8
0
  6
Continuous
 62
     7
370
    15
100
AcDbLine
 10
147.3990295637
 20
16.6216693293
 30
0.0
 11
145.8990295637
 21
14.0235931179
 31
0.0
  0
LINE
  5
3A1
330
1F
100
AcDbEntity
  8
0
  6
Continuous
 62
     7
370
    15
100
AcDbLine
 10
144.3990295637
 20
16.6216693293
 30
0.0
 11
145.8990295637
 21
14.0235931179
 31
0.0
  0
LINE
  5
3A2
330
1F
100
AcDbEntity
  8
0
  6
CENTER
 62
     7
370
    15
100
AcDbLine
 10
147.3990295637
 20
16.6216693293
 30
0.0
 11
150.3990295637
 21
16.6216693293
 31
0.0
  0
LINE
  5
3A3
330
1F
100
AcDbEntity
  8
0
  6
CENTER
 62
     7
370
    15
100
AcDbLine
 10
150.3990295637
 20
16.6216693293
 30
0.0
 11
148.8990295637
 21
14.0235931179
 31
0.0
  0
LINE
  5
3A4
330
1F
100
AcDbEntity
  8
0
  6
CENTER
 62
     7
370
    15
100
AcDbLine
 10
147.3990295637
 20
16.6216693293
 30
0.0
 11
148.8990295637
 21
14.0235931179
 31
0.0
  0
LINE
  5
3A5
330
1F
100
AcDbEntity
  8
0
  6
Continuous
 62
     7
370
    15
100
AcDbLine
 10
158.6997342202
 20
16.4579076492
 30
0.0
 11
161.6997342202
 21
16.4579076492
 31
0.0
  0
LINE
  5
3A6
330
1F
100
AcDbEntity
  8
0
  6
Continuous
 62
     7
370
    15
100
AcDbLine
 10
161.6997342202
 20
16.4579076492
 30
0.0
 11
160.1997342202
 21
13.8598314379
 31
0.0
  0
LINE
  5
3A7
330
1F
100
AcDbEntity
  8
0
  6
Continuous
 62
     7
370
    15
100
AcDbLine
 10
158.6997342202
 20
16.4579076492
 30
0.0
 11
160.1997342202
 21
13.8598314379
 31
0.0
  0
LINE
  5
3A8
330
1F
100
AcDbEntity
  8
0
  6
Continuous
 62
     7
370
    15
100
AcDbLine
 10
171.1773135274
 20
22.3612920535
 30
0.0
 11
172.6773135274
 21
19.7632158421
 31
0.0
  0
SPLINE
  5
3A9
330
1F
100
AcDbEntity
  8
0
  6
Continuous
 62
     5
370
    15
100
AcDbSpline
210
0.0
220
0.0
230
1.0
 70
     8
 71
     3
 72
    11
 73
     7
 74
     0
 42
0.00000001
 43
0.00000001
 40
0.0
 40
0.0
 40
0.0
 40
0.0
 40
0.2830912462189042
 40
0.5136186913771149
 40
0.7601132866708651
 40
1.0
 40
1.0
 40
1.0
 40
1.0
 10
170.4919345489564
 20
15.190762615304
 30
0.0
 10
170.9116444740017
 20
15.69427279640126
 30
0.0
 10
171.6731334473947
 20
16.60780242250018
 30
0.0
 10
172.452761626739
 20
15.13555597948352
 30
0.0
 10
173.4823885345015
 20
13.90323770240837
 30
0.0
 10
174.1084303862232
 20
14.76549245284555
 30
0.0
 10
174.4171986705991
 20
15.190762615304
 30
0.0
  0
MTEXT
  5
3AB
330
1F
100
AcDbEntity
  8
SLD-0
 62
   179
100
AcDbMText
 10
37.5589298576
 20
32.1621032241
 30
0.0
 40
2.6458333333
 41
0.0
 71
     1
 72
     1
  1
2011.10.25
  7
SLDTEXTSTYLE10
 73
     1
 44
1.0
  0
MTEXT
  5
3AC
330
1F
100
AcDbEntity
  8
SLD-0
 62
   179
100
AcDbMText
 10
198.1152030174
 20
36.2504591262
 30
0.0
 40
3.7041666667
 41
0.0
 71
     1
 72
     1
  1
KCM-Z08F
  7
SLDTEXTSTYLE6
 73
     1
 44
1.0
  0
MTEXT
  5
3AE
330
1F
100
AcDbEntity
  8
SLD-0
 62
   179
100
AcDbMText
 10
197.1493359978
 20
30.6077770025
 30
0.0
 40
2.1166666667
 41
0.0
 71
     1
 72
     1
  1
Ｘ０．８～Ｘ０．１　ズ－ムレンズ
  7
SLDTEXTSTYLE11
 73
     1
 44
1.0
  0
MTEXT
  5
3AF
330
1F
100
AcDbEntity
  8
SLD-0
 62
   179
100
AcDbMText
 10
116.1891032124
 20
32.1621032241
 30
0.0
 40
2.6458333333
 41
0.0
 71
     1
 72
     1
  1
桑名
  7
SLDTEXTSTYLE10
 73
     1
 44
1.0
  0
MTEXT
  5
3B0
330
1F
100
AcDbEntity
  8
SLD-0
 62
   179
100
AcDbMText
 10
223.2888756692
 20
17.5799508016
 30
0.0
 40
2.6458333333
 41
0.0
 71
     1
 72
     1
  1
桑名
  7
SLDTEXTSTYLE10
 73
     1
 44
1.0
  0
MTEXT
  5
3B1
330
1F
100
AcDbEntity
  8
SLD-0
 62
   179
100
AcDbMText
 10
256.0236078365
 20
17.5799508016
 30
0.0
 40
2.6458333333
 41
0.0
 71
     1
 72
     1
  1
斉藤
  7
SLDTEXTSTYLE10
 73
     1
 44
1.0
  0
MTEXT
  5
3B2
330
1F
100
AcDbEntity
  8
SLD-0
 62
   179
100
AcDbMText
 10
198.1152030174
 20
44.1163724897
 30
0.0
 40
3.7041666667
 41
0.0
 71
     1
 72
     1
  1
TSTM-207
  7
SLDTEXTSTYLE6
 73
     1
 44
1.0
  0
MTEXT
  5
3B3
330
1F
100
AcDbEntity
  8
SLD-0
 62
   179
100
AcDbMText
 10
58.9110365854
 20
18.0002897292
 30
0.0
 40
3.7041666667
 41
0.0
 71
     1
 72
     1
  1
KCM-Z08F
  7
SLDTEXTSTYLE6
 73
     1
 44
1.0
  0
MTEXT
  5
3B5
330
1F
100
AcDbEntity
  8
0
  6
Continuous
 62
     7
370
     0
100
AcDbMText
 10
262.027595847
 20
11.6176800467
 30
0.0
 40
3.5
 41
0.0
 71
     1
 72
     1
  1
A4
  7
SLDTEXTSTYLE12
 73
     1
 44
1.0
  0
MTEXT
  5
3B6
330
1F
100
AcDbEntity
  8
0
  6
Continuous
 62
     7
370
     0
100
AcDbMText
 10
234.5589626647
 20
11.6315990709
 30
0.0
 40
3.5
 41
0.0
 71
     1
 72
     1
  1
〔ｍｍ〕
  7
SLDTEXTSTYLE12
 73
     1
 44
1.0
  0
MTEXT
  5
3B7
330
1F
100
AcDbEntity
  8
0
  6
Continuous
 62
     7
370
     0
100
AcDbMText
 10
224.5598753271
 20
25.038308925
 30
0.0
 40
3.0
 41
0.0
 71
     1
 72
     1
  1
仕上
  7
SLDTEXTSTYLE12
 73
     1
 44
1.0
  0
MTEXT
  5
3B9
330
1F
100
AcDbEntity
  8
0
  6
Continuous
 62
     7
370
     0
100
AcDbMText
 10
143.7786872338
 20
29.5893151497
 30
0.0
 40
3.0
 41
0.0
 71
     1
 72
     1
  1
仕         上
  7
SLDTEXTSTYLE13
 73
     1
 44
1.0
  0
MTEXT
  5
3BA
330
1F
100
AcDbEntity
  8
0
  6
Continuous
 62
     7
370
     0
100
AcDbMText
 10
26.4376543937
 20
25.3812966666
 30
0.0
 40
3.0
 41
0.0
 71
     1
 72
     1
  1
符号
  7
SLDTEXTSTYLE12
 73
     1
 44
1.0
  0
MTEXT
  5
3BB
330
1F
100
AcDbEntity
  8
0
  6
Continuous
 62
     7
370
     0
100
AcDbMText
 10
35.8192414679
 20
25.3534799816
 30
0.0
 40
3.0
 41
0.0
 71
     1
 72
     1
  1
年　月　日
  7
SLDTEXTSTYLE12
 73
     1
 44
1.0
  0
MTEXT
  5
3BD
330
1F
100
AcDbEntity
  8
0
  6
Continuous
 62
     7
370
     0
100
AcDbMText
 10
67.877689901
 20
25.3043950547
 30
0.0
 40
3.0
 41
0.0
 71
     1
 72
     1
  1
変   更   内   容
  7
SLDTEXTSTYLE14
 73
     1
 44
1.0
  0
MTEXT
  5
3BE
330
1F
100
AcDbEntity
  8
0
  6
Continuous
 62
     7
370
     0
100
AcDbMText
 10
115.5490761285
 20
25.5393873471
 30
0.0
 40
3.0
 41
0.0
 71
     1
 72
     1
  1
担 当
  7
SLDTEXTSTYLE12
 73
     1
 44
1.0
  0
MTEXT
  5
3C0
330
1F
100
AcDbEntity
  8
0
  6
Continuous
 62
     7
370
     0
100
AcDbMText
 10
68.4422761572
 20
32.766264895
 30
0.0
 40
3.5
 41
0.0
 71
     1
 72
     1
  1
図  面  登  録
  7
SLDTEXTSTYLE15
 73
     1
 44
1.0
  0
MTEXT
  5
3C1
330
1F
100
AcDbEntity
  8
0
  6
Continuous
 62
     7
370
     0
100
AcDbMText
 10
139.6384298402
 20
57.2593473392
 30
0.0
 40
2.5
 41
0.0
 71
     1
 72
     1
  1
一  般  公  差
  7
SLDTEXTSTYLE15
 73
     1
 44
1.0
  0
MTEXT
  5
3C2
330
1F
100
AcDbEntity
  8
0
  6
Continuous
 62
     7
370
     0
100
AcDbMText
 10
129.6855419582
 20
53.2732889271
 30
0.0
 40
2.5
 41
0.0
 71
     1
 72
     1
  1
呼び寸法区分
  7
SLDTEXTSTYLE12
 73
     1
 44
1.0
  0
MTEXT
  5
3C4
330
1F
100
AcDbEntity
  8
0
  6
Continuous
 62
     7
370
     0
100
AcDbMText
 10
131.0279122674
 20
41.2570923087
 30
0.0
 40
2.5
 41
0.0
 71
     1
 72
     1
  1
63をこえ250以下
  7
SLDTEXTSTYLE16
 73
     1
 44
1.0
  0
MTEXT
  5
3C5
330
1F
100
AcDbEntity
  8
0
  6
Continuous
 62
     7
370
     0
100
AcDbMText
 10
129.7873906708
 20
37.2224660086
 30
0.0
 40
2.5
 41
0.0
 71
     1
 72
     1
  1
250をこえ500以下
  7
SLDTEXTSTYLE16
 73
     1
 44
1.0
  0
MTEXT
  5
3C6
330
1F
100
AcDbEntity
  8
0
  6
Continuous
 62
     7
370
     0
100
AcDbMText
 10
132.0786997474
 20
45.3646934888
 30
0.0
 40
2.5
 41
0.0
 71
     1
 72
     1
  1
16をこえ63以下
  7
SLDTEXTSTYLE16
 73
     1
 44
1.0
  0
MTEXT
  5
3C8
330
1F
100
AcDbEntity
  8
0
  6
Continuous
 62
     7
370
     0
100
AcDbMText
 10
129.6571779143
 20
33.2468206455
 30
0.0
 40
2.5
 41
0.0
 71
     1
 72
     1
  1
500をこえ1000以下
  7
SLDTEXTSTYLE17
 73
     1
 44
1.0
  0
MTEXT
  5
3CA
330
1F
100
AcDbEntity
  8
0
  6
Continuous
 62
     7
370
     0
100
AcDbMText
 10
150.0933026879
 20
53.277150895
 30
0.0
 40
2.5
 41
0.0
 71
     1
 72
     1
  1
Ａ　級
  7
SLDTEXTSTYLE18
 73
     1
 44
1.0
  0
MTEXT
  5
3CB
330
1F
100
AcDbEntity
  8
0
  6
Continuous
 62
     7
370
     0
100
AcDbMText
 10
160.3123513361
 20
53.277150895
 30
0.0
 40
2.5
 41
0.0
 71
     1
 72
     1
  1
Ｂ　級
  7
SLDTEXTSTYLE18
 73
     1
 44
1.0
  0
MTEXT
  5
3CC
330
1F
100
AcDbEntity
  8
0
  6
Continuous
 62
     7
370
     0
100
AcDbMText
 10
170.4527919177
 20
53.2807392727
 30
0.0
 40
2.5
 41
0.0
 71
     1
 72
     1
  1
Ｃ　級
  7
SLDTEXTSTYLE18
 73
     1
 44
1.0
  0
MTEXT
  5
3CD
330
1F
100
AcDbEntity
  8
0
  6
Continuous
 62
     7
370
     0
100
AcDbMText
 10
181.1937363237
 20
45.9797057443
 30
0.0
 40
3.0
 41
0.0
 71
     1
 72
     1
  1
製　品
  7
SLDTEXTSTYLE12
 73
     1
 44
1.0
  0
MTEXT
  5
3CE
330
1F
100
AcDbEntity
  8
0
  6
Continuous
 62
     7
370
     0
100
AcDbMText
 10
181.1937363237
 20
41.7797057443
 30
0.0
 40
3.0
 41
0.0
 71
     1
 72
     1
  1
番  号
  7
SLDTEXTSTYLE13
 73
     1
 44
1.0
  0
MTEXT
  5
3CF
330
1F
100
AcDbEntity
  8
0
  6
Continuous
 62
     7
370
     0
100
AcDbMText
 10
181.2663015457
 20
34.1168168637
 30
0.0
 40
3.0
 41
0.0
 71
     1
 72
     1
  1
製品名
  7
SLDTEXTSTYLE12
 73
     1
 44
1.0
  0
MTEXT
  5
3D0
330
1F
100
AcDbEntity
  8
0
  6
Continuous
 62
     7
370
     0
100
AcDbMText
 10
181.3640727899
 20
25.5129473734
 30
0.0
 40
3.0
 41
0.0
 71
     1
 72
     1
  1
個数
  7
SLDTEXTSTYLE12
 73
     1
 44
1.0
  0
MTEXT
  5
3D1
330
1F
100
AcDbEntity
  8
0
  6
Continuous
 62
     7
370
     0
100
AcDbMText
 10
180.0
 20
18.2909090316
 30
0.0
 40
3.0
 41
0.0
 71
     1
 72
     1
  1
設計
  7
SLDTEXTSTYLE12
 73
     1
 44
1.0
  0
MTEXT
  5
3D2
330
1F
100
AcDbEntity
  8
0
  6
Continuous
 62
     7
370
     0
100
AcDbMText
 10
210.0
 20
18.2909090316
 30
0.0
 40
3.0
 41
0.0
 71
     1
 72
     1
  1
製図
  7
SLDTEXTSTYLE12
 73
     1
 44
1.0
  0
MTEXT
  5
3D3
330
1F
100
AcDbEntity
  8
0
  6
Continuous
 62
     7
370
     0
100
AcDbMText
 10
239.0
 20
18.2909090316
 30
0.0
 40
3.0
 41
0.0
 71
     1
 72
     1
  1
承認
  7
SLDTEXTSTYLE12
 73
     1
 44
1.0
  0
MTEXT
  5
3D4
330
1F
100
AcDbEntity
  8
0
  6
Continuous
 62
     7
370
     0
100
AcDbMText
 10
234.3560871506
 20
44.0028563077
 30
0.0
 40
3.0
 41
0.0
 71
     1
 72
     1
  1
材料
  7
SLDTEXTSTYLE12
 73
     1
 44
1.0
  0
MTEXT
  5
3D5
330
1F
100
AcDbEntity
  8
0
  6
Continuous
 62
     7
370
     0
100
AcDbMText
 10
232.205119778
 20
36.2703070027
 30
0.0
 40
3.0
 41
0.0
 71
     1
 72
     1
  1
表　面
  7
SLDTEXTSTYLE12
 73
     1
 44
1.0
  0
MTEXT
  5
3D6
330
1F
100
AcDbEntity
  8
0
  6
Continuous
 62
     7
370
     0
100
AcDbMText
 10
232.205119778
 20
32.2703070027
 30
0.0
 40
3.0
 41
0.0
 71
     1
 72
     1
  1
処　理
  7
SLDTEXTSTYLE12
 73
     1
 44
1.0
  0
MTEXT
  5
3D7
330
1F
100
AcDbEntity
  8
0
  6
Continuous
 62
     7
370
     0
100
AcDbMText
 10
244.8313450017
 20
25.1264760024
 30
0.0
 40
3.0
 41
0.0
 71
     1
 72
     1
  1
尺度
  7
SLDTEXTSTYLE12
 73
     1
 44
1.0
  0
MTEXT
  5
3D8
330
1F
100
AcDbEntity
  8
0
  6
Continuous
 62
     7
370
     0
100
AcDbMText
 10
28.2797777341
 20
18.1580183471
 30
0.0
 40
3.5
 41
0.0
 71
     1
 72
     1
  1
原型
  7
SLDTEXTSTYLE12
 73
     1
 44
1.0
  0
MTEXT
  5
3D9
330
1F
100
AcDbEntity
  8
0
  6
Continuous
 62
     7
370
     0
100
AcDbMText
 10
40.2608602039
 20
18.1169123537
 30
0.0
 40
3.5
 41
0.0
 71
     1
 72
     1
  1
機種
  7
SLDTEXTSTYLE12
 73
     1
 44
1.0
  0
MTEXT
  5
3DA
330
1F
100
AcDbEntity
  8
0
  6
Continuous
 62
     7
370
     0
100
AcDbMText
 10
86.9963207422
 20
18.1169123537
 30
0.0
 40
3.5
 41
0.0
 71
     1
 72
     1
  1
番号
  7
SLDTEXTSTYLE12
 73
     1
 44
1.0
  0
MTEXT
  5
3DB
330
1F
100
AcDbEntity
  8
0
  6
Continuous
 62
     7
370
     0
100
AcDbMText
 10
141.3926927284
 20
49.2532741857
 30
0.0
 40
2.5
 41
0.0
 71
     1
 72
     1
  1
16以下
  7
SLDTEXTSTYLE16
 73
     1
 44
1.0
  0
INSERT
  5
3E1
330
1F
100
AcDbEntity
  8
0
  6
Continuous
 62
     7
370
     0
100
AcDbBlockReference
  2
SW_NOTE_0
 10
203.1112380336
 20
23.8817166002
 30
0.0
  0
MTEXT
  5
3E2
330
1F
100
AcDbEntity
  8
0
  6
Continuous
 62
     7
370
     0
100
AcDbMText
 10
248.6595093175
 20
11.5975215342
 30
0.0
 40
3.5
 41
0.0
 71
     1
 72
     1
  1
三角法
  7
SLDTEXTSTYLE12
 73
     1
 44
1.0
  0
MTEXT
  5
3E3
330
1F
100
AcDbEntity
  8
0
  6
Continuous
 62
     7
370
     0
100
AcDbMText
 10
169.6528599867
 20
32.9579680883
 30
0.0
 40
1.8520833333
 41
0.0
 71
     1
 72
     1
  1
± ４
  7
SLDTEXTSTYLE0
 73
     1
 44
1.0
  0
MTEXT
  5
3E4
330
1F
100
AcDbEntity
  8
0
  6
Continuous
 62
     7
370
     0
100
AcDbMText
 10
169.5878723615
 20
36.782832769
 30
0.0
 40
1.8520833333
 41
0.0
 71
     1
 72
     1
  1
± ３
  7
SLDTEXTSTYLE0
 73
     1
 44
1.0
  0
MTEXT
  5
3E5
330
1F
100
AcDbEntity
  8
0
  6
Continuous
 62
     7
370
     0
100
AcDbMText
 10
169.6177150976
 20
40.7872175469
 30
0.0
 40
1.8520833333
 41
0.0
 71
     1
 72
     1
  1
± ２
  7
SLDTEXTSTYLE0
 73
     1
 44
1.0
  0
MTEXT
  5
3E6
330
1F
100
AcDbEntity
  8
0
  6
Continuous
 62
     7
370
     0
100
AcDbMText
 10
159.5023847999
 20
32.9680906138
 30
0.0
 40
1.8520833333
 41
0.0
 71
     1
 72
     1
  1
± ２
  7
SLDTEXTSTYLE0
 73
     1
 44
1.0
  0
MTEXT
  5
3E7
330
1F
100
AcDbEntity
  8
0
  6
Continuous
 62
     7
370
     0
100
AcDbMText
 10
159.5238356994
 20
36.7479347104
 30
0.0
 40
1.8520833333
 41
0.0
 71
     1
 72
     1
  1
±１.２
  7
SLDTEXTSTYLE0
 73
     1
 44
1.0
  0
MTEXT
  5
3E8
330
1F
100
AcDbEntity
  8
0
  6
Continuous
 62
     7
370
     0
100
AcDbMText
 10
159.5390953123
 20
40.7711262981
 30
0.0
 40
1.8520833333
 41
0.0
 71
     1
 72
     1
  1
±０.８
  7
SLDTEXTSTYLE0
 73
     1
 44
1.0
  0
MTEXT
  5
3E9
330
1F
100
AcDbEntity
  8
0
  6
Continuous
 62
     7
370
     0
100
AcDbMText
 10
149.5680850091
 20
32.9683278831
 30
0.0
 40
1.8520833333
 41
0.0
 71
     1
 72
     1
  1
±０.８
  7
SLDTEXTSTYLE0
 73
     1
 44
1.0
  0
MTEXT
  5
3EA
330
1F
100
AcDbEntity
  8
0
  6
Continuous
 62
     7
370
     0
100
AcDbMText
 10
159.4890020128
 20
44.7428570433
 30
0.0
 40
1.8520833333
 41
0.0
 71
     1
 72
     1
  1
±０.５
  7
SLDTEXTSTYLE0
 73
     1
 44
1.0
  0
MTEXT
  5
3EB
330
1F
100
AcDbEntity
  8
0
  6
Continuous
 62
     7
370
     0
100
AcDbMText
 10
149.593552679
 20
40.7629808009
 30
0.0
 40
1.8520833333
 41
0.0
 71
     1
 72
     1
  1
±０.３
  7
SLDTEXTSTYLE0
 73
     1
 44
1.0
  0
MTEXT
  5
3EC
330
1F
100
AcDbEntity
  8
0
  6
Continuous
 62
     7
370
     0
100
AcDbMText
 10
149.5614412498
 20
44.7593267654
 30
0.0
 40
1.8520833333
 41
0.0
 71
     1
 72
     1
  1
±０.２
  7
SLDTEXTSTYLE0
 73
     1
 44
1.0
  0
MTEXT
  5
3ED
330
1F
100
AcDbEntity
  8
0
  6
Continuous
 62
     7
370
     0
100
AcDbMText
 10
149.5453451335
 20
36.7790673621
 30
0.0
 40
1.8520833333
 41
0.0
 71
     1
 72
     1
  1
±０.５
  7
SLDTEXTSTYLE0
 73
     1
 44
1.0
  0
MTEXT
  5
3EE
330
1F
100
AcDbEntity
  8
0
  6
Continuous
 62
     7
370
     0
100
AcDbMText
 10
169.5047164367
 20
48.6269624212
 30
0.0
 40
1.8520833333
 41
0.0
 71
     1
 72
     1
  1
± １
  7
SLDTEXTSTYLE0
 73
     1
 44
1.0
  0
MTEXT
  5
3EF
330
1F
100
AcDbEntity
  8
0
  6
Continuous
 62
     7
370
     0
100
AcDbMText
 10
159.4156077437
 20
48.6312472796
 30
0.0
 40
1.8520833333
 41
0.0
 71
     1
 72
     1
  1
±０.３
  7
SLDTEXTSTYLE0
 73
     1
 44
1.0
  0
MTEXT
  5
3F0
330
1F
100
AcDbEntity
  8
0
  6
Continuous
 62
     7
370
     0
100
AcDbMText
 10
149.5726992392
 20
48.6460960559
 30
0.0
 40
1.8520833333
 41
0.0
 71
     1
 72
     1
  1
±０.１
  7
SLDTEXTSTYLE0
 73
     1
 44
1.0
  0
MTEXT
  5
3F1
330
1F
100
AcDbEntity
  8
0
  6
Continuous
 62
     7
370
     0
100
AcDbMText
 10
169.2651588964
 20
44.4904474307
 30
0.0
 40
1.8520833333
 41
0.0
 71
     1
 72
     1
  1
±１.５
  7
SLDTEXTSTYLE0
 73
     1
 44
1.0
  0
MTEXT
  5
3F2
330
1F
100
AcDbEntity
  8
0
  6
Continuous
 62
     7
370
     0
100
AcDbMText
 10
159.1303705491
 20
24.7800314899
 30
0.0
 40
2.1166666667
 41
0.0
 71
     1
 72
     1
  1
25
  7
SLDTEXTSTYLE0
 73
     1
 44
1.0
  0
MTEXT
  5
3F3
330
1F
100
AcDbEntity
  8
0
  6
Continuous
 62
     7
370
     0
100
AcDbMText
 10
171.1218221124
 20
25.0459069032
 30
0.0
 40
2.1166666667
 41
0.0
 71
     1
 72
     1
  1
100
  7
SLDTEXTSTYLE0
 73
     1
 44
1.0
  0
MTEXT
  5
3F4
330
1F
100
AcDbEntity
  8
0
  6
Continuous
 62
     7
370
     0
100
AcDbMText
 10
145.7776596974
 20
24.8076969273
 30
0.0
 40
2.1166666667
 41
0.0
 71
     1
 72
     1
  1
6.3
  7
SLDTEXTSTYLE0
 73
     1
 44
1.0
  0
INSERT
  5
3FA
330
1F
100
AcDbEntity
  8
0
  6
Continuous
 62
     7
370
     0
100
AcDbBlockReference
  2
SW_NOTE_1
 10
132.7953934209
 20
22.1442498528
 30
0.0
  0
MTEXT
  5
3FB
330
1F
100
AcDbEntity
  8
0
  6
Continuous
 62
     7
370
     0
100
AcDbMText
 10
194.1121320635
 20
24.8595380272
 30
0.0
 40
3.5
 41
0.0
 71
     1
 72
     1
  1
1
  7
SLDTEXTSTYLE0
 73
     1
 44
1.0
  0
MTEXT
  5
3FC
330
1F
100
AcDbEntity
  8
SLD-0
 62
     7
100
AcDbMText
 10
257.4266680392
 20
25.6263497302
 30
0.0
 40
3.5
 41
0.0
 71
     1
 72
     1
  1
1/1
  7
SLDTEXTSTYLE0
 73
     1
 44
1.0
  0
MTEXT
  5
3FD
330
1F
100
AcDbEntity
  8
SLD-0
100
AcDbMText
 10
209.1361196832
 20
54.9156410429
 30
0.0
 40
4.2333333333
 41
0.0
 71
     1
 72
     1
  1
ケンコー・トキナー
  7
SLDTEXTSTYLE0
 73
     1
 44
1.0
  0
MTEXT
  5
3FE
330
1F
100
AcDbEntity
  8
SLD-0
100
AcDbMText
 10
190.568742564
 20
54.2804867283
 30
0.0
 40
3.5
 41
0.0
 71
     1
 72
     1
  1
株式会社
  7
SLDTEXTSTYLE0
 73
     1
 44
1.0
  0
INSERT
  5
3FF
330
1F
100
AcDbEntity
  8
0
  6
Continuous
 62
     7
100
AcDbBlockReference
  2
ﾌﾞﾛｯｸ7
 10
28.388052992
 20
98.7317019227
 30
0.0
  0
ENDSEC
  0
SECTION
  2
OBJECTS
  0
DICTIONARY
  5
C
330
0
100
AcDbDictionary
281
     1
  3
ACAD_GROUP
350
D
  3
ACAD_LAYOUT
350
1A
  3
ACAD_MLINESTYLE
350
17
  3
ACAD_PLOTSETTINGS
350
19
  3
ACAD_PLOTSTYLENAME
350
E
  0
DICTIONARY
  5
D
102
{ACAD_REACTORS
330
C
102
}
330
C
100
AcDbDictionary
281
     1
  0
DICTIONARY
  5
1A
102
{ACAD_REACTORS
330
C
102
}
330
C
100
AcDbDictionary
281
     1
  3
Layout1
350
1E
  3
Layout2
350
26
  3
Model
350
22
  0
DICTIONARY
  5
17
102
{ACAD_REACTORS
330
C
102
}
330
C
100
AcDbDictionary
281
     1
  3
Standard
350
18
  0
DICTIONARY
  5
19
102
{ACAD_REACTORS
330
C
102
}
330
C
100
AcDbDictionary
281
     1
  0
ACDBDICTIONARYWDFLT
  5
E
102
{ACAD_REACTORS
330
C
102
}
330
C
100
AcDbDictionary
281
     1
  3
Normal
350
F
100
AcDbDictionaryWithDefault
340
F
  0
LAYOUT
  5
1E
102
{ACAD_REACTORS
330
1A
102
}
330
1A
100
AcDbPlotSettings
  1

  2
none_device
  4

  6

 40
0.0
 41
0.0
 42
0.0
 43
0.0
 44
0.0
 45
0.0
 46
0.0
 47
0.0
 48
0.0
 49
0.0
140
0.0
141
0.0
142
1.0
143
1.0
 70
   688
 72
     0
 73
     0
 74
     5
  7

 75
    16
147
1.0
148
0.0
149
0.0
100
AcDbLayout
  1
Layout1
 70
     1
 71
     1
 10
0.0
 20
0.0
 11
420.0
 21
297.0
 12
0.0
 22
0.0
 32
0.0
 14
1.0000000000E+20
 24
1.0000000000E+20
 34
1.0000000000E+20
 15
-1.0000000000E+20
 25
-1.0000000000E+20
 35
-1.0000000000E+20
146
0.0
 13
0.0
 23
0.0
 33
0.0
 16
1.0
 26
0.0
 36
0.0
 17
0.0
 27
1.0
 37
0.0
 76
     0
330
1B
  0
LAYOUT
  5
26
102
{ACAD_REACTORS
330
1A
102
}
330
1A
100
AcDbPlotSettings
  1

  2
none_device
  4

  6

 40
0.0
 41
0.0
 42
0.0
 43
0.0
 44
0.0
 45
0.0
 46
0.0
 47
0.0
 48
0.0
 49
0.0
140
0.0
141
0.0
142
1.0
143
1.0
 70
   688
 72
     0
 73
     0
 74
     5
  7

 75
    16
147
1.0
148
0.0
149
0.0
100
AcDbLayout
  1
Layout2
 70
     1
 71
     2
 10
0.0
 20
0.0
 11
0.0
 21
0.0
 12
0.0
 22
0.0
 32
0.0
 14
0.0
 24
0.0
 34
0.0
 15
0.0
 25
0.0
 35
0.0
146
0.0
 13
0.0
 23
0.0
 33
0.0
 16
1.0
 26
0.0
 36
0.0
 17
0.0
 27
1.0
 37
0.0
 76
     0
330
23
  0
LAYOUT
  5
22
102
{ACAD_REACTORS
330
1A
102
}
330
1A
100
AcDbPlotSettings
  1

  2
none_device
  4

  6

 40
0.0
 41
0.0
 42
0.0
 43
0.0
 44
0.0
 45
0.0
 46
0.0
 47
0.0
 48
0.0
 49
0.0
140
0.0
141
0.0
142
1.0
143
1.0
 70
  1712
 72
     0
 73
     0
 74
     0
  7

 75
     0
147
1.0
148
0.0
149
0.0
100
AcDbLayout
  1
Model
 70
     1
 71
     0
 10
0.0
 20
0.0
 11
0.0
 21
0.0
 12
0.0
 22
0.0
 32
0.0
 14
0.0
 24
0.0
 34
0.0
 15
297.0
 25
210.0
 35
0.0
146
0.0
 13
0.0
 23
0.0
 33
0.0
 16
1.0
 26
0.0
 36
0.0
 17
0.0
 27
1.0
 37
0.0
 76
     0
330
1F
  0
MLINESTYLE
  5
18
102
{ACAD_REACTORS
330
17
102
}
330
17
100
AcDbMlineStyle
  2
Standard
 70
     0
  3

 62
   256
 51
90.0
 52
90.0
 71
     2
 49
0.5
 62
   256
  6
BYLAYER
 49
-0.5
 62
   256
  6
BYLAYER
  0
ACDBPLACEHOLDER
  5
F
102
{ACAD_REACTORS
330
E
102
}
330
E
  0
ENDSEC
  0
EOF
