  0
SECTION
  2
HEADER
  9
$ACADVER
  1
AC1015
  9
$ACADMAINTVER
 70
     6
  9
$DWGCODEPAGE
  3
ANSI_932
  9
$INSBASE
 10
0.0
 20
0.0
 30
0.0
  9
$EXTMIN
 10
-297.0
 20
-0.283333331347
 30
0.0
  9
$EXTMAX
 10
8.102596369743466
 20
209.7166595458999
 30
0.0
  9
$LIMMIN
 10
-354.629
 20
-43.78333689299999
  9
$LIMMAX
 10
65.37099999999998
 20
253.2166631069999
  9
$ORTHOMODE
 70
     0
  9
$REGENMODE
 70
     1
  9
$FILLMODE
 70
     1
  9
$QTEXTMODE
 70
     0
  9
$MIRRTEXT
 70
     1
  9
$LTSCALE
 40
0.2
  9
$ATTMODE
 70
     1
  9
$TEXTSIZE
 40
3.2
  9
$TRACEWID
 40
1.0
  9
$TEXTSTYLE
  7
KCADTEXTSTANDARD
  9
$CLAYER
  8
0
  9
$CELTYPE
  6
Continuous
  9
$CECOLOR
 62
   134
  9
$CELTSCALE
 40
1.0
  9
$DISPSILH
 70
     0
  9
$DIMSCALE
 40
1.0
  9
$DIMASZ
 40
3.0
  9
$DIMEXO
 40
1.0
  9
$DIMDLI
 40
8.0
  9
$DIMRND
 40
0.0
  9
$DIMDLE
 40
0.0
  9
$DIMEXE
 40
1.0
  9
$DIMTP
 40
0.0
  9
$DIMTM
 40
0.0
  9
$DIMTXT
 40
3.2
  9
$DIMCEN
 40
2.5
  9
$DIMTSZ
 40
0.0
  9
$DIMTOL
 70
     0
  9
$DIMLIM
 70
     0
  9
$DIMTIH
 70
     0
  9
$DIMTOH
 70
     0
  9
$DIMSE1
 70
     0
  9
$DIMSE2
 70
     0
  9
$DIMTAD
 70
     1
  9
$DIMZIN
 70
     8
  9
$DIMBLK
  1

  9
$DIMASO
 70
     1
  9
$DIMSHO
 70
     1
  9
$DIMPOST
  1

  9
$DIMAPOST
  1

  9
$DIMALT
 70
     0
  9
$DIMALTD
 70
     2
  9
$DIMALTF
 40
25.4
  9
$DIMLFAC
 40
1.0
  9
$DIMTOFL
 70
     1
  9
$DIMTVP
 40
0.0
  9
$DIMTIX
 70
     0
  9
$DIMSOXD
 70
     0
  9
$DIMSAH
 70
     1
  9
$DIMBLK1
  1
KCAD_OPEN30
  9
$DIMBLK2
  1
KCAD_OPEN30
  9
$DIMSTYLE
  2
Standard
  9
$DIMCLRD
 70
     0
  9
$DIMCLRE
 70
     0
  9
$DIMCLRT
 70
     0
  9
$DIMTFAC
 40
0.667
  9
$DIMGAP
 40
0.5333000000000001
  9
$DIMJUST
 70
     0
  9
$DIMSD1
 70
     0
  9
$DIMSD2
 70
     0
  9
$DIMTOLJ
 70
     1
  9
$DIMTZIN
 70
     8
  9
$DIMALTZ
 70
     0
  9
$DIMALTTZ
 70
     0
  9
$DIMUPT
 70
     0
  9
$DIMDEC
 70
     3
  9
$DIMTDEC
 70
     3
  9
$DIMALTU
 70
     2
  9
$DIMALTTD
 70
     2
  9
$DIMTXSTY
  7
KCADDIMSTANDARD
  9
$DIMAUNIT
 70
     0
  9
$DIMADEC
 70
     3
  9
$DIMALTRND
 40
0.0
  9
$DIMAZIN
 70
     2
  9
$DIMDSEP
 70
    46
  9
$DIMATFIT
 70
     3
  9
$DIMFRAC
 70
     0
  9
$DIMLDRBLK
  1
KCAD_OPEN
  9
$DIMLUNIT
 70
     2
  9
$DIMLWD
 70
    -2
  9
$DIMLWE
 70
    -2
  9
$DIMTMOVE
 70
     0
  9
$LUNITS
 70
     2
  9
$LUPREC
 70
     4
  9
$SKETCHINC
 40
1.0
  9
$FILLETRAD
 40
5.0
  9
$AUNITS
 70
     0
  9
$AUPREC
 70
     0
  9
$MENU
  1
.
  9
$ELEVATION
 40
0.0
  9
$PELEVATION
 40
0.0
  9
$THICKNESS
 40
0.0
  9
$LIMCHECK
 70
     0
  9
$CHAMFERA
 40
5.0
  9
$CHAMFERB
 40
5.0
  9
$CHAMFERC
 40
5.0
  9
$CHAMFERD
 40
0.7853981633974483
  9
$SKPOLY
 70
     0
  9
$TDCREATE
 40
2453354.092125822
  9
$TDUCREATE
 40
2453353.717125822
  9
$TDUPDATE
 40
2453295.428817616
  9
$TDUUPDATE
 40
2453295.053817616
  9
$TDINDWG
 40
0.0454514815
  9
$TDUSRTIMER
 40
0.045416794
  9
$USRTIMER
 70
     1
  9
$ANGBASE
 50
0.0
  9
$ANGDIR
 70
     0
  9
$PDMODE
 70
     0
  9
$PDSIZE
 40
0.0
  9
$PLINEWID
 40
0.0
  9
$SPLFRAME
 70
     0
  9
$SPLINETYPE
 70
     6
  9
$SPLINESEGS
 70
     8
  9
$HANDSEED
  5
858
  9
$SURFTAB1
 70
     6
  9
$SURFTAB2
 70
     6
  9
$SURFTYPE
 70
     6
  9
$SURFU
 70
     6
  9
$SURFV
 70
     6
  9
$UCSBASE
  2

  9
$UCSNAME
  2

  9
$UCSORG
 10
0.0
 20
0.0
 30
0.0
  9
$UCSXDIR
 10
1.0
 20
0.0
 30
0.0
  9
$UCSYDIR
 10
0.0
 20
1.0
 30
0.0
  9
$UCSORTHOREF
  2

  9
$UCSORTHOVIEW
 70
     0
  9
$UCSORGTOP
 10
0.0
 20
0.0
 30
0.0
  9
$UCSORGBOTTOM
 10
0.0
 20
0.0
 30
0.0
  9
$UCSORGLEFT
 10
0.0
 20
0.0
 30
0.0
  9
$UCSORGRIGHT
 10
0.0
 20
0.0
 30
0.0
  9
$UCSORGFRONT
 10
0.0
 20
0.0
 30
0.0
  9
$UCSORGBACK
 10
0.0
 20
0.0
 30
0.0
  9
$PUCSBASE
  2

  9
$PUCSNAME
  2

  9
$PUCSORG
 10
0.0
 20
0.0
 30
0.0
  9
$PUCSXDIR
 10
1.0
 20
0.0
 30
0.0
  9
$PUCSYDIR
 10
0.0
 20
1.0
 30
0.0
  9
$PUCSORTHOREF
  2

  9
$PUCSORTHOVIEW
 70
     0
  9
$PUCSORGTOP
 10
0.0
 20
0.0
 30
0.0
  9
$PUCSORGBOTTOM
 10
0.0
 20
0.0
 30
0.0
  9
$PUCSORGLEFT
 10
0.0
 20
0.0
 30
0.0
  9
$PUCSORGRIGHT
 10
0.0
 20
0.0
 30
0.0
  9
$PUCSORGFRONT
 10
0.0
 20
0.0
 30
0.0
  9
$PUCSORGBACK
 10
0.0
 20
0.0
 30
0.0
  9
$USERI1
 70
     0
  9
$USERI2
 70
     0
  9
$USERI3
 70
     0
  9
$USERI4
 70
   257
  9
$USERI5
 70
     0
  9
$USERR1
 40
0.0
  9
$USERR2
 40
0.0
  9
$USERR3
 40
0.0
  9
$USERR4
 40
0.0
  9
$USERR5
 40
0.0
  9
$WORLDVIEW
 70
     1
  9
$SHADEDGE
 70
     3
  9
$SHADEDIF
 70
    70
  9
$TILEMODE
 70
     1
  9
$MAXACTVP
 70
    48
  9
$PINSBASE
 10
0.0
 20
0.0
 30
0.0
  9
$PLIMCHECK
 70
     0
  9
$PEXTMIN
 10
0.0
 20
0.0
 30
0.0
  9
$PEXTMAX
 10
0.0
 20
0.0
 30
0.0
  9
$PLIMMIN
 10
0.0
 20
0.0
  9
$PLIMMAX
 10
12.0
 20
9.0
  9
$UNITMODE
 70
     0
  9
$VISRETAIN
 70
     1
  9
$PLINEGEN
 70
     0
  9
$PSLTSCALE
 70
     1
  9
$TREEDEPTH
 70
  3020
  9
$CMLSTYLE
  2
Standard
  9
$CMLJUST
 70
     0
  9
$CMLSCALE
 40
20.0
  9
$PROXYGRAPHICS
 70
     1
  9
$MEASUREMENT
 70
     1
  9
$CELWEIGHT
370
    15
  9
$ENDCAPS
280
     0
  9
$JOINSTYLE
280
     0
  9
$LWDISPLAY
290
     0
  9
$INSUNITS
 70
     0
  9
$HYPERLINKBASE
  1

  9
$STYLESHEET
  1

  9
$XEDIT
290
     0
  9
$CEPSNTYPE
380
     0
  9
$PSTYLEMODE
290
     1
  9
$FINGERPRINTGUID
  2
{1989D620-E742-11D2-9219-00105A146177}
  9
$VERSIONGUID
  2
{24B29EB0-36B6-4478-A0DB-C4A042A29142}
  9
$EXTNAMES
290
     1
  9
$PSVPSCALE
 40
0.0
  9
$OLESTARTUP
290
     0
  0
ENDSEC
  0
SECTION
  2
CLASSES
  0
CLASS
  1
ACDBDICTIONARYWDFLT
  2
AcDbDictionaryWithDefault
  3
ObjectDBX Classes
 90
        0
280
     0
281
     0
  0
CLASS
  1
ACDBPLACEHOLDER
  2
AcDbPlaceHolder
  3
ObjectDBX Classes
 90
        0
280
     0
281
     0
  0
CLASS
  1
LAYOUT
  2
AcDbLayout
  3
ObjectDBX Classes
 90
        0
280
     0
281
     0
  0
CLASS
  1
DICTIONARYVAR
  2
AcDbDictionaryVar
  3
ObjectDBX Classes
 90
        0
280
     0
281
     0
  0
CLASS
  1
TABLESTYLE
  2
AcDbTableStyle
  3
ObjectDBX Classes
 90
     2047
280
     0
281
     0
  0
ENDSEC
  0
SECTION
  2
TABLES
  0
TABLE
  2
VPORT
  5
8
330
0
100
AcDbSymbolTable
 70
     2
  0
VPORT
  5
97
330
8
100
AcDbSymbolTableRecord
100
AcDbViewportTableRecord
  2
*Active
 70
     0
 10
0.0
 20
0.0
 11
1.0
 21
1.0
 12
-144.4487018151283
 22
104.7166631072764
 13
0.0
 23
0.0
 14
10.0
 24
10.0
 15
10.0
 25
10.0
 16
0.0
 26
0.0
 36
1.0
 17
0.0
 27
0.0
 37
0.0
 40
243.0702518345848
 41
2.203935599284436
 42
50.0
 43
0.0
 44
0.0
 50
0.0
 51
0.0
 71
    16
 72
 20000
 73
     1
 74
     1
 75
     0
 76
     0
 77
     0
 78
     0
281
     0
 65
     0
110
0.0
120
0.0
130
0.0
111
1.0
121
0.0
131
0.0
112
0.0
122
1.0
132
0.0
 79
     0
146
0.0
  0
ENDTAB
  0
TABLE
  2
LTYPE
  5
5
330
0
100
AcDbSymbolTable
 70
     6
  0
LTYPE
  5
14
330
5
100
AcDbSymbolTableRecord
100
AcDbLinetypeTableRecord
  2
ByBlock
 70
     0
  3

 72
    65
 73
     0
 40
0.0
  0
LTYPE
  5
15
330
5
100
AcDbSymbolTableRecord
100
AcDbLinetypeTableRecord
  2
ByLayer
 70
     0
  3

 72
    65
 73
     0
 40
0.0
  0
LTYPE
  5
16
330
5
100
AcDbSymbolTableRecord
100
AcDbLinetypeTableRecord
  2
Continuous
 70
     0
  3
Solid line
 72
    65
 73
     0
 40
0.0
  0
LTYPE
  5
816
330
5
100
AcDbSymbolTableRecord
100
AcDbLinetypeTableRecord
  2
CENTER
 70
     0
  3
Center ____ _ ____ _ ____ _ ____ _ ____ _ ____
 72
    65
 73
     4
 40
50.8
 49
31.75
 74
     4
 75
     0
340
0
 46
1.0
 50
0.0
 44
0.0
 45
0.0
 49
-6.349999999999999
 74
     4
 75
     0
340
0
 46
1.0
 50
0.0
 44
0.0
 45
0.0
 49
6.349999999999999
 74
     4
 75
     0
340
0
 46
1.0
 50
0.0
 44
0.0
 45
0.0
 49
-6.349999999999999
 74
     4
 75
     0
340
0
 46
1.0
 50
0.0
 44
0.0
 45
0.0
  0
LTYPE
  5
817
330
5
100
AcDbSymbolTableRecord
100
AcDbLinetypeTableRecord
  2
DASHED
 70
     0
  3
Dashed __ __ __ __ __ __ __ __ __ __ __ __ __ _
 72
    65
 73
     2
 40
19.05
 49
12.7
 74
     4
 75
     0
340
0
 46
1.0
 50
0.0
 44
0.0
 45
0.0
 49
-6.349999999999999
 74
     4
 75
     0
340
0
 46
1.0
 50
0.0
 44
0.0
 45
0.0
  0
LTYPE
  5
818
330
5
100
AcDbSymbolTableRecord
100
AcDbLinetypeTableRecord
  2
HIDDEN
 70
     0
  3
Hidden __ __ __ __ __ __ __ __ __ __ __ __ __ _
 72
    65
 73
     2
 40
9.524999999999999
 49
6.349999999999999
 74
     4
 75
     0
340
0
 46
1.0
 50
0.0
 44
0.0
 45
0.0
 49
-3.174999999999999
 74
     4
 75
     0
340
0
 46
1.0
 50
0.0
 44
0.0
 45
0.0
  0
LTYPE
  5
819
330
5
100
AcDbSymbolTableRecord
100
AcDbLinetypeTableRecord
  2
PHANTOM
 70
     0
  3
Phantom ______  __  __  ______  __  __  ______
 72
    65
 73
     6
 40
63.50000000000001
 49
31.75
 74
     4
 75
     0
340
0
 46
1.0
 50
0.0
 44
0.0
 45
0.0
 49
-6.349999999999999
 74
     4
 75
     0
340
0
 46
1.0
 50
0.0
 44
0.0
 45
0.0
 49
6.349999999999999
 74
     4
 75
     0
340
0
 46
1.0
 50
0.0
 44
0.0
 45
0.0
 49
-6.349999999999999
 74
     4
 75
     0
340
0
 46
1.0
 50
0.0
 44
0.0
 45
0.0
 49
6.349999999999999
 74
     4
 75
     0
340
0
 46
1.0
 50
0.0
 44
0.0
 45
0.0
 49
-6.349999999999999
 74
     4
 75
     0
340
0
 46
1.0
 50
0.0
 44
0.0
 45
0.0
  0
LTYPE
  5
81A
330
5
100
AcDbSymbolTableRecord
100
AcDbLinetypeTableRecord
  2
RUPTURE
 70
     0
  3
Rupture line
 72
    65
 73
     4
 40
45.72
 49
25.4
 74
     4
 75
     0
340
0
 46
1.0
 50
0.0
 44
0.0
 45
0.0
 49
-5.08
 74
     4
 75
   131
340
11
 46
5.08
 50
0.0
 44
-5.08
 45
0.0
 49
-10.16
 74
     4
 75
   131
340
11
 46
5.08
 50
180.0
 44
5.08
 45
0.0
 49
-5.08
 74
     4
 75
     0
340
0
 46
1.0
 50
0.0
 44
0.0
 45
0.0
  0
ENDTAB
  0
TABLE
  2
LAYER
  5
2
330
0
100
AcDbSymbolTable
 70
    16
  0
LAYER
  5
10
330
2
100
AcDbSymbolTableRecord
100
AcDbLayerTableRecord
  2
0
 70
     0
 62
     7
  6
Continuous
370
    -3
390
F
  0
LAYER
  5
74E
330
2
100
AcDbSymbolTableRecord
100
AcDbLayerTableRecord
  2
KCAD_DIMS
 70
     0
 62
   134
  6
Continuous
370
    15
390
F
  0
LAYER
  5
4F
330
2
100
AcDbSymbolTableRecord
100
AcDbLayerTableRecord
  2
DEFPOINTS
 70
     0
 62
     7
  6
Continuous
290
     0
370
    -3
390
F
  0
LAYER
  5
20B
330
2
100
AcDbSymbolTableRecord
100
AcDbLayerTableRecord
  2
KCAD_ASST
 70
     0
 62
   134
  6
Continuous
370
    15
390
F
  0
LAYER
  5
20C
330
2
100
AcDbSymbolTableRecord
100
AcDbLayerTableRecord
  2
KCAD_RASTER
 70
     0
 62
     7
  6
Continuous
370
    30
390
F
  0
LAYER
  5
20D
330
2
100
AcDbSymbolTableRecord
100
AcDbLayerTableRecord
  2
SYBCENTER
 70
     0
 62
   134
  6
CENTER
370
    15
390
F
  0
LAYER
  5
20E
330
2
100
AcDbSymbolTableRecord
100
AcDbLayerTableRecord
  2
SYBHIDE
 70
     0
 62
   134
  6
HIDDEN
370
    15
390
F
  0
LAYER
  5
20F
330
2
100
AcDbSymbolTableRecord
100
AcDbLayerTableRecord
  2
SYBOUTLINE
 70
     0
 62
     7
  6
Continuous
370
    30
390
F
  0
LAYER
  5
210
330
2
100
AcDbSymbolTableRecord
100
AcDbLayerTableRecord
  2
SYBTHREAD
 70
     0
 62
   134
  6
Continuous
370
    15
390
F
  0
LAYER
  5
211
330
2
100
AcDbSymbolTableRecord
100
AcDbLayerTableRecord
  2
SYBTHRHID
 70
     0
 62
   134
  6
HIDDEN
370
    15
390
F
  0
LAYER
  5
282
330
2
100
AcDbSymbolTableRecord
100
AcDbLayerTableRecord
  2
KCAD_UIR_TMP_LAYER_
 70
     0
 62
     7
  6
Continuous
370
    -3
390
F
  0
LAYER
  5
2A8
330
2
100
AcDbSymbolTableRecord
100
AcDbLayerTableRecord
  2
KCAD_CPM_MAX_LAYER
 70
     3
 62
     7
  6
Continuous
370
    -3
390
F
  0
LAYER
  5
2F1
330
2
100
AcDbSymbolTableRecord
100
AcDbLayerTableRecord
  2
1
 70
     0
 62
     7
  6
Continuous
370
    -3
390
F
  0
LAYER
  5
306
330
2
100
AcDbSymbolTableRecord
100
AcDbLayerTableRecord
  2
99
 70
     0
 62
     7
  6
Continuous
370
    -3
390
F
  0
LAYER
  5
38F
330
2
100
AcDbSymbolTableRecord
100
AcDbLayerTableRecord
  2
2
 70
     0
 62
     7
  6
Continuous
370
    -3
390
F
  0
LAYER
  5
3B0
330
2
100
AcDbSymbolTableRecord
100
AcDbLayerTableRecord
  2
5
 70
     0
 62
     7
  6
Continuous
370
    -3
390
F
  0
ENDTAB
  0
TABLE
  2
STYLE
  5
3
330
0
100
AcDbSymbolTable
 70
     5
  0
STYLE
  5
11
330
3
100
AcDbSymbolTableRecord
100
AcDbTextStyleTableRecord
  2
Standard
 70
     0
 40
0.0
 41
1.0
 50
0.0
 71
     0
 42
3.2
  3
txt.shx
  4
bigfont.shx
  0
STYLE
  5
17F
330
3
100
AcDbSymbolTableRecord
100
AcDbTextStyleTableRecord
  2

 70
     1
 40
0.0
 41
1.0
 50
0.0
 71
     0
 42
3.2
  3
ltypeshp.shx
  4

  0
STYLE
  5
189
330
3
100
AcDbSymbolTableRecord
100
AcDbTextStyleTableRecord
  2
KCADDIMSTANDARD
 70
     0
 40
0.0
 41
1.0
 50
0.0
 71
     0
 42
3.2
  3
txt.shx
  4
bigfont.shx
  0
STYLE
  5
18A
330
3
100
AcDbSymbolTableRecord
100
AcDbTextStyleTableRecord
  2
KCADTEXTSTANDARD
 70
     0
 40
0.0
 41
1.0
 50
0.0
 71
     0
 42
3.2
  3
txt.shx
  4
bigfont.shx
  0
STYLE
  5
1AD
330
3
100
AcDbSymbolTableRecord
100
AcDbTextStyleTableRecord
  2
KCADTEXT2
 70
     0
 40
0.0
 41
1.0
 50
0.0
 71
     0
 42
3.2
  3
txt.shx
  4
extfont.shx
  0
ENDTAB
  0
TABLE
  2
VIEW
  5
6
330
0
100
AcDbSymbolTable
 70
     0
  0
ENDTAB
  0
TABLE
  2
UCS
  5
7
330
0
100
AcDbSymbolTable
 70
     0
  0
ENDTAB
  0
TABLE
  2
APPID
  5
9
330
0
100
AcDbSymbolTable
 70
     2
  0
APPID
  5
12
330
9
100
AcDbSymbolTableRecord
100
AcDbRegAppTableRecord
  2
ACAD
 70
     0
  0
APPID
  5
815
330
9
100
AcDbSymbolTableRecord
100
AcDbRegAppTableRecord
  2
Sigma
 70
     0
  0
ENDTAB
  0
TABLE
  2
DIMSTYLE
  5
A
330
0
100
AcDbSymbolTable
 70
     1
100
AcDbDimStyleTable
  0
DIMSTYLE
105
27
330
A
100
AcDbSymbolTableRecord
100
AcDbDimStyleTableRecord
  2
Standard
 70
     0
340
11
  0
ENDTAB
  0
TABLE
  2
BLOCK_RECORD
  5
1
330
0
100
AcDbSymbolTable
 70
    27
  0
BLOCK_RECORD
  5
1F
330
1
100
AcDbSymbolTableRecord
100
AcDbBlockTableRecord
  2
*Model_Space
340
22
  0
BLOCK_RECORD
  5
73
330
1
100
AcDbSymbolTableRecord
100
AcDbBlockTableRecord
  2
*Paper_Space
340
22F
  0
BLOCK_RECORD
  5
74F
330
1
100
AcDbSymbolTableRecord
100
AcDbBlockTableRecord
  2
KCAD_OPEN
340
0
  0
BLOCK_RECORD
  5
3C
330
1
100
AcDbSymbolTableRecord
100
AcDbBlockTableRecord
  2
KCAD_DOTSMALL
340
0
  0
BLOCK_RECORD
  5
44
330
1
100
AcDbSymbolTableRecord
100
AcDbBlockTableRecord
  2
KCAD_NONE
340
0
  0
BLOCK_RECORD
  5
FC
330
1
100
AcDbSymbolTableRecord
100
AcDbBlockTableRecord
  2
_CLOSED
340
0
  0
BLOCK_RECORD
  5
103
330
1
100
AcDbSymbolTableRecord
100
AcDbBlockTableRecord
  2
_DOT
340
0
  0
BLOCK_RECORD
  5
10B
330
1
100
AcDbSymbolTableRecord
100
AcDbBlockTableRecord
  2
_CLOSEDBLANK
340
0
  0
BLOCK_RECORD
  5
111
330
1
100
AcDbSymbolTableRecord
100
AcDbBlockTableRecord
  2
_OBLIQUE
340
0
  0
BLOCK_RECORD
  5
115
330
1
100
AcDbSymbolTableRecord
100
AcDbBlockTableRecord
  2
_ARCHTICK
340
0
  0
BLOCK_RECORD
  5
11C
330
1
100
AcDbSymbolTableRecord
100
AcDbBlockTableRecord
  2
_OPEN
340
0
  0
BLOCK_RECORD
  5
122
330
1
100
AcDbSymbolTableRecord
100
AcDbBlockTableRecord
  2
_ORIGIN
340
0
  0
BLOCK_RECORD
  5
127
330
1
100
AcDbSymbolTableRecord
100
AcDbBlockTableRecord
  2
_OPEN90
340
0
  0
BLOCK_RECORD
  5
12D
330
1
100
AcDbSymbolTableRecord
100
AcDbBlockTableRecord
  2
_OPEN30
340
0
  0
BLOCK_RECORD
  5
133
330
1
100
AcDbSymbolTableRecord
100
AcDbBlockTableRecord
  2
_DOTBLANK
340
0
  0
BLOCK_RECORD
  5
138
330
1
100
AcDbSymbolTableRecord
100
AcDbBlockTableRecord
  2
_DOTSMALL
340
0
  0
BLOCK_RECORD
  5
13F
330
1
100
AcDbSymbolTableRecord
100
AcDbBlockTableRecord
  2
_BOXFILLED
340
0
  0
BLOCK_RECORD
  5
144
330
1
100
AcDbSymbolTableRecord
100
AcDbBlockTableRecord
  2
_BOXBLANK
340
0
  0
BLOCK_RECORD
  5
14C
330
1
100
AcDbSymbolTableRecord
100
AcDbBlockTableRecord
  2
_DATUMFILLED
340
0
  0
BLOCK_RECORD
  5
150
330
1
100
AcDbSymbolTableRecord
100
AcDbBlockTableRecord
  2
_DATUMBLANK
340
0
  0
BLOCK_RECORD
  5
156
330
1
100
AcDbSymbolTableRecord
100
AcDbBlockTableRecord
  2
_INTEGRAL
340
0
  0
BLOCK_RECORD
  5
1F1
330
1
100
AcDbSymbolTableRecord
100
AcDbBlockTableRecord
  2
_Origin2
340
0
  0
BLOCK_RECORD
  5
1F7
330
1
100
AcDbSymbolTableRecord
100
AcDbBlockTableRecord
  2
KCAD_OPEN30
340
0
  0
BLOCK_RECORD
  5
222
330
1
100
AcDbSymbolTableRecord
100
AcDbBlockTableRecord
  2
_None
340
0
  0
BLOCK_RECORD
  5
283
330
1
100
AcDbSymbolTableRecord
100
AcDbBlockTableRecord
  2
_Small
340
0
  0
BLOCK_RECORD
  5
287
330
1
100
AcDbSymbolTableRecord
100
AcDbBlockTableRecord
  2
KCAD_OPEN_2
340
0
  0
BLOCK_RECORD
  5
28E
330
1
100
AcDbSymbolTableRecord
100
AcDbBlockTableRecord
  2
KCAD_OPEN30_2
340
0
  0
BLOCK_RECORD
  5
2AD
330
1
100
AcDbSymbolTableRecord
100
AcDbBlockTableRecord
  2
KCAD_OPEN30ANG
340
0
  0
BLOCK_RECORD
  5
2B6
330
1
100
AcDbSymbolTableRecord
100
AcDbBlockTableRecord
  2
KCAD_DOTANG
340
0
  0
ENDTAB
  0
ENDSEC
  0
SECTION
  2
BLOCKS
  0
BLOCK
  5
20
330
1F
100
AcDbEntity
  8
0
100
AcDbBlockBegin
  2
*Model_Space
 70
     0
 71
     0
 10
0.0
 20
0.0
 30
0.0
  3
*Model_Space
  1

  0
ENDBLK
  5
21
330
1F
100
AcDbEntity
  8
0
100
AcDbBlockEnd
  0
BLOCK
  5
75
330
73
100
AcDbEntity
 67
     1
  8
0
100
AcDbBlockBegin
  2
*Paper_Space
 70
     0
 71
     0
 10
0.0
 20
0.0
 30
0.0
  3
*Paper_Space
  1

  0
ENDBLK
  5
76
330
73
100
AcDbEntity
 67
     1
  8
0
100
AcDbBlockEnd
  0
BLOCK
  5
81D
330
74F
100
AcDbEntity
  8
KCAD_DIMS
100
AcDbBlockBegin
  2
KCAD_OPEN
 70
     0
 71
     0
 10
0.0
 20
0.0
 30
0.0
  3
KCAD_OPEN
  1

  0
LINE
  5
786
330
74F
100
AcDbEntity
  8
0
  6
Continuous
 62
     0
370
    -2
100
AcDbLine
 10
0.0
 20
0.0
 30
0.0
 11
-1.0
 21
0.0
 31
0.0
  0
LINE
  5
23
330
74F
100
AcDbEntity
  8
0
  6
Continuous
 62
     0
370
    -2
100
AcDbLine
 10
0.0
 20
0.0
 30
0.0
 11
-1.0
 21
0.158384
 31
0.0
  0
LINE
  5
24
330
74F
100
AcDbEntity
  8
0
  6
Continuous
 62
     0
370
    -2
100
AcDbLine
 10
0.0
 20
0.0
 30
0.0
 11
-1.0
 21
-0.158384
 31
0.0
  0
ENDBLK
  5
81E
330
74F
100
AcDbEntity
  8
KCAD_DIMS
100
AcDbBlockEnd
  0
BLOCK
  5
81F
330
3C
100
AcDbEntity
  8
KCAD_DIMS
100
AcDbBlockBegin
  2
KCAD_DOTSMALL
 70
     0
 71
     0
 10
0.0
 20
0.0
 30
0.0
  3
KCAD_DOTSMALL
  1

  0
LWPOLYLINE
  5
3D
330
3C
100
AcDbEntity
  8
KCAD_DIMS
 62
     0
100
AcDbPolyline
 90
        2
 70
     1
 43
0.5
 10
0.06252
 20
0.0
 42
1.0
 10
-0.06262
 20
0.0
 42
1.0
  0
LINE
  5
41
330
3C
100
AcDbEntity
  8
0
  6
Continuous
 62
     0
370
    -2
100
AcDbLine
 10
0.0
 20
0.0
 30
0.0
 11
-1.0
 21
0.0
 31
0.0
  0
ENDBLK
  5
820
330
3C
100
AcDbEntity
  8
0
100
AcDbBlockEnd
  0
BLOCK
  5
821
330
44
100
AcDbEntity
  8
KCAD_DIMS
100
AcDbBlockBegin
  2
KCAD_NONE
 70
     0
 71
     0
 10
0.0
 20
0.0
 30
0.0
  3
KCAD_NONE
  1

  0
LINE
  5
45
330
44
100
AcDbEntity
  8
0
  6
Continuous
 62
     0
370
    -2
100
AcDbLine
 10
0.0
 20
0.0
 30
0.0
 11
-1.0
 21
0.0
 31
0.0
  0
ENDBLK
  5
822
330
44
100
AcDbEntity
  8
0
100
AcDbBlockEnd
  0
BLOCK
  5
823
330
FC
100
AcDbEntity
  8
0
100
AcDbBlockBegin
  2
_CLOSED
 70
     0
 71
     0
 10
0.0
 20
0.0
 30
0.0
  3
_CLOSED
  1

  0
LINE
  5
FE
330
FC
100
AcDbEntity
  8
0
  6
Continuous
 62
     0
370
    -2
100
AcDbLine
 10
-1.0
 20
0.166667
 30
0.0
 11
0.0
 21
0.0
 31
0.0
  0
LINE
  5
FF
330
FC
100
AcDbEntity
  8
0
  6
Continuous
 62
     0
370
    -2
100
AcDbLine
 10
0.0
 20
0.0
 30
0.0
 11
-1.0
 21
-0.166667
 31
0.0
  0
LINE
  5
100
330
FC
100
AcDbEntity
  8
0
  6
Continuous
 62
     0
370
    -2
100
AcDbLine
 10
-1.0
 20
0.166667
 30
0.0
 11
-1.0
 21
-0.166667
 31
0.0
  0
LINE
  5
101
330
FC
100
AcDbEntity
  8
0
  6
Continuous
 62
     0
370
    -2
100
AcDbLine
 10
0.0
 20
0.0
 30
0.0
 11
-1.0
 21
0.0
 31
0.0
  0
ENDBLK
  5
824
330
FC
100
AcDbEntity
  8
0
100
AcDbBlockEnd
  0
BLOCK
  5
825
330
103
100
AcDbEntity
  8
0
100
AcDbBlockBegin
  2
_DOT
 70
     0
 71
     0
 10
0.0
 20
0.0
 30
0.0
  3
_DOT
  1

  0
LWPOLYLINE
  5
105
330
103
100
AcDbEntity
  8
0
  6
ByBlock
 62
     0
100
AcDbPolyline
 90
        2
 70
     1
 43
0.5
 10
-0.25
 20
0.0
 42
1.0
 10
0.25
 20
0.0
 42
1.0
  0
LINE
  5
109
330
103
100
AcDbEntity
  8
0
  6
Continuous
 62
     0
370
    -2
100
AcDbLine
 10
-0.5
 20
0.0
 30
0.0
 11
-1.0
 21
0.0
 31
0.0
  0
ENDBLK
  5
826
330
103
100
AcDbEntity
  8
0
100
AcDbBlockEnd
  0
BLOCK
  5
827
330
10B
100
AcDbEntity
  8
0
100
AcDbBlockBegin
  2
_CLOSEDBLANK
 70
     0
 71
     0
 10
0.0
 20
0.0
 30
0.0
  3
_CLOSEDBLANK
  1

  0
LINE
  5
10D
330
10B
100
AcDbEntity
  8
0
  6
Continuous
 62
     0
370
    -2
100
AcDbLine
 10
-1.0
 20
0.166667
 30
0.0
 11
0.0
 21
0.0
 31
0.0
  0
LINE
  5
10E
330
10B
100
AcDbEntity
  8
0
  6
Continuous
 62
     0
370
    -2
100
AcDbLine
 10
0.0
 20
0.0
 30
0.0
 11
-1.0
 21
-0.166667
 31
0.0
  0
LINE
  5
10F
330
10B
100
AcDbEntity
  8
0
  6
Continuous
 62
     0
370
    -2
100
AcDbLine
 10
-1.0
 20
0.166667
 30
0.0
 11
-1.0
 21
-0.166667
 31
0.0
  0
ENDBLK
  5
828
330
10B
100
AcDbEntity
  8
0
100
AcDbBlockEnd
  0
BLOCK
  5
829
330
111
100
AcDbEntity
  8
0
100
AcDbBlockBegin
  2
_OBLIQUE
 70
     0
 71
     0
 10
0.0
 20
0.0
 30
0.0
  3
_OBLIQUE
  1

  0
LINE
  5
113
330
111
100
AcDbEntity
  8
0
  6
Continuous
 62
     0
370
    -2
100
AcDbLine
 10
-0.5
 20
-0.5
 30
0.0
 11
0.5
 21
0.5
 31
0.0
  0
ENDBLK
  5
82A
330
111
100
AcDbEntity
  8
0
100
AcDbBlockEnd
  0
BLOCK
  5
82B
330
115
100
AcDbEntity
  8
0
100
AcDbBlockBegin
  2
_ARCHTICK
 70
     0
 71
     0
 10
0.0
 20
0.0
 30
0.0
  3
_ARCHTICK
  1

  0
LWPOLYLINE
  5
117
330
115
100
AcDbEntity
  8
0
  6
ByBlock
 62
     0
100
AcDbPolyline
 90
        2
 70
     0
 43
0.15
 10
-0.5
 20
-0.5
 10
0.5
 20
0.5
  0
ENDBLK
  5
82C
330
115
100
AcDbEntity
  8
0
100
AcDbBlockEnd
  0
BLOCK
  5
82D
330
11C
100
AcDbEntity
  8
0
100
AcDbBlockBegin
  2
_OPEN
 70
     0
 71
     0
 10
0.0
 20
0.0
 30
0.0
  3
_OPEN
  1

  0
LINE
  5
11E
330
11C
100
AcDbEntity
  8
0
  6
Continuous
 62
     0
370
    -2
100
AcDbLine
 10
-1.0
 20
0.166667
 30
0.0
 11
0.0
 21
0.0
 31
0.0
  0
LINE
  5
11F
330
11C
100
AcDbEntity
  8
0
  6
Continuous
 62
     0
370
    -2
100
AcDbLine
 10
0.0
 20
0.0
 30
0.0
 11
-1.0
 21
-0.166667
 31
0.0
  0
LINE
  5
120
330
11C
100
AcDbEntity
  8
0
  6
Continuous
 62
     0
370
    -2
100
AcDbLine
 10
0.0
 20
0.0
 30
0.0
 11
-1.0
 21
0.0
 31
0.0
  0
ENDBLK
  5
82E
330
11C
100
AcDbEntity
  8
0
100
AcDbBlockEnd
  0
BLOCK
  5
82F
330
122
100
AcDbEntity
  8
0
100
AcDbBlockBegin
  2
_ORIGIN
 70
     0
 71
     0
 10
0.0
 20
0.0
 30
0.0
  3
_ORIGIN
  1

  0
CIRCLE
  5
124
330
122
100
AcDbEntity
  8
0
  6
ByBlock
 62
     0
100
AcDbCircle
 10
0.0
 20
0.0
 30
0.0
 40
0.5
  0
LINE
  5
125
330
122
100
AcDbEntity
  8
0
  6
Continuous
 62
     0
370
    -2
100
AcDbLine
 10
0.0
 20
0.0
 30
0.0
 11
-1.0
 21
0.0
 31
0.0
  0
ENDBLK
  5
830
330
122
100
AcDbEntity
  8
0
100
AcDbBlockEnd
  0
BLOCK
  5
831
330
127
100
AcDbEntity
  8
0
100
AcDbBlockBegin
  2
_OPEN90
 70
     0
 71
     0
 10
0.0
 20
0.0
 30
0.0
  3
_OPEN90
  1

  0
LINE
  5
129
330
127
100
AcDbEntity
  8
0
  6
Continuous
 62
     0
370
    -2
100
AcDbLine
 10
-0.5
 20
0.5
 30
0.0
 11
0.0
 21
0.0
 31
0.0
  0
LINE
  5
12A
330
127
100
AcDbEntity
  8
0
  6
Continuous
 62
     0
370
    -2
100
AcDbLine
 10
0.0
 20
0.0
 30
0.0
 11
-0.5
 21
-0.5
 31
0.0
  0
LINE
  5
12B
330
127
100
AcDbEntity
  8
0
  6
Continuous
 62
     0
370
    -2
100
AcDbLine
 10
0.0
 20
0.0
 30
0.0
 11
-1.0
 21
0.0
 31
0.0
  0
ENDBLK
  5
832
330
127
100
AcDbEntity
  8
0
100
AcDbBlockEnd
  0
BLOCK
  5
833
330
12D
100
AcDbEntity
  8
0
100
AcDbBlockBegin
  2
_OPEN30
 70
     0
 71
     0
 10
0.0
 20
0.0
 30
0.0
  3
_OPEN30
  1

  0
LINE
  5
12F
330
12D
100
AcDbEntity
  8
0
  6
Continuous
 62
     0
370
    -2
100
AcDbLine
 10
-1.0
 20
0.267949
 30
0.0
 11
0.0
 21
0.0
 31
0.0
  0
LINE
  5
130
330
12D
100
AcDbEntity
  8
0
  6
Continuous
 62
     0
370
    -2
100
AcDbLine
 10
0.0
 20
0.0
 30
0.0
 11
-1.0
 21
-0.267949
 31
0.0
  0
LINE
  5
131
330
12D
100
AcDbEntity
  8
0
  6
Continuous
 62
     0
370
    -2
100
AcDbLine
 10
0.0
 20
0.0
 30
0.0
 11
-1.0
 21
0.0
 31
0.0
  0
ENDBLK
  5
834
330
12D
100
AcDbEntity
  8
0
100
AcDbBlockEnd
  0
BLOCK
  5
835
330
133
100
AcDbEntity
  8
0
100
AcDbBlockBegin
  2
_DOTBLANK
 70
     0
 71
     0
 10
0.0
 20
0.0
 30
0.0
  3
_DOTBLANK
  1

  0
CIRCLE
  5
135
330
133
100
AcDbEntity
  8
0
  6
ByBlock
 62
     0
100
AcDbCircle
 10
0.0
 20
0.0
 30
0.0
 40
0.5
  0
LINE
  5
136
330
133
100
AcDbEntity
  8
0
  6
Continuous
 62
     0
370
    -2
100
AcDbLine
 10
-0.5
 20
0.0
 30
0.0
 11
-1.0
 21
0.0
 31
0.0
  0
ENDBLK
  5
836
330
133
100
AcDbEntity
  8
0
100
AcDbBlockEnd
  0
BLOCK
  5
837
330
138
100
AcDbEntity
  8
0
100
AcDbBlockBegin
  2
_DOTSMALL
 70
     0
 71
     0
 10
0.0
 20
0.0
 30
0.0
  3
_DOTSMALL
  1

  0
LWPOLYLINE
  5
13A
330
138
100
AcDbEntity
  8
0
  6
ByBlock
 62
     0
100
AcDbPolyline
 90
        2
 70
     1
 43
0.5
 10
-0.0625
 20
0.0
 42
1.0
 10
0.0625
 20
0.0
 42
1.0
  0
ENDBLK
  5
838
330
138
100
AcDbEntity
  8
0
100
AcDbBlockEnd
  0
BLOCK
  5
839
330
13F
100
AcDbEntity
  8
0
100
AcDbBlockBegin
  2
_BOXFILLED
 70
     0
 71
     0
 10
0.0
 20
0.0
 30
0.0
  3
_BOXFILLED
  1

  0
SOLID
  5
141
330
13F
100
AcDbEntity
  8
0
  6
ByBlock
 62
     0
100
AcDbTrace
 10
-0.5
 20
0.5
 30
0.0
 11
0.5
 21
0.5
 31
0.0
 12
-0.5
 22
-0.5
 32
0.0
 13
0.5
 23
-0.5
 33
0.0
  0
LINE
  5
142
330
13F
100
AcDbEntity
  8
0
  6
Continuous
 62
     0
370
    -2
100
AcDbLine
 10
-0.5
 20
0.0
 30
0.0
 11
-1.0
 21
0.0
 31
0.0
  0
ENDBLK
  5
83A
330
13F
100
AcDbEntity
  8
0
100
AcDbBlockEnd
  0
BLOCK
  5
83B
330
144
100
AcDbEntity
  8
0
100
AcDbBlockBegin
  2
_BOXBLANK
 70
     0
 71
     0
 10
0.0
 20
0.0
 30
0.0
  3
_BOXBLANK
  1

  0
LINE
  5
146
330
144
100
AcDbEntity
  8
0
  6
Continuous
 62
     0
370
    -2
100
AcDbLine
 10
-0.5
 20
-0.5
 30
0.0
 11
0.5
 21
-0.5
 31
0.0
  0
LINE
  5
147
330
144
100
AcDbEntity
  8
0
  6
Continuous
 62
     0
370
    -2
100
AcDbLine
 10
0.5
 20
-0.5
 30
0.0
 11
0.5
 21
0.5
 31
0.0
  0
LINE
  5
148
330
144
100
AcDbEntity
  8
0
  6
Continuous
 62
     0
370
    -2
100
AcDbLine
 10
0.5
 20
0.5
 30
0.0
 11
-0.5
 21
0.5
 31
0.0
  0
LINE
  5
149
330
144
100
AcDbEntity
  8
0
  6
Continuous
 62
     0
370
    -2
100
AcDbLine
 10
-0.5
 20
0.5
 30
0.0
 11
-0.5
 21
-0.5
 31
0.0
  0
LINE
  5
14A
330
144
100
AcDbEntity
  8
0
  6
Continuous
 62
     0
370
    -2
100
AcDbLine
 10
-0.5
 20
0.0
 30
0.0
 11
-1.0
 21
0.0
 31
0.0
  0
ENDBLK
  5
83C
330
144
100
AcDbEntity
  8
0
100
AcDbBlockEnd
  0
BLOCK
  5
83D
330
14C
100
AcDbEntity
  8
0
100
AcDbBlockBegin
  2
_DATUMFILLED
 70
     0
 71
     0
 10
0.0
 20
0.0
 30
0.0
  3
_DATUMFILLED
  1

  0
SOLID
  5
14E
330
14C
100
AcDbEntity
  8
0
  6
ByBlock
 62
     0
100
AcDbTrace
 10
0.0
 20
0.5773500000000001
 30
0.0
 11
-1.0
 21
0.0
 31
0.0
 12
0.0
 22
-0.5773500000000001
 32
0.0
 13
0.0
 23
-0.5773500000000001
 33
0.0
  0
ENDBLK
  5
83E
330
14C
100
AcDbEntity
  8
0
100
AcDbBlockEnd
  0
BLOCK
  5
83F
330
150
100
AcDbEntity
  8
0
100
AcDbBlockBegin
  2
_DATUMBLANK
 70
     0
 71
     0
 10
0.0
 20
0.0
 30
0.0
  3
_DATUMBLANK
  1

  0
LINE
  5
152
330
150
100
AcDbEntity
  8
0
  6
Continuous
 62
     0
370
    -2
100
AcDbLine
 10
0.0
 20
0.5773500000000001
 30
0.0
 11
-1.0
 21
0.0
 31
0.0
  0
LINE
  5
153
330
150
100
AcDbEntity
  8
0
  6
Continuous
 62
     0
370
    -2
100
AcDbLine
 10
-1.0
 20
0.0
 30
0.0
 11
0.0
 21
-0.5773500000000001
 31
0.0
  0
LINE
  5
154
330
150
100
AcDbEntity
  8
0
  6
Continuous
 62
     0
370
    -2
100
AcDbLine
 10
0.0
 20
-0.5773500000000001
 30
0.0
 11
0.0
 21
0.5773500000000001
 31
0.0
  0
ENDBLK
  5
840
330
150
100
AcDbEntity
  8
0
100
AcDbBlockEnd
  0
BLOCK
  5
841
330
156
100
AcDbEntity
  8
0
100
AcDbBlockBegin
  2
_INTEGRAL
 70
     0
 71
     0
 10
0.0
 20
0.0
 30
0.0
  3
_INTEGRAL
  1

  0
ARC
  5
158
330
156
100
AcDbEntity
  8
0
  6
ByBlock
 62
     0
100
AcDbCircle
 10
0.444888
 20
-0.091335
 30
0.0
 40
0.454167
100
AcDbArc
 50
102.0
 51
168.0
  0
ARC
  5
159
330
156
100
AcDbEntity
  8
0
  6
ByBlock
 62
     0
100
AcDbCircle
 10
-0.444888
 20
0.091335
 30
0.0
 40
0.454167
100
AcDbArc
 50
282.0
 51
348.0
  0
ENDBLK
  5
842
330
156
100
AcDbEntity
  8
0
100
AcDbBlockEnd
  0
BLOCK
  5
843
330
1F1
100
AcDbEntity
  8
0
100
AcDbBlockBegin
  2
_Origin2
 70
     0
 71
     0
 10
0.0
 20
0.0
 30
0.0
  3
_Origin2
  1

  0
CIRCLE
  5
1F2
330
1F1
100
AcDbEntity
  8
0
  6
Continuous
 62
     0
370
    -2
100
AcDbCircle
 10
0.0
 20
0.0
 30
0.0
 40
0.5
  0
CIRCLE
  5
1F3
330
1F1
100
AcDbEntity
  8
0
  6
Continuous
 62
     0
370
    -2
100
AcDbCircle
 10
0.0
 20
0.0
 30
0.0
 40
0.25
  0
LINE
  5
1F4
330
1F1
100
AcDbEntity
  8
0
  6
Continuous
 62
     0
370
    -2
100
AcDbLine
 10
-0.5
 20
0.0
 30
0.0
 11
-1.0
 21
0.0
 31
0.0
  0
ENDBLK
  5
844
330
1F1
100
AcDbEntity
  8
0
100
AcDbBlockEnd
  0
BLOCK
  5
845
330
1F7
100
AcDbEntity
  8
0
100
AcDbBlockBegin
  2
KCAD_OPEN30
 70
     0
 71
     0
 10
0.0
 20
0.0
 30
0.0
  3
KCAD_OPEN30
  1

  0
LINE
  5
1F8
330
1F7
100
AcDbEntity
  8
0
  6
Continuous
 62
     0
370
    -2
100
AcDbLine
 10
0.0
 20
0.0
 30
0.0
 11
-1.0
 21
0.0
 31
0.0
  0
LINE
  5
1F9
330
1F7
100
AcDbEntity
  8
0
  6
Continuous
 62
     0
370
    -2
100
AcDbLine
 10
0.0
 20
0.0
 30
0.0
 11
-1.0
 21
0.2679491924311227
 31
0.0
  0
LINE
  5
1FA
330
1F7
100
AcDbEntity
  8
0
  6
Continuous
 62
     0
370
    -2
100
AcDbLine
 10
0.0
 20
0.0
 30
0.0
 11
-1.0
 21
-0.2679491924311227
 31
0.0
  0
ENDBLK
  5
846
330
1F7
100
AcDbEntity
  8
0
100
AcDbBlockEnd
  0
BLOCK
  5
847
330
222
100
AcDbEntity
  8
0
100
AcDbBlockBegin
  2
_None
 70
     0
 71
     0
 10
0.0
 20
0.0
 30
0.0
  3
_None
  1

  0
ENDBLK
  5
848
330
222
100
AcDbEntity
  8
0
100
AcDbBlockEnd
  0
BLOCK
  5
849
330
283
100
AcDbEntity
  8
0
100
AcDbBlockBegin
  2
_Small
 70
     0
 71
     0
 10
0.0
 20
0.0
 30
0.0
  3
_Small
  1

  0
CIRCLE
  5
284
330
283
100
AcDbEntity
  8
0
  6
ByBlock
 62
     0
370
    -2
100
AcDbCircle
 10
0.0
 20
0.0
 30
0.0
 40
0.25
  0
ENDBLK
  5
84A
330
283
100
AcDbEntity
  8
0
100
AcDbBlockEnd
  0
BLOCK
  5
84B
330
287
100
AcDbEntity
  8
0
100
AcDbBlockBegin
  2
KCAD_OPEN_2
 70
     0
 71
     0
 10
0.0
 20
0.0
 30
0.0
  3
KCAD_OPEN_2
  1

  0
LINE
  5
288
330
287
100
AcDbEntity
  8
0
  6
Continuous
 62
     0
370
    -2
100
AcDbLine
 10
0.0
 20
0.0
 30
0.0
 11
-2.0
 21
0.0
 31
0.0
  0
LINE
  5
289
330
287
100
AcDbEntity
  8
0
  6
Continuous
 62
     0
370
    -2
100
AcDbLine
 10
0.0
 20
0.0
 30
0.0
 11
-2.0
 21
0.3167688806490725
 31
0.0
  0
LINE
  5
28A
330
287
100
AcDbEntity
  8
0
  6
Continuous
 62
     0
370
    -2
100
AcDbLine
 10
0.0
 20
0.0
 30
0.0
 11
-2.0
 21
-0.3167688806490725
 31
0.0
  0
LINE
  5
28B
330
287
100
AcDbEntity
  8
0
  6
Continuous
 62
     0
370
    -2
100
AcDbLine
 10
-2.0
 20
0.0
 30
0.0
 11
-4.0
 21
0.0
 31
0.0
  0
ENDBLK
  5
84C
330
287
100
AcDbEntity
  8
0
100
AcDbBlockEnd
  0
BLOCK
  5
84D
330
28E
100
AcDbEntity
  8
0
100
AcDbBlockBegin
  2
KCAD_OPEN30_2
 70
     0
 71
     0
 10
0.0
 20
0.0
 30
0.0
  3
KCAD_OPEN30_2
  1

  0
LINE
  5
28F
330
28E
100
AcDbEntity
  8
0
  6
Continuous
 62
     0
370
    -2
100
AcDbLine
 10
0.0
 20
0.0
 30
0.0
 11
-2.0
 21
0.0
 31
0.0
  0
LINE
  5
290
330
28E
100
AcDbEntity
  8
0
  6
Continuous
 62
     0
370
    -2
100
AcDbLine
 10
0.0
 20
0.0
 30
0.0
 11
-2.0
 21
0.5358983848622455
 31
0.0
  0
LINE
  5
291
330
28E
100
AcDbEntity
  8
0
  6
Continuous
 62
     0
370
    -2
100
AcDbLine
 10
0.0
 20
0.0
 30
0.0
 11
-2.0
 21
-0.5358983848622455
 31
0.0
  0
LINE
  5
292
330
28E
100
AcDbEntity
  8
0
  6
Continuous
 62
     0
370
    -2
100
AcDbLine
 10
-2.0
 20
0.0
 30
0.0
 11
-4.0
 21
0.0
 31
0.0
  0
ENDBLK
  5
84E
330
28E
100
AcDbEntity
  8
0
100
AcDbBlockEnd
  0
BLOCK
  5
84F
330
2AD
100
AcDbEntity
  8
0
100
AcDbBlockBegin
  2
KCAD_OPEN30ANG
 70
     0
 71
     0
 10
0.0
 20
0.0
 30
0.0
  3
KCAD_OPEN30ANG
  1

  0
LINE
  5
2D7
330
2AD
100
AcDbEntity
  8
0
  6
Continuous
 62
     0
370
    -2
100
AcDbLine
 10
0.0
 20
0.0
 30
0.0
 11
-1.0
 21
-0.267949
 31
0.0
  0
LINE
  5
2D8
330
2AD
100
AcDbEntity
  8
0
  6
Continuous
 62
     0
370
    -2
100
AcDbLine
 10
-1.0
 20
0.267949
 30
0.0
 11
0.0
 21
0.0
 31
0.0
  0
ENDBLK
  5
850
330
2AD
100
AcDbEntity
  8
0
100
AcDbBlockEnd
  0
BLOCK
  5
851
330
2B6
100
AcDbEntity
  8
0
100
AcDbBlockBegin
  2
KCAD_DOTANG
 70
     0
 71
     0
 10
0.0
 20
0.0
 30
0.0
  3
KCAD_DOTANG
  1

  0
LWPOLYLINE
  5
2DD
330
2B6
100
AcDbEntity
  8
0
  6
ByBlock
 62
     0
100
AcDbPolyline
 90
        2
 70
     1
 43
0.5
 10
-0.25
 20
0.0
 42
1.0
 10
0.25
 20
0.0
 42
1.0
  0
ENDBLK
  5
852
330
2B6
100
AcDbEntity
  8
0
100
AcDbBlockEnd
  0
ENDSEC
  0
SECTION
  2
ENTITIES
  0
TEXT
  5
2EF
330
1F
100
AcDbEntity
  8
0
  6
Continuous
 62
     7
370
    30
100
AcDbText
 10
4.901999995708585
 20
4.331666647195785
 30
0.0
 40
2.880000042915344
  1
Ａ４
 41
0.5748197425183692
  7
KCADTEXTSTANDARD
100
AcDbText
1001
Sigma
1000

  0
POINT
  5
2F2
330
1F
100
AcDbEntity
  8
1
  6
Continuous
 62
     7
370
    15
100
AcDbPoint
 10
0.0000000000001
 20
-0.283333331347
 30
0.0
1001
Sigma
1000

  0
POINT
  5
2F4
330
1F
100
AcDbEntity
  8
1
  6
Continuous
 62
     7
370
    15
100
AcDbPoint
 10
-297.0
 20
209.7166595458999
 30
0.0
1001
Sigma
1000

  0
LINE
  5
2F6
330
1F
100
AcDbEntity
  8
DEFPOINTS
  6
HIDDEN
 62
   253
370
    15
100
AcDbLine
 10
0.0000000000001
 20
209.7166595458999
 30
0.0
 11
0.0000000000001
 21
-0.283333331347
 31
0.0
1001
Sigma
1000

  0
LINE
  5
2F8
330
1F
100
AcDbEntity
  8
DEFPOINTS
  6
HIDDEN
 62
   253
370
    15
100
AcDbLine
 10
-297.0
 20
-0.283333331347
 30
0.0
 11
0.0000000000001
 21
-0.283333331347
 31
0.0
1001
Sigma
1000

  0
LINE
  5
2FA
330
1F
100
AcDbEntity
  8
DEFPOINTS
  6
HIDDEN
 62
   253
370
    15
100
AcDbLine
 10
-297.0
 20
209.7166595458999
 30
0.0
 11
-297.0
 21
-0.283333331347
 31
0.0
1001
Sigma
1000

  0
LINE
  5
2FC
330
1F
100
AcDbEntity
  8
DEFPOINTS
  6
HIDDEN
 62
   253
370
    15
100
AcDbLine
 10
-297.0
 20
209.7166595458999
 30
0.0
 11
0.0000000000001
 21
209.7166595458999
 31
0.0
1001
Sigma
1000

  0
LINE
  5
2FE
330
1F
100
AcDbEntity
  8
1
  6
Continuous
 62
     7
370
    30
100
AcDbLine
 10
-15.0
 20
194.7166595459
 30
0.0
 11
-15.0
 21
14.716666221619
 31
0.0
1001
Sigma
1000

  0
LINE
  5
300
330
1F
100
AcDbEntity
  8
1
  6
Continuous
 62
     7
370
    30
100
AcDbLine
 10
-282.0
 20
194.7166595459
 30
0.0
 11
-282.0
 21
14.716666221619
 31
0.0
1001
Sigma
1000

  0
LINE
  5
302
330
1F
100
AcDbEntity
  8
1
  6
Continuous
 62
     7
370
    30
100
AcDbLine
 10
-282.0
 20
14.716666221619
 30
0.0
 11
-15.0
 21
14.716666221619
 31
0.0
1001
Sigma
1000

  0
LINE
  5
304
330
1F
100
AcDbEntity
  8
1
  6
Continuous
 62
     7
370
    30
100
AcDbLine
 10
-15.0
 20
194.7166595459
 30
0.0
 11
-282.0
 21
194.7166595459
 31
0.0
1001
Sigma
1000

  0
LINE
  5
307
330
1F
100
AcDbEntity
  8
99
  6
Continuous
 62
     7
370
    30
100
AcDbLine
 10
-205.0
 20
62.216666221619
 30
0.0
 11
-15.0
 21
62.216666221619
 31
0.0
1001
Sigma
1000

  0
LINE
  5
309
330
1F
100
AcDbEntity
  8
99
  6
Continuous
 62
     7
370
    30
100
AcDbLine
 10
-76.0
 20
14.716666221619
 30
0.0
 11
-76.0
 21
62.216666221619
 31
0.0
1001
Sigma
1000

  0
LINE
  5
30B
330
1F
100
AcDbEntity
  8
99
  6
Continuous
 62
     7
370
    30
100
AcDbLine
 10
-136.0
 20
34.716666221619
 30
0.0
 11
-15.0
 21
34.716666221619
 31
0.0
1001
Sigma
1000

  0
LINE
  5
30D
330
1F
100
AcDbEntity
  8
99
  6
Continuous
 62
     7
370
    30
100
AcDbLine
 10
-91.0
 20
14.716666221619
 30
0.0
 11
-91.0
 21
34.716666221619
 31
0.0
1001
Sigma
1000

  0
LINE
  5
30F
330
1F
100
AcDbEntity
  8
99
  6
Continuous
 62
     7
370
    30
100
AcDbLine
 10
-106.0
 20
14.716666221619
 30
0.0
 11
-106.0
 21
34.716666221619
 31
0.0
1001
Sigma
1000

  0
LINE
  5
311
330
1F
100
AcDbEntity
  8
99
  6
Continuous
 62
     7
370
    30
100
AcDbLine
 10
-121.0
 20
14.716666221619
 30
0.0
 11
-121.0
 21
62.216666221619
 31
0.0
1001
Sigma
1000

  0
LINE
  5
313
330
1F
100
AcDbEntity
  8
99
  6
Continuous
 62
     7
370
    30
100
AcDbLine
 10
-136.0
 20
14.716666221619
 30
0.0
 11
-136.0
 21
62.216666221619
 31
0.0
1001
Sigma
1000

  0
LINE
  5
315
330
1F
100
AcDbEntity
  8
99
  6
Continuous
 62
     7
370
    15
100
AcDbLine
 10
-205.0
 20
19.716666221619
 30
0.0
 11
-136.0
 21
19.716666221619
 31
0.0
1001
Sigma
1000

  0
LINE
  5
317
330
1F
100
AcDbEntity
  8
99
  6
Continuous
 62
     7
370
    15
100
AcDbLine
 10
-205.0
 20
24.716666221619
 30
0.0
 11
-136.0
 21
24.716666221619
 31
0.0
1001
Sigma
1000

  0
LINE
  5
319
330
1F
100
AcDbEntity
  8
99
  6
Continuous
 62
     7
370
    15
100
AcDbLine
 10
-205.0
 20
29.716666221619
 30
0.0
 11
-76.0
 21
29.716666221619
 31
0.0
1001
Sigma
1000

  0
LINE
  5
31B
330
1F
100
AcDbEntity
  8
99
  6
Continuous
 62
     7
370
    15
100
AcDbLine
 10
-205.0
 20
34.716666221619
 30
0.0
 11
-136.0
 21
34.716666221619
 31
0.0
1001
Sigma
1000

  0
LINE
  5
31D
330
1F
100
AcDbEntity
  8
99
  6
Continuous
 62
     7
370
    15
100
AcDbLine
 10
-205.0
 20
39.716666221619
 30
0.0
 11
-136.0
 21
39.716666221619
 31
0.0
1001
Sigma
1000

  0
LINE
  5
31F
330
1F
100
AcDbEntity
  8
99
  6
Continuous
 62
     7
370
    15
100
AcDbLine
 10
-184.0
 20
14.716666221619
 30
0.0
 11
-184.0
 21
49.716666221619
 31
0.0
1001
Sigma
1000

  0
LINE
  5
321
330
1F
100
AcDbEntity
  8
99
  6
Continuous
 62
     7
370
    15
100
AcDbLine
 10
-173.0
 20
14.716666221619
 30
0.0
 11
-173.0
 21
49.716666221619
 31
0.0
1001
Sigma
1000

  0
LINE
  5
323
330
1F
100
AcDbEntity
  8
99
  6
Continuous
 62
     7
370
    15
100
AcDbLine
 10
-71.0
 20
14.716666221619
 30
0.0
 11
-71.0
 21
49.716666221619
 31
0.0
1001
Sigma
1000

  0
LINE
  5
325
330
1F
100
AcDbEntity
  8
99
  6
Continuous
 62
     7
370
    30
100
AcDbLine
 10
-76.0
 20
24.716666221619
 30
0.0
 11
-15.0
 21
24.716666221619
 31
0.0
1001
Sigma
1000

  0
TEXT
  5
327
330
1F
100
AcDbEntity
  8
99
  6
Continuous
 62
     7
370
    30
100
AcDbText
 10
-75.27008573849
 20
31.60221805921899
 30
0.0
 40
2.7
  1
製
 41
1.266666666666666
  7
KCADTEXTSTANDARD
100
AcDbText
1001
Sigma
1000

  0
TEXT
  5
329
330
1F
100
AcDbEntity
  8
99
  6
Continuous
 62
     7
370
    30
100
AcDbText
 10
-121.775
 20
43.941666221619
 30
0.0
 40
4.049999999999999
  1
 三角法
 41
0.7916666674531168
  7
KCADTEXTSTANDARD
100
AcDbText
1001
Sigma
1000

  0
TEXT
  5
32B
330
1F
100
AcDbEntity
  8
99
  6
Continuous
 62
     7
370
    30
100
AcDbText
 10
-75.27008573849
 20
28.50221805921899
 30
0.0
 40
2.7
  1
品
 41
1.266666666666666
  7
KCADTEXTSTANDARD
100
AcDbText
1001
Sigma
1000

  0
LINE
  5
32D
330
1F
100
AcDbEntity
  8
99
  6
Continuous
 62
     7
370
    15
100
AcDbLine
 10
-200.8678058472999
 20
20.41713907611899
 30
0.0
 11
-204.0678058472999
 21
20.41713907611899
 31
0.0
1001
Sigma
1000

  0
TEXT
  5
32F
330
1F
100
AcDbEntity
  8
99
  6
Continuous
 62
     7
370
    30
100
AcDbText
 10
-75.27008573849
 20
25.402218059219
 30
0.0
 40
2.7
  1
名
 41
1.266666666666666
  7
KCADTEXTSTANDARD
100
AcDbText
1001
Sigma
1000

  0
TEXT
  5
331
330
1F
100
AcDbEntity
  8
99
  6
Continuous
 62
     7
370
    30
100
AcDbText
 10
-136.1521317828999
 20
30.517732464819
 30
0.0
 40
3.6
  1
 設計  製図  検図  承認
 41
1.147916666666666
  7
KCADTEXTSTANDARD
100
AcDbText
1001
Sigma
1000

  0
TEXT
  5
333
330
1F
100
AcDbEntity
  8
99
  6
Continuous
 62
     7
370
    30
100
AcDbText
 10
-200.4927110779
 20
15.520021661919
 30
0.0
 40
3.6
  1
 年月日   担当       訂 正 記 事
 41
0.8102941176470586
  7
KCADTEXTSTANDARD
100
AcDbText
1001
Sigma
1000

  0
TEXT
  5
335
330
1F
100
AcDbEntity
  8
99
  6
Continuous
 62
     7
370
    30
100
AcDbText
 10
-204.29609375
 20
15.686421658819
 30
0.0
 40
3.6
  1
符号
 41
0.4987500003539026
  7
KCADTEXTSTANDARD
100
AcDbText
1001
Sigma
1000

  0
LINE
  5
337
330
1F
100
AcDbEntity
  8
99
  6
Continuous
 62
     7
370
    15
100
AcDbLine
 10
-200.8678058472999
 20
40.41713907611899
 30
0.0
 11
-204.0678058472999
 21
40.41713907611899
 31
0.0
1001
Sigma
1000

  0
LINE
  5
339
330
1F
100
AcDbEntity
  8
99
  6
Continuous
 62
     7
370
    15
100
AcDbLine
 10
-202.4678058472999
 20
43.881240691319
 30
0.0
 11
-200.8678058472999
 21
40.41713907611899
 31
0.0
1001
Sigma
1000

  0
TEXT
  5
33B
330
1F
100
AcDbEntity
  8
99
  6
Continuous
 62
     7
370
    15
100
AcDbText
 10
-202.8658964625725
 20
41.00344399634615
 30
0.0
 40
2.082815953445434
  1
5
 41
0.577433628318584
  7
KCADTEXTSTANDARD
100
AcDbText
1001
Sigma
1000

  0
LINE
  5
33D
330
1F
100
AcDbEntity
  8
99
  6
Continuous
 62
     7
370
    15
100
AcDbLine
 10
-204.0678058472999
 20
40.41713907611899
 30
0.0
 11
-202.4678058472999
 21
43.881240691319
 31
0.0
1001
Sigma
1000

  0
LINE
  5
33F
330
1F
100
AcDbEntity
  8
99
  6
Continuous
 62
     7
370
    15
100
AcDbLine
 10
-200.8678058472999
 20
35.41713907611899
 30
0.0
 11
-204.0678058472999
 21
35.41713907611899
 31
0.0
1001
Sigma
1000

  0
LINE
  5
341
330
1F
100
AcDbEntity
  8
99
  6
Continuous
 62
     7
370
    15
100
AcDbLine
 10
-202.4678058472999
 20
38.881240691319
 30
0.0
 11
-200.8678058472999
 21
35.41713907611899
 31
0.0
1001
Sigma
1000

  0
TEXT
  5
343
330
1F
100
AcDbEntity
  8
99
  6
Continuous
 62
     7
370
    15
100
AcDbText
 10
-202.8658964625725
 20
36.00344399634615
 30
0.0
 40
2.082815953445434
  1
4
 41
0.577433628318584
  7
KCADTEXTSTANDARD
100
AcDbText
1001
Sigma
1000

  0
LINE
  5
345
330
1F
100
AcDbEntity
  8
99
  6
Continuous
 62
     7
370
    15
100
AcDbLine
 10
-204.0678058472999
 20
35.41713907611899
 30
0.0
 11
-202.4678058472999
 21
38.881240691319
 31
0.0
1001
Sigma
1000

  0
LINE
  5
347
330
1F
100
AcDbEntity
  8
99
  6
Continuous
 62
     7
370
    15
100
AcDbLine
 10
-200.8678058472999
 20
30.41713907611899
 30
0.0
 11
-204.0678058472999
 21
30.41713907611899
 31
0.0
1001
Sigma
1000

  0
LINE
  5
349
330
1F
100
AcDbEntity
  8
99
  6
Continuous
 62
     7
370
    15
100
AcDbLine
 10
-202.4678058472999
 20
33.881240691319
 30
0.0
 11
-200.8678058472999
 21
30.41713907611899
 31
0.0
1001
Sigma
1000

  0
TEXT
  5
34B
330
1F
100
AcDbEntity
  8
99
  6
Continuous
 62
     7
370
    15
100
AcDbText
 10
-202.8658964625725
 20
31.00344399634616
 30
0.0
 40
2.082815953445434
  1
3
 41
0.577433628318584
  7
KCADTEXTSTANDARD
100
AcDbText
1001
Sigma
1000

  0
LINE
  5
34D
330
1F
100
AcDbEntity
  8
99
  6
Continuous
 62
     7
370
    15
100
AcDbLine
 10
-202.4678058472999
 20
23.881240691319
 30
0.0
 11
-200.8678058472999
 21
20.41713907611899
 31
0.0
1001
Sigma
1000

  0
LINE
  5
34F
330
1F
100
AcDbEntity
  8
99
  6
Continuous
 62
     7
370
    15
100
AcDbLine
 10
-204.0678058472999
 20
20.41713907611899
 30
0.0
 11
-202.4678058472999
 21
23.881240691319
 31
0.0
1001
Sigma
1000

  0
LINE
  5
351
330
1F
100
AcDbEntity
  8
99
  6
Continuous
 62
     7
370
    15
100
AcDbLine
 10
-204.0678058472999
 20
30.41713907611899
 30
0.0
 11
-202.4678058472999
 21
33.881240691319
 31
0.0
1001
Sigma
1000

  0
TEXT
  5
353
330
1F
100
AcDbEntity
  8
99
  6
Continuous
 62
     7
370
    15
100
AcDbText
 10
-202.8658964625725
 20
26.00344399634616
 30
0.0
 40
2.082815953445434
  1
2
 41
0.577433628318584
  7
KCADTEXTSTANDARD
100
AcDbText
1001
Sigma
1000

  0
LINE
  5
355
330
1F
100
AcDbEntity
  8
99
  6
Continuous
 62
     7
370
    15
100
AcDbLine
 10
-200.8678058472999
 20
25.41713907611899
 30
0.0
 11
-204.0678058472999
 21
25.41713907611899
 31
0.0
1001
Sigma
1000

  0
LINE
  5
357
330
1F
100
AcDbEntity
  8
99
  6
Continuous
 62
     7
370
    15
100
AcDbLine
 10
-202.4678058472999
 20
28.881240691319
 30
0.0
 11
-200.8678058472999
 21
25.41713907611899
 31
0.0
1001
Sigma
1000

  0
LINE
  5
359
330
1F
100
AcDbEntity
  8
99
  6
Continuous
 62
     7
370
    15
100
AcDbLine
 10
-204.0678058472999
 20
25.41713907611899
 30
0.0
 11
-202.4678058472999
 21
28.881240691319
 31
0.0
1001
Sigma
1000

  0
TEXT
  5
35B
330
1F
100
AcDbEntity
  8
99
  6
Continuous
 62
     7
370
    15
100
AcDbText
 10
-202.8658964625725
 20
21.00344399634616
 30
0.0
 40
2.082815953445434
  1
1
 41
0.577433628318584
  7
KCADTEXTSTANDARD
100
AcDbText
1001
Sigma
1000

  0
TEXT
  5
35D
330
1F
100
AcDbEntity
  8
99
  6
Continuous
 62
     7
370
    30
100
AcDbText
 10
-75.28208594037
 20
35.47853668441899
 30
0.0
 40
2.7
  1
差
 41
1.266666666666666
  7
KCADTEXTSTANDARD
100
AcDbText
1001
Sigma
1000

  0
TEXT
  5
35F
330
1F
100
AcDbEntity
  8
99
  6
Continuous
 62
     7
370
    30
100
AcDbText
 10
-75.28208594037
 20
38.978536684419
 30
0.0
 40
2.7
  1
公
 41
1.266666666666666
  7
KCADTEXTSTANDARD
100
AcDbText
1001
Sigma
1000

  0
TEXT
  5
361
330
1F
100
AcDbEntity
  8
99
  6
Continuous
 62
     7
370
    30
100
AcDbText
 10
-105.1820859165581
 20
46.47853668441899
 30
0.0
 40
2.7
  1
面
 41
1.203333318233489
  7
KCADTEXTSTANDARD
100
AcDbText
1001
Sigma
1000

  0
TEXT
  5
363
330
1F
100
AcDbEntity
  8
99
  6
Continuous
 62
     7
370
    30
100
AcDbText
 10
-75.28208594037
 20
42.97853668441899
 30
0.0
 40
2.7
  1
上
 41
1.266666666666666
  7
KCADTEXTSTANDARD
100
AcDbText
1001
Sigma
1000

  0
TEXT
  5
365
330
1F
100
AcDbEntity
  8
99
  6
Continuous
 62
     7
370
    30
100
AcDbText
 10
-75.28208594037
 20
46.47853668441899
 30
0.0
 40
2.7
  1
仕
 41
1.266666666666666
  7
KCADTEXTSTANDARD
100
AcDbText
1001
Sigma
1000

  0
LINE
  5
367
330
1F
100
AcDbEntity
  8
99
  6
Continuous
 62
     7
370
    30
100
AcDbLine
 10
-184.0
 20
49.716666221619
 30
0.0
 11
-184.0
 21
62.216666221619
 31
0.0
1001
Sigma
1000

  0
TEXT
  5
369
330
1F
100
AcDbEntity
  8
99
  6
Continuous
 62
     7
370
    30
100
AcDbText
 10
-75.35
 20
20.86666622161899
 30
0.0
 40
2.7
  1
図
 41
1.266666666666666
  7
KCADTEXTSTANDARD
100
AcDbText
1001
Sigma
1000

  0
TEXT
  5
36B
330
1F
100
AcDbEntity
  8
99
  6
Continuous
 62
     7
370
    30
100
AcDbText
 10
-75.35
 20
16.36666622161899
 30
0.0
 40
2.7
  1
番
 41
1.266666666666666
  7
KCADTEXTSTANDARD
100
AcDbText
1001
Sigma
1000

  0
LINE
  5
36D
330
1F
100
AcDbEntity
  8
99
  6
Continuous
 62
     7
370
    15
100
AcDbLine
 10
-205.0
 20
54.716666221619
 30
0.0
 11
-15.0
 21
54.716666221619
 31
0.0
1001
Sigma
1000

  0
LINE
  5
36F
330
1F
100
AcDbEntity
  8
99
  6
Continuous
 62
     7
370
    15
100
AcDbLine
 10
-101.0
 20
49.716666221619
 30
0.0
 11
-101.0
 21
42.216666221619
 31
0.0
1001
Sigma
1000

  0
TEXT
  5
371
330
1F
100
AcDbEntity
  8
99
  6
Continuous
 62
     7
370
    30
100
AcDbText
 10
-133.6081081080999
 20
45.618798708019
 30
0.0
 40
3.6
  1
尺度
 41
1.1875
  7
KCADTEXTSTANDARD
100
AcDbText
1001
Sigma
1000

  0
LINE
  5
373
330
1F
100
AcDbEntity
  8
99
  6
Continuous
 62
     7
370
    15
100
AcDbLine
 10
-204.0678058472999
 20
45.41713907611899
 30
0.0
 11
-202.4678058472999
 21
48.881240691289
 31
0.0
1001
Sigma
1000

  0
TEXT
  5
375
330
1F
100
AcDbEntity
  8
99
  6
Continuous
 62
     7
370
    15
100
AcDbText
 10
-202.8658964625725
 20
46.00344399634615
 30
0.0
 40
2.082815953445434
  1
6
 41
0.577433628318584
  7
KCADTEXTSTANDARD
100
AcDbText
1001
Sigma
1000

  0
LINE
  5
377
330
1F
100
AcDbEntity
  8
99
  6
Continuous
 62
     7
370
    15
100
AcDbLine
 10
-202.4678058472999
 20
48.881240691289
 30
0.0
 11
-200.8678058472999
 21
45.41713907611899
 31
0.0
1001
Sigma
1000

  0
LINE
  5
379
330
1F
100
AcDbEntity
  8
99
  6
Continuous
 62
     7
370
    15
100
AcDbLine
 10
-200.8678058472999
 20
45.41713907611899
 30
0.0
 11
-204.0678058472999
 21
45.41713907611899
 31
0.0
1001
Sigma
1000

  0
LINE
  5
37B
330
1F
100
AcDbEntity
  8
99
  6
Continuous
 62
     7
370
    30
100
AcDbLine
 10
-106.0
 20
42.216666221619
 30
0.0
 11
-106.0
 21
49.716666221619
 31
0.0
1001
Sigma
1000

  0
LINE
  5
37D
330
1F
100
AcDbEntity
  8
99
  6
Continuous
 62
     7
370
    30
100
AcDbLine
 10
-205.0
 20
49.716666221619
 30
0.0
 11
-15.0
 21
49.716666221619
 31
0.0
1001
Sigma
1000

  0
LINE
  5
37F
330
1F
100
AcDbEntity
  8
99
  6
Continuous
 62
     7
370
    15
100
AcDbLine
 10
-205.0
 20
44.716666221619
 30
0.0
 11
-121.0
 21
44.716666221619
 31
0.0
1001
Sigma
1000

  0
LINE
  5
381
330
1F
100
AcDbEntity
  8
99
  6
Continuous
 62
     7
370
    15
100
AcDbLine
 10
-200.0
 20
14.716666221619
 30
0.0
 11
-200.0
 21
49.716666221619
 31
0.0
1001
Sigma
1000

  0
TEXT
  5
383
330
1F
100
AcDbEntity
  8
99
  6
Continuous
 62
     7
370
    30
100
AcDbText
 10
-203.1653020558
 20
50.421401326519
 30
0.0
 40
3.6
  1
部品番号     部   品   名
 41
0.7659374981911647
  7
KCADTEXTSTANDARD
100
AcDbText
1001
Sigma
1000

  0
TEXT
  5
385
330
1F
100
AcDbEntity
  8
99
  6
Continuous
 62
     7
370
    30
100
AcDbText
 10
-133.6081081080999
 20
50.718798708009
 30
0.0
 40
3.6
  1
個数
 41
1.1875
  7
KCADTEXTSTANDARD
100
AcDbText
1001
Sigma
1000

  0
TEXT
  5
387
330
1F
100
AcDbEntity
  8
99
  6
Continuous
 62
     7
370
    30
100
AcDbText
 10
-112.1521317828999
 20
50.717732464809
 30
0.0
 40
3.6
  1
     材       質           表  面  処  理
 41
0.6678663776994779
  7
KCADTEXTSTANDARD
100
AcDbText
1001
Sigma
1000

  0
LINE
  5
389
330
1F
100
AcDbEntity
  8
99
  6
Continuous
 62
     7
370
    30
100
AcDbLine
 10
-205.0
 20
62.216666221619
 30
0.0
 11
-205.0
 21
14.716666221619
 31
0.0
1001
Sigma
1000

  0
TEXT
  5
38B
330
1F
100
AcDbEntity
  8
99
  6
Continuous
 62
     7
370
    30
100
AcDbText
 10
-133.3655760645
 20
37.986448023019
 30
0.0
 40
4.067999999999999
  1
1/2
 41
1.048251158870626
  7
KCADTEXTSTANDARD
100
AcDbText
1001
Sigma
1000

  0
TEXT
  5
38D
330
1F
100
AcDbEntity
  8
99
  6
Continuous
 62
     7
370
    30
100
AcDbText
 10
-62.65426971142
 20
16.706267477219
 30
0.0
 40
5.695199999999999
  1
TSTM-159
 41
0.8686740987625945
  7
KCADTEXTSTANDARD
100
AcDbText
1001
Sigma
1000

  0
TEXT
  5
390
330
1F
100
AcDbEntity
  8
2
  6
Continuous
 62
     7
370
    30
100
AcDbText
 10
-166.7067561390423
 20
56.92863863166967
 30
0.0
 40
3.307499957084655
  1
組立図
 41
0.9771428572895999
  7
KCADTEXTSTANDARD
100
AcDbText
1001
Sigma
1000

  0
TEXT
  5
392
330
1F
100
AcDbEntity
  8
2
  6
Continuous
 62
     7
370
    30
100
AcDbText
 10
-199.1131169717
 20
57.435557675046
 30
0.0
 40
2.3625
  1
１００
 41
1.007904760610489
  7
KCADTEXTSTANDARD
100
AcDbText
1001
Sigma
1000

  0
TEXT
  5
394
330
1F
100
AcDbEntity
  8
99
  6
Continuous
 62
     7
370
    30
100
AcDbText
 10
-62.65426971142
 20
26.706267477219
 30
0.0
 40
5.695199999999999
  1
KCM-02DT
 41
0.8493702299012033
  7
KCADTEXTSTANDARD
100
AcDbText
1001
Sigma
1000

  0
TEXT
  5
396
330
1F
100
AcDbEntity
  8
99
  6
Continuous
 62
     7
370
    30
100
AcDbText
 10
-59.02459426456999
 20
55.749164937239
 30
0.0
 40
4.5
  1
梨地黒アルマイト
 41
0.653125
  7
KCADTEXTSTANDARD
100
AcDbText
1001
Sigma
1000

  0
LINE
  5
398
330
1F
100
AcDbEntity
  8
99
  6
Continuous
 62
     7
370
    30
100
AcDbLine
 10
-121.0
 20
42.216666221619
 30
0.0
 11
-15.0
 21
42.216666221619
 31
0.0
1001
Sigma
1000

  0
TEXT
  5
39A
330
1F
100
AcDbEntity
  8
1
  6
Continuous
 62
     7
370
    30
100
AcDbText
 10
-117.4617236061846
 20
36.99777818025034
 30
0.0
 40
3.239999914169311
  1
２００２年０５月３１日
 41
0.9559974749957229
  7
KCADTEXTSTANDARD
100
AcDbText
1001
Sigma
1000

  0
TEXT
  5
39C
330
1F
100
AcDbEntity
  8
1
  6
Continuous
 62
     7
370
    30
100
AcDbText
 10
-95.37637114036
 20
71.355243238325
 30
0.0
 40
7.2
  1
Ｘ０．２
 41
0.563528361916542
  7
KCADTEXTSTANDARD
100
AcDbText
1001
Sigma
1000

  0
POINT
  5
39E
330
1F
100
AcDbEntity
  8
1
  6
Continuous
 62
     7
370
    15
100
AcDbPoint
 10
-52.40093116635
 20
145.8793693710499
 30
0.0
1001
Sigma
1000

  0
LINE
  5
3A0
330
1F
100
AcDbEntity
  8
1
  6
CENTER
 62
     7
370
    15
100
AcDbLine
 10
-244.00939247
 20
145.8793693710499
 30
0.0
 11
-236.5556571184
 21
145.8793693710499
 31
0.0
1001
Sigma
1000

  0
LINE
  5
3A2
330
1F
100
AcDbEntity
  8
1
  6
CENTER
 62
     7
370
    15
100
AcDbLine
 10
-52.40093116635
 20
148.08341721674
 30
0.0
 11
-52.40093116635
 21
144.6804634262299
 31
0.0
1001
Sigma
1000

  0
LINE
  5
3A4
330
1F
100
AcDbEntity
  8
1
  6
CENTER
 62
     7
370
    15
100
AcDbLine
 10
-235.8056703104999
 20
146.87937328979
 30
0.0
 11
-234.3056702866999
 21
144.8793733076799
 31
0.0
1001
Sigma
1000

  0
LINE
  5
3A6
330
1F
100
AcDbEntity
  8
1
  6
CENTER
 62
     7
370
    15
100
AcDbLine
 10
-234.3056805713
 20
144.8793745897
 30
0.0
 11
-233.5556805593999
 21
145.8793745807599
 31
0.0
1001
Sigma
1000

  0
LINE
  5
3A8
330
1F
100
AcDbEntity
  8
1
  6
CENTER
 62
     7
370
    15
100
AcDbLine
 10
-236.5556752188
 20
145.87937156477
 30
0.0
 11
-235.8056752068999
 21
146.87937155583
 31
0.0
1001
Sigma
1000

  0
LINE
  5
3AA
330
1F
100
AcDbEntity
  8
1
  6
CENTER
 62
     7
370
    15
100
AcDbLine
 10
-241.8209311662999
 20
147.82647477877
 30
0.0
 11
-241.8209311662999
 21
144.10504686129
 31
0.0
1001
Sigma
1000

  0
LINE
  5
3AC
330
1F
100
AcDbEntity
  8
1
  6
CENTER
 62
     7
370
    15
100
AcDbLine
 10
-233.5556723772
 20
145.8793693710499
 30
0.0
 11
-221.2208644996
 21
145.8793693710499
 31
0.0
1001
Sigma
1000

  0
LINE
  5
3AE
330
1F
100
AcDbEntity
  8
1
  6
Continuous
 62
     7
370
    30
100
AcDbLine
 10
-94.36592066928
 20
156.6293596822499
 30
0.0
 11
-94.11592580494
 21
156.37936479683
 31
0.0
1001
Sigma
1000

  0
LINE
  5
3B1
330
1F
100
AcDbEntity
  8
5
  6
Continuous
 62
     7
370
    30
100
AcDbLine
 10
-95.44092826714999
 20
154.3793693710499
 30
0.0
 11
-95.44092826714999
 21
154.6293693710499
 31
0.0
1001
Sigma
1000

  0
LINE
  5
3B3
330
1F
100
AcDbEntity
  8
1
  6
Continuous
 62
     7
370
    30
100
AcDbLine
 10
-93.61593131894
 20
138.8793693710499
 30
0.0
 11
-93.61593131894
 21
152.87936937105
 31
0.0
1001
Sigma
1000

  0
LINE
  5
3B5
330
1F
100
AcDbEntity
  8
1
  6
Continuous
 62
     7
370
    30
100
AcDbLine
 10
-94.11593131893999
 20
138.6293693710499
 30
0.0
 11
-93.86593131894001
 21
138.6293693710499
 31
0.0
1001
Sigma
1000

  0
LINE
  5
3B7
330
1F
100
AcDbEntity
  8
1
  6
Continuous
 62
     7
370
    30
100
AcDbLine
 10
-99.36593131895
 20
154.12936937105
 30
0.0
 11
-96.11593131895
 21
154.12936937105
 31
0.0
1001
Sigma
1000

  0
LINE
  5
3B9
330
1F
100
AcDbEntity
  8
1
  6
Continuous
 62
     7
370
    30
100
AcDbLine
 10
-99.36593131895
 20
137.6293693710499
 30
0.0
 11
-96.11593131895
 21
137.6293693710499
 31
0.0
1001
Sigma
1000

  0
LINE
  5
3BB
330
1F
100
AcDbEntity
  8
1
  6
Continuous
 62
     7
370
    30
100
AcDbLine
 10
-95.86593131895
 20
154.3793693710499
 30
0.0
 11
-94.36593131893999
 21
154.3793693710499
 31
0.0
1001
Sigma
1000

  0
LINE
  5
3BD
330
1F
100
AcDbEntity
  8
1
  6
Continuous
 62
     7
370
    30
100
AcDbLine
 10
-96.11593131895
 20
154.6293693710499
 30
0.0
 11
-94.11593131893999
 21
154.6293693710499
 31
0.0
1001
Sigma
1000

  0
LINE
  5
3BF
330
1F
100
AcDbEntity
  8
1
  6
Continuous
 62
     7
370
    30
100
AcDbLine
 10
-94.11593131893999
 20
154.6293693710499
 30
0.0
 11
-94.11593131893999
 21
156.3793693710499
 31
0.0
1001
Sigma
1000

  0
LINE
  5
3C1
330
1F
100
AcDbEntity
  8
1
  6
Continuous
 62
     7
370
    30
100
AcDbLine
 10
-95.86593131895
 20
156.6293693710499
 30
0.0
 11
-94.36593131893999
 21
156.6293693710499
 31
0.0
1001
Sigma
1000

  0
LINE
  5
3C3
330
1F
100
AcDbEntity
  8
1
  6
Continuous
 62
     7
370
    30
100
AcDbLine
 10
-96.11593131895
 20
154.6293693710499
 30
0.0
 11
-96.11593131895
 21
156.3793693710499
 31
0.0
1001
Sigma
1000

  0
LINE
  5
3C5
330
1F
100
AcDbEntity
  8
1
  6
Continuous
 62
     7
370
    30
100
AcDbLine
 10
-98.61593131895
 20
137.6293693710499
 30
0.0
 11
-98.61593131895
 21
154.12936937105
 31
0.0
1001
Sigma
1000

  0
LINE
  5
3C7
330
1F
100
AcDbEntity
  8
5
  6
Continuous
 62
     7
370
    30
100
AcDbLine
 10
-99.36593131895
 20
137.6293693710499
 30
0.0
 11
-99.36593131895
 21
154.12936937105
 31
0.0
1001
Sigma
1000

  0
LINE
  5
3C9
330
1F
100
AcDbEntity
  8
1
  6
Continuous
 62
     7
370
    30
100
AcDbLine
 10
-99.61591700745
 20
153.87935558838
 30
0.0
 11
-99.36591672725
 21
154.12935584752
 31
0.0
1001
Sigma
1000

  0
LINE
  5
3CB
330
1F
100
AcDbEntity
  8
1
  6
Continuous
 62
     7
370
    30
100
AcDbLine
 10
-99.61592559625
 20
137.8793636220499
 30
0.0
 11
-99.36592531595
 21
137.62936336291
 31
0.0
1001
Sigma
1000

  0
LINE
  5
3CD
330
1F
100
AcDbEntity
  8
1
  6
Continuous
 62
     7
370
    30
100
AcDbLine
 10
-94.11593131893999
 20
137.6293693710499
 30
0.0
 11
-94.11593131893999
 21
154.12936937105
 31
0.0
1001
Sigma
1000

  0
LINE
  5
3CF
330
1F
100
AcDbEntity
  8
5
  6
Continuous
 62
     7
370
    30
100
AcDbLine
 10
-93.86593131894001
 20
138.6293693710499
 30
0.0
 11
-93.86593131894001
 21
153.1293693710499
 31
0.0
1001
Sigma
1000

  0
LINE
  5
3D1
330
1F
100
AcDbEntity
  8
5
  6
Continuous
 62
     7
370
    30
100
AcDbLine
 10
-94.79092674135
 20
154.3793693710499
 30
0.0
 11
-94.79092674135
 21
154.6293693710499
 31
0.0
1001
Sigma
1000

  0
LINE
  5
3D3
330
1F
100
AcDbEntity
  8
1
  6
Continuous
 62
     7
370
    30
100
AcDbLine
 10
-94.11593131893999
 20
153.1293693710499
 30
0.0
 11
-93.86593131894001
 21
153.1293693710499
 31
0.0
1001
Sigma
1000

  0
LINE
  5
3D5
330
1F
100
AcDbEntity
  8
1
  6
Continuous
 62
     7
370
    30
100
AcDbLine
 10
-96.11592266235
 20
154.12936245404
 30
0.0
 11
-95.86592238215
 21
154.3793627131799
 31
0.0
1001
Sigma
1000

  0
LINE
  5
3D7
330
1F
100
AcDbEntity
  8
1
  6
Continuous
 62
     7
370
    30
100
AcDbLine
 10
-94.36592211281
 20
154.3793613012599
 30
0.0
 11
-94.11592185367
 21
154.1293610210499
 31
0.0
1001
Sigma
1000

  0
LINE
  5
3D9
330
1F
100
AcDbEntity
  8
1
  6
Continuous
 62
     7
370
    30
100
AcDbLine
 10
-93.86592432353999
 20
153.1293626292099
 30
0.0
 11
-93.6159240644
 21
152.87936234899
 31
0.0
1001
Sigma
1000

  0
LINE
  5
3DB
330
1F
100
AcDbEntity
  8
1
  6
Continuous
 62
     7
370
    30
100
AcDbLine
 10
-93.6159240644
 20
152.87936234899
 30
0.0
 11
-93.36592378419
 21
153.12936260813
 31
0.0
1001
Sigma
1000

  0
LINE
  5
3DD
330
1F
100
AcDbEntity
  8
5
  6
Continuous
 62
     7
370
    30
100
AcDbLine
 10
-93.36593131894
 20
138.6293693710499
 30
0.0
 11
-93.36593131894
 21
153.1293693710499
 31
0.0
1001
Sigma
1000

  0
LINE
  5
3DF
330
1F
100
AcDbEntity
  8
1
  6
Continuous
 62
     7
370
    30
100
AcDbLine
 10
-96.11592551915
 20
137.62936518576
 30
0.0
 11
-95.86592523894998
 21
137.37936492662
 31
0.0
1001
Sigma
1000

  0
LINE
  5
3E1
330
1F
100
AcDbEntity
  8
1
  6
Continuous
 62
     7
370
    30
100
AcDbLine
 10
-95.86593131895
 20
137.3793693710499
 30
0.0
 11
-94.36593131893999
 21
137.3793693710499
 31
0.0
1001
Sigma
1000

  0
LINE
  5
3E3
330
1F
100
AcDbEntity
  8
1
  6
Continuous
 62
     7
370
    30
100
AcDbLine
 10
-94.36592429521
 20
137.37936431549
 30
0.0
 11
-94.11592471042
 21
137.62936392136
 31
0.0
1001
Sigma
1000

  0
LINE
  5
3E5
330
1F
100
AcDbEntity
  8
1
  6
Continuous
 62
     7
370
    30
100
AcDbLine
 10
-93.86592245984998
 20
138.62936163885
 30
0.0
 11
-93.61592220071002
 21
138.8793619190599
 31
0.0
1001
Sigma
1000

  0
LINE
  5
3E7
330
1F
100
AcDbEntity
  8
1
  6
Continuous
 62
     7
370
    30
100
AcDbLine
 10
-93.61592220071002
 20
138.8793619190599
 30
0.0
 11
-93.36592192049
 21
138.6293616599199
 31
0.0
1001
Sigma
1000

  0
LINE
  5
3E9
330
1F
100
AcDbEntity
  8
1
  6
Continuous
 62
     7
370
    30
100
AcDbLine
 10
-96.11593131895
 20
137.6293693710499
 30
0.0
 11
-96.11593131895
 21
154.12936937105
 31
0.0
1001
Sigma
1000

  0
LINE
  5
3EB
330
1F
100
AcDbEntity
  8
5
  6
Continuous
 62
     7
370
    30
100
AcDbLine
 10
-95.86593131895
 20
137.3793693710499
 30
0.0
 11
-95.86593131895
 21
154.3793693710499
 31
0.0
1001
Sigma
1000

  0
LINE
  5
3ED
330
1F
100
AcDbEntity
  8
5
  6
Continuous
 62
     7
370
    30
100
AcDbLine
 10
-94.36593131893999
 20
137.3793693710499
 30
0.0
 11
-94.36593131893999
 21
154.3793693710499
 31
0.0
1001
Sigma
1000

  0
LINE
  5
3EF
330
1F
100
AcDbEntity
  8
1
  6
Continuous
 62
     7
370
    30
100
AcDbLine
 10
-95.51593284484998
 20
154.3793693710499
 30
0.0
 11
-95.51593284484998
 21
154.6293693710499
 31
0.0
1001
Sigma
1000

  0
LINE
  5
3F1
330
1F
100
AcDbEntity
  8
1
  6
Continuous
 62
     7
370
    30
100
AcDbLine
 10
-94.71592979306
 20
154.3793693710499
 30
0.0
 11
-94.71592979306
 21
154.6293693710499
 31
0.0
1001
Sigma
1000

  0
LINE
  5
3F3
330
1F
100
AcDbEntity
  8
5
  6
Continuous
 62
     7
370
    30
100
AcDbLine
 10
-95.86593131895
 20
154.6293693710499
 30
0.0
 11
-95.86593131895
 21
156.3793693710499
 31
0.0
1001
Sigma
1000

  0
LINE
  5
3F5
330
1F
100
AcDbEntity
  8
5
  6
Continuous
 62
     7
370
    30
100
AcDbLine
 10
-94.36593131893999
 20
154.6293693710499
 30
0.0
 11
-94.36593131893999
 21
156.3793693710499
 31
0.0
1001
Sigma
1000

  0
LINE
  5
3F7
330
1F
100
AcDbEntity
  8
5
  6
Continuous
 62
     7
370
    30
100
AcDbLine
 10
-95.49093131895
 20
154.6293693710499
 30
0.0
 11
-95.49093131895
 21
156.3793693710499
 31
0.0
1001
Sigma
1000

  0
LINE
  5
3F9
330
1F
100
AcDbEntity
  8
5
  6
Continuous
 62
     7
370
    30
100
AcDbLine
 10
-94.74093131893999
 20
154.6293693710499
 30
0.0
 11
-94.74093131893999
 21
156.3793693710499
 31
0.0
1001
Sigma
1000

  0
LINE
  5
3FB
330
1F
100
AcDbEntity
  8
5
  6
Continuous
 62
     7
370
    30
100
AcDbLine
 10
-95.11593131895
 20
154.6293693710499
 30
0.0
 11
-95.11593131895
 21
156.3793693710499
 31
0.0
1001
Sigma
1000

  0
LINE
  5
3FD
330
1F
100
AcDbEntity
  8
5
  6
Continuous
 62
     7
370
    30
100
AcDbLine
 10
-96.11593131895
 20
156.3793693710499
 30
0.0
 11
-94.11593131893999
 21
156.3793693710499
 31
0.0
1001
Sigma
1000

  0
LINE
  5
3FF
330
1F
100
AcDbEntity
  8
1
  6
Continuous
 62
     7
370
    30
100
AcDbLine
 10
-96.11591582405
 20
156.37935544023
 30
0.0
 11
-95.86591554385
 21
156.6293556993699
 31
0.0
1001
Sigma
1000

  0
LINE
  5
401
330
1F
100
AcDbEntity
  8
1
  6
Continuous
 62
     7
370
    30
100
AcDbLine
 10
-61.165930556
 20
152.8293663192999
 30
0.0
 11
-61.165930556
 21
138.92936479342
 31
0.0
1001
Sigma
1000

  0
LINE
  5
403
330
1F
100
AcDbEntity
  8
1
  6
Continuous
 62
     7
370
    30
100
AcDbLine
 10
-209.115942763
 20
163.12936937105
 30
0.0
 11
-209.115942763
 21
128.6293693710599
 31
0.0
1001
Sigma
1000

  0
LINE
  5
405
330
1F
100
AcDbEntity
  8
1
  6
Continuous
 62
     7
370
    30
100
AcDbLine
 10
-208.8659427446999
 20
163.3793693710499
 30
0.0
 11
-161.6159351335999
 21
163.3793693710499
 31
0.0
1001
Sigma
1000

  0
LINE
  5
407
330
1F
100
AcDbEntity
  8
1
  6
Continuous
 62
     7
370
    30
100
AcDbLine
 10
-170.615942763
 20
163.3793693710499
 30
0.0
 11
-170.615942763
 21
128.37936937106
 31
0.0
1001
Sigma
1000

  0
LINE
  5
409
330
1F
100
AcDbEntity
  8
1
  6
Continuous
 62
     7
370
    30
100
AcDbLine
 10
-208.8659427446999
 20
128.37936937106
 30
0.0
 11
-161.6159351335999
 21
128.37936937106
 31
0.0
1001
Sigma
1000

  0
LINE
  5
40B
330
1F
100
AcDbEntity
  8
1
  6
Continuous
 62
     7
370
    30
100
AcDbLine
 10
-93.36593131894
 20
153.1293693710499
 30
0.0
 11
-61.46592979305999
 21
153.1293693710499
 31
0.0
1001
Sigma
1000

  0
LINE
  5
40D
330
1F
100
AcDbEntity
  8
1
  6
Continuous
 62
     7
370
    30
100
AcDbLine
 10
-93.36593131894
 20
138.6293693710499
 30
0.0
 11
-61.46593360776
 21
138.6293693710499
 31
0.0
1001
Sigma
1000

  0
LINE
  5
40F
330
1F
100
AcDbEntity
  8
1
  6
Continuous
 62
     7
370
    30
100
AcDbLine
 10
-59.16593055599999
 20
151.92936479342
 30
0.0
 11
-59.16593055599999
 21
139.8293663192999
 31
0.0
1001
Sigma
1000

  0
LINE
  5
411
330
1F
100
AcDbEntity
  8
1
  6
Continuous
 62
     7
370
    30
100
AcDbLine
 10
-60.86593131894
 20
152.22936784517
 30
0.0
 11
-59.46592979306
 21
152.22936784517
 31
0.0
1001
Sigma
1000

  0
LINE
  5
413
330
1F
100
AcDbEntity
  8
1
  6
Continuous
 62
     7
370
    30
100
AcDbLine
 10
-60.86593131894
 20
139.52937089693
 30
0.0
 11
-59.46592979306
 21
139.52937089693
 31
0.0
1001
Sigma
1000

  0
LINE
  5
415
330
1F
100
AcDbEntity
  8
1
  6
Continuous
 62
     7
370
    30
100
AcDbLine
 10
-60.86593131894
 20
152.22936784517
 30
0.0
 11
-60.86593131894
 21
139.52937089693
 31
0.0
1001
Sigma
1000

  0
LINE
  5
417
330
1F
100
AcDbEntity
  8
1
  6
Continuous
 62
     7
370
    30
100
AcDbLine
 10
-61.165930556
 20
151.92936479342
 30
0.0
 11
-60.86593131894
 21
151.92936479342
 31
0.0
1001
Sigma
1000

  0
LINE
  5
419
330
1F
100
AcDbEntity
  8
1
  6
Continuous
 62
     7
370
    30
100
AcDbLine
 10
-61.165930556
 20
139.8293663192999
 30
0.0
 11
-60.86593131894
 21
139.8293663192999
 31
0.0
1001
Sigma
1000

  0
LINE
  5
41B
330
1F
100
AcDbEntity
  8
5
  6
Continuous
 62
     7
370
    30
100
AcDbLine
 10
-59.46592979306
 20
152.22936784517
 30
0.0
 11
-59.46592979306
 21
139.52937089693
 31
0.0
1001
Sigma
1000

  0
LINE
  5
41D
330
1F
100
AcDbEntity
  8
1
  6
Continuous
 62
     7
370
    30
100
AcDbLine
 10
-59.46593245997
 20
139.5293709379
 30
0.0
 11
-59.16593322796
 21
139.8293701951899
 31
0.0
1001
Sigma
1000

  0
LINE
  5
41F
330
1F
100
AcDbEntity
  8
1
  6
Continuous
 62
     7
370
    30
100
AcDbLine
 10
-59.46593095191
 20
152.2293661427999
 30
0.0
 11
-59.16593171990999
 21
151.9293668855
 31
0.0
1001
Sigma
1000

  0
LINE
  5
421
330
1F
100
AcDbEntity
  8
5
  6
Continuous
 62
     7
370
    30
100
AcDbLine
 10
-60.86593131894
 20
139.8293663192999
 30
0.0
 11
-59.46592979306
 21
139.8293663192999
 31
0.0
1001
Sigma
1000

  0
LINE
  5
423
330
1F
100
AcDbEntity
  8
5
  6
Continuous
 62
     7
370
    30
100
AcDbLine
 10
-60.86593131894
 20
151.92936479342
 30
0.0
 11
-59.46592979306
 21
151.92936479342
 31
0.0
1001
Sigma
1000

  0
LINE
  5
425
330
1F
100
AcDbEntity
  8
1
  6
Continuous
 62
     7
370
    30
100
AcDbLine
 10
-61.46593307138999
 20
153.12936935584
 30
0.0
 11
-61.16593383938
 21
152.8293700985499
 31
0.0
1001
Sigma
1000

  0
LINE
  5
427
330
1F
100
AcDbEntity
  8
1
  6
Continuous
 62
     7
370
    30
100
AcDbLine
 10
-61.46593188204001
 20
138.6293704222499
 30
0.0
 11
-61.16593265004
 21
138.92936967955
 31
0.0
1001
Sigma
1000

  0
LINE
  5
429
330
1F
100
AcDbEntity
  8
5
  6
Continuous
 62
     7
370
    30
100
AcDbLine
 10
-208.865942763
 20
163.3793693710499
 30
0.0
 11
-208.865942763
 21
128.37936937106
 31
0.0
1001
Sigma
1000

  0
LINE
  5
42B
330
1F
100
AcDbEntity
  8
1
  6
CENTER
 62
     7
370
    15
100
AcDbLine
 10
-102.1159351335999
 20
146.9633995224199
 30
0.0
 11
-102.1159351335999
 21
144.58373796236
 31
0.0
1001
Sigma
1000

  0
LINE
  5
42D
330
1F
100
AcDbEntity
  8
1
  6
Continuous
 62
     7
370
    30
100
AcDbLine
 10
-128.1159351336
 20
158.3793693710499
 30
0.0
 11
-128.1159351336
 21
133.3793693710599
 31
0.0
1001
Sigma
1000

  0
LINE
  5
42F
330
1F
100
AcDbEntity
  8
1
  6
Continuous
 62
     7
370
    30
100
AcDbLine
 10
-106.1159351336
 20
158.3793693710499
 30
0.0
 11
-106.1159351336
 21
133.3793693710599
 31
0.0
1001
Sigma
1000

  0
LINE
  5
431
330
1F
100
AcDbEntity
  8
1
  6
Continuous
 62
     7
370
    30
100
AcDbLine
 10
-104.6159351336
 20
137.3793693710499
 30
0.0
 11
-99.86593513365001
 21
137.3793693710499
 31
0.0
1001
Sigma
1000

  0
LINE
  5
433
330
1F
100
AcDbEntity
  8
1
  6
Continuous
 62
     7
370
    30
100
AcDbLine
 10
-104.6159351336
 20
154.3793693710499
 30
0.0
 11
-99.86593513365001
 21
154.3793693710499
 31
0.0
1001
Sigma
1000

  0
LINE
  5
435
330
1F
100
AcDbEntity
  8
1
  6
Continuous
 62
     7
370
    30
100
AcDbLine
 10
-104.6159351336
 20
157.8793693710499
 30
0.0
 11
-104.6159351336
 21
133.8793693710599
 31
0.0
1001
Sigma
1000

  0
LINE
  5
437
330
1F
100
AcDbEntity
  8
1
  6
Continuous
 62
     7
370
    30
100
AcDbLine
 10
-128.1159351336
 20
158.3793693710499
 30
0.0
 11
-106.1159351336
 21
158.3793693710499
 31
0.0
1001
Sigma
1000

  0
LINE
  5
439
330
1F
100
AcDbEntity
  8
1
  6
Continuous
 62
     7
370
    30
100
AcDbLine
 10
-128.1159351336
 20
133.3793693710599
 30
0.0
 11
-106.1159351336
 21
133.3793693710599
 31
0.0
1001
Sigma
1000

  0
LINE
  5
43B
330
1F
100
AcDbEntity
  8
1
  6
Continuous
 62
     7
370
    30
100
AcDbLine
 10
-106.1159351336
 20
157.8793693710499
 30
0.0
 11
-104.6159351336
 21
157.8793693710499
 31
0.0
1001
Sigma
1000

  0
LINE
  5
43D
330
1F
100
AcDbEntity
  8
1
  6
Continuous
 62
     7
370
    30
100
AcDbLine
 10
-106.1159351336
 20
133.8793693710599
 30
0.0
 11
-104.6159351336
 21
133.8793693710599
 31
0.0
1001
Sigma
1000

  0
LINE
  5
43F
330
1F
100
AcDbEntity
  8
1
  6
Continuous
 62
     7
370
    30
100
AcDbLine
 10
-131.1159351336
 20
156.87936937105
 30
0.0
 11
-128.1159351336
 21
156.87936937105
 31
0.0
1001
Sigma
1000

  0
LINE
  5
441
330
1F
100
AcDbEntity
  8
1
  6
Continuous
 62
     7
370
    30
100
AcDbLine
 10
-131.1159351336
 20
134.8793693710599
 30
0.0
 11
-128.1159351336
 21
134.8793693710599
 31
0.0
1001
Sigma
1000

  0
LINE
  5
443
330
1F
100
AcDbEntity
  8
5
  6
Continuous
 62
     7
370
    30
100
AcDbLine
 10
-131.1159351336
 20
156.87936937105
 30
0.0
 11
-131.1159351336
 21
134.8793693710599
 31
0.0
1001
Sigma
1000

  0
LINE
  5
445
330
1F
100
AcDbEntity
  8
1
  6
Continuous
 62
     7
370
    30
100
AcDbLine
 10
-161.6159426563999
 20
163.3793706506
 30
0.0
 11
-131.1159312091
 21
156.87936983376
 31
0.0
1001
Sigma
1000

  0
LINE
  5
447
330
1F
100
AcDbEntity
  8
1
  6
Continuous
 62
     7
370
    30
100
AcDbLine
 10
-161.615934884
 20
128.37937804562
 30
0.0
 11
-131.1159309036999
 21
134.87937729678
 31
0.0
1001
Sigma
1000

  0
LINE
  5
449
330
1F
100
AcDbEntity
  8
1
  6
CENTER
 62
     7
370
    15
100
AcDbLine
 10
-118.2817295061
 20
122.3793693710599
 30
0.0
 11
-115.981390761
 21
122.3793693710599
 31
0.0
1001
Sigma
1000

  0
LINE
  5
44B
330
1F
100
AcDbEntity
  8
1
  6
CENTER
 62
     7
370
    15
100
AcDbLine
 10
-117.1159351336
 20
145.8793693710499
 30
0.0
 11
-117.1159351336
 21
118.59926466164
 31
0.0
1001
Sigma
1000

  0
LINE
  5
44D
330
1F
100
AcDbEntity
  8
1
  6
CENTER
 62
     7
370
    15
100
AcDbLine
 10
-109.6159351336
 20
156.6406913925399
 30
0.0
 11
-109.6159351336
 21
153.15051805269
 31
0.0
1001
Sigma
1000

  0
LINE
  5
44F
330
1F
100
AcDbEntity
  8
1
  6
CENTER
 62
     7
370
    15
100
AcDbLine
 10
-124.6159351336
 20
156.6406913925399
 30
0.0
 11
-124.6159351336
 21
153.15051805269
 31
0.0
1001
Sigma
1000

  0
LINE
  5
451
330
1F
100
AcDbEntity
  8
1
  6
CENTER
 62
     7
370
    15
100
AcDbLine
 10
-111.5393589006999
 20
154.87936937105
 30
0.0
 11
-107.9698627459
 21
154.87936937105
 31
0.0
1001
Sigma
1000

  0
LINE
  5
453
330
1F
100
AcDbEntity
  8
1
  6
Continuous
 62
     7
370
    30
100
AcDbLine
 10
-120.6159351336
 20
120.8793693710599
 30
0.0
 11
-113.6159351335999
 21
120.8793693710599
 31
0.0
1001
Sigma
1000

  0
LINE
  5
455
330
1F
100
AcDbEntity
  8
1
  6
Continuous
 62
     7
370
    30
100
AcDbLine
 10
-127.6159351336
 20
133.3793693710599
 30
0.0
 11
-127.6159351336
 21
131.8793693710599
 31
0.0
1001
Sigma
1000

  0
LINE
  5
457
330
1F
100
AcDbEntity
  8
1
  6
Continuous
 62
     7
370
    30
100
AcDbLine
 10
-106.6159351336
 20
133.3793693710599
 30
0.0
 11
-106.6159351336
 21
131.8793693710599
 31
0.0
1001
Sigma
1000

  0
LINE
  5
459
330
1F
100
AcDbEntity
  8
1
  6
Continuous
 62
     7
370
    30
100
AcDbLine
 10
-127.6159351336
 20
131.8793693710599
 30
0.0
 11
-106.6159351336
 21
131.8793693710599
 31
0.0
1001
Sigma
1000

  0
LINE
  5
45B
330
1F
100
AcDbEntity
  8
1
  6
Continuous
 62
     7
370
    30
100
AcDbLine
 10
-124.1159351335999
 20
131.8793693710599
 30
0.0
 11
-124.1159351335999
 21
124.8793693710599
 31
0.0
1001
Sigma
1000

  0
LINE
  5
45D
330
1F
100
AcDbEntity
  8
1
  6
Continuous
 62
     7
370
    30
100
AcDbLine
 10
-110.1159351336
 20
131.8793693710599
 30
0.0
 11
-110.1159351336
 21
124.8793693710599
 31
0.0
1001
Sigma
1000

  0
LINE
  5
45F
330
1F
100
AcDbEntity
  8
1
  6
Continuous
 62
     7
370
    30
100
AcDbLine
 10
-124.1159351335999
 20
124.8793693710599
 30
0.0
 11
-110.1159351336
 21
124.8793693710599
 31
0.0
1001
Sigma
1000

  0
LINE
  5
461
330
1F
100
AcDbEntity
  8
1
  6
Continuous
 62
     7
370
    30
100
AcDbLine
 10
-113.6159351335999
 20
124.8793693710599
 30
0.0
 11
-113.6159351335999
 21
120.8793693710599
 31
0.0
1001
Sigma
1000

  0
LINE
  5
463
330
1F
100
AcDbEntity
  8
1
  6
Continuous
 62
     7
370
    30
100
AcDbLine
 10
-120.6159351336
 20
124.8793693710599
 30
0.0
 11
-120.6159351336
 21
120.8793693710599
 31
0.0
1001
Sigma
1000

  0
LINE
  5
465
330
1F
100
AcDbEntity
  8
1
  6
DASHED
 62
     7
370
    15
100
AcDbLine
 10
-119.1159351336
 20
125.8793693710599
 30
0.0
 11
-119.1159351336
 21
120.8793693710599
 31
0.0
1001
Sigma
1000

  0
LINE
  5
467
330
1F
100
AcDbEntity
  8
1
  6
DASHED
 62
     7
370
    15
100
AcDbLine
 10
-115.1159351336
 20
125.8793693710599
 30
0.0
 11
-115.1159351336
 21
120.8793693710599
 31
0.0
1001
Sigma
1000

  0
LINE
  5
469
330
1F
100
AcDbEntity
  8
1
  6
CENTER
 62
     7
370
    15
100
AcDbLine
 10
-124.6159351336
 20
135.11804734957
 30
0.0
 11
-124.6159351336
 21
138.6082206894099
 31
0.0
1001
Sigma
1000

  0
LINE
  5
46B
330
1F
100
AcDbEntity
  8
1
  6
CENTER
 62
     7
370
    15
100
AcDbLine
 10
-126.2932575213
 20
136.8793693710499
 30
0.0
 11
-122.9617298113
 21
136.8793693710499
 31
0.0
1001
Sigma
1000

  0
LINE
  5
46D
330
1F
100
AcDbEntity
  8
1
  6
CENTER
 62
     7
370
    15
100
AcDbLine
 10
-109.6159351336
 20
135.11804734957
 30
0.0
 11
-109.6159351336
 21
138.6082206894099
 31
0.0
1001
Sigma
1000

  0
LINE
  5
46F
330
1F
100
AcDbEntity
  8
1
  6
CENTER
 62
     7
370
    15
100
AcDbLine
 10
-111.5393589006999
 20
136.8793693710499
 30
0.0
 11
-107.9698627459
 21
136.8793693710499
 31
0.0
1001
Sigma
1000

  0
LINE
  5
471
330
1F
100
AcDbEntity
  8
1
  6
CENTER
 62
     7
370
    15
100
AcDbLine
 10
-126.2932575213
 20
154.87936937105
 30
0.0
 11
-122.9617298113
 21
154.87936937105
 31
0.0
1001
Sigma
1000

  0
LINE
  5
473
330
1F
100
AcDbEntity
  8
1
  6
Continuous
 62
     7
370
    30
100
AcDbLine
 10
-100.6159351336
 20
154.3793693710499
 30
0.0
 11
-100.6159351336
 21
137.3793693710499
 31
0.0
1001
Sigma
1000

  0
LINE
  5
475
330
1F
100
AcDbEntity
  8
1
  6
Continuous
 62
     7
370
    30
100
AcDbLine
 10
-99.61593131895
 20
154.12936937105
 30
0.0
 11
-99.61593131895
 21
137.6293693710499
 31
0.0
1001
Sigma
1000

  0
LINE
  5
477
330
1F
100
AcDbEntity
  8
5
  6
Continuous
 62
     7
370
    30
100
AcDbLine
 10
-161.6159427629999
 20
163.3793693710499
 30
0.0
 11
-161.6159427629999
 21
128.37936937106
 31
0.0
1001
Sigma
1000

  0
LINE
  5
479
330
1F
100
AcDbEntity
  8
1
  6
CENTER
 62
     7
370
    15
100
AcDbLine
 10
-212.6090610491
 20
145.8793693710499
 30
0.0
 11
-50.19068252382
 21
145.8793693710499
 31
0.0
1001
Sigma
1000

  0
LINE
  5
47B
330
1F
100
AcDbEntity
  8
5
  6
Continuous
 62
     7
370
    30
100
AcDbLine
 10
-99.86593513365001
 20
154.3793693710499
 30
0.0
 11
-99.86593513365001
 21
137.3793693710499
 31
0.0
1001
Sigma
1000

  0
LINE
  5
47D
330
1F
100
AcDbEntity
  8
1
  6
Continuous
 62
     7
370
    30
100
AcDbLine
 10
-99.86593074305
 20
154.37936962526
 30
0.0
 11
-99.61593048395
 21
154.12936934505
 31
0.0
1001
Sigma
1000

  0
LINE
  5
47F
330
1F
100
AcDbEntity
  8
1
  6
Continuous
 62
     7
370
    30
100
AcDbLine
 10
-99.86593326265
 20
137.37937183871
 30
0.0
 11
-99.61593334065
 21
137.6293717817399
 31
0.0
1001
Sigma
1000

  0
LINE
  5
481
330
1F
100
AcDbEntity
  8
5
  6
Continuous
 62
     7
370
    30
100
AcDbLine
 10
-61.465930556
 20
153.1293693710499
 30
0.0
 11
-61.465930556
 21
138.6293693710499
 31
0.0
1001
Sigma
1000

  0
LINE
  5
483
330
1F
100
AcDbEntity
  8
1
  6
Continuous
 62
     7
370
    30
100
AcDbLine
 10
-209.115942763
 20
128.6293693710599
 30
0.0
 11
-208.8659427446999
 21
128.37936937106
 31
0.0
1001
Sigma
1000

  0
LINE
  5
485
330
1F
100
AcDbEntity
  8
1
  6
Continuous
 62
     7
370
    30
100
AcDbLine
 10
-209.115942763
 20
163.12936937105
 30
0.0
 11
-208.8659427446999
 21
163.3793693710499
 31
0.0
1001
Sigma
1000

  0
CIRCLE
  5
487
330
1F
100
AcDbEntity
  8
1
  6
Continuous
 62
     7
370
    30
100
AcDbCircle
 10
-241.8209311662999
 20
145.8793693710499
 30
0.0
 40
0.75
1001
Sigma
1000

  0
CIRCLE
  5
489
330
1F
100
AcDbEntity
  8
1
  6
Continuous
 62
     7
370
    30
100
AcDbCircle
 10
-52.40093116635
 20
145.8793693710499
 30
0.0
 40
0.75
1001
Sigma
1000

  0
CIRCLE
  5
48B
330
1F
100
AcDbEntity
  8
5
  6
Continuous
 62
     7
370
    30
100
AcDbCircle
 10
-109.6159351336
 20
136.8793693710499
 30
0.0
 40
1.0
1001
Sigma
1000

  0
CIRCLE
  5
48D
330
1F
100
AcDbEntity
  8
1
  6
Continuous
 62
     7
370
    30
100
AcDbCircle
 10
-109.6159351336
 20
136.8793693710499
 30
0.0
 40
0.8249999880790999
1001
Sigma
1000

  0
CIRCLE
  5
48F
330
1F
100
AcDbEntity
  8
5
  6
Continuous
 62
     7
370
    30
100
AcDbCircle
 10
-124.6159351336
 20
154.87936937105
 30
0.0
 40
1.0
1001
Sigma
1000

  0
CIRCLE
  5
491
330
1F
100
AcDbEntity
  8
5
  6
Continuous
 62
     7
370
    30
100
AcDbCircle
 10
-109.6159351336
 20
154.87936937105
 30
0.0
 40
1.0
1001
Sigma
1000

  0
CIRCLE
  5
493
330
1F
100
AcDbEntity
  8
5
  6
Continuous
 62
     7
370
    30
100
AcDbCircle
 10
-117.1159351336
 20
122.3793693710599
 30
0.0
 40
0.75
1001
Sigma
1000

  0
CIRCLE
  5
495
330
1F
100
AcDbEntity
  8
1
  6
Continuous
 62
     7
370
    30
100
AcDbCircle
 10
-117.1159351336
 20
122.3793693710599
 30
0.0
 40
0.6000000238419
1001
Sigma
1000

  0
CIRCLE
  5
497
330
1F
100
AcDbEntity
  8
5
  6
Continuous
 62
     7
370
    30
100
AcDbCircle
 10
-102.1159351335999
 20
145.8793693710499
 30
0.0
 40
0.75
1001
Sigma
1000

  0
CIRCLE
  5
499
330
1F
100
AcDbEntity
  8
1
  6
Continuous
 62
     7
370
    30
100
AcDbCircle
 10
-102.1159351335999
 20
145.8793693710499
 30
0.0
 40
0.6000000238419
1001
Sigma
1000

  0
CIRCLE
  5
49B
330
1F
100
AcDbEntity
  8
1
  6
Continuous
 62
     7
370
    30
100
AcDbCircle
 10
-109.6159351336
 20
154.87936937105
 30
0.0
 40
0.8249999880790999
1001
Sigma
1000

  0
CIRCLE
  5
49D
330
1F
100
AcDbEntity
  8
1
  6
Continuous
 62
     7
370
    30
100
AcDbCircle
 10
-124.6159351336
 20
154.87936937105
 30
0.0
 40
0.8249999880790999
1001
Sigma
1000

  0
CIRCLE
  5
49F
330
1F
100
AcDbEntity
  8
1
  6
Continuous
 62
     7
370
    30
100
AcDbCircle
 10
-124.6159351336
 20
136.8793693710499
 30
0.0
 40
0.8249999880790999
1001
Sigma
1000

  0
CIRCLE
  5
4A1
330
1F
100
AcDbEntity
  8
5
  6
Continuous
 62
     7
370
    30
100
AcDbCircle
 10
-124.6159351336
 20
136.8793693710499
 30
0.0
 40
1.0
1001
Sigma
1000

  0
LINE
  5
4A4
102
{ACAD_REACTORS
330
4A3
102
}
330
1F
100
AcDbEntity
  8
5
  6
Continuous
 62
     7
370
    15
100
AcDbLine
 10
-91.89038116635
 20
121.24706937106
 30
0.0
 11
-74.06128085927
 21
121.24706937106
 31
0.0
1001
Sigma
1000

  0
LINE
  5
4A6
102
{ACAD_REACTORS
330
4A3
102
}
330
1F
100
AcDbEntity
  8
5
  6
Continuous
 62
     7
370
    15
100
AcDbLine
 10
-97.31716006475
 20
137.6293751656199
 30
0.0
 11
-91.89038116635
 21
121.24706937106
 31
0.0
1001
Sigma
1000

  0
TEXT
  5
4A8
102
{ACAD_REACTORS
330
4A3
102
}
330
1F
100
AcDbEntity
  8
5
  6
Continuous
 62
     7
370
    30
100
AcDbText
 10
-90.30766006430582
 20
122.2070647903041
 30
0.0
 40
2.880000042915344
  1
可変絞り部
 41
0.5645366077939182
  7
KCADTEXTSTANDARD
100
AcDbText
1001
Sigma
1000

  0
LINE
  5
4AA
102
{ACAD_REACTORS
330
4A3
102
}
330
1F
100
AcDbEntity
  8
5
  6
Continuous
 62
     7
370
    15
100
AcDbLine
 10
-97.31716006475
 20
137.6293751656199
 30
0.0
 11
-97.32306866285
 21
134.46710307295
 31
0.0
1001
Sigma
1000

  0
LINE
  5
4AC
102
{ACAD_REACTORS
330
4A3
102
}
330
1F
100
AcDbEntity
  8
5
  6
Continuous
 62
     7
370
    15
100
AcDbLine
 10
-97.31716006475
 20
137.6293751656199
 30
0.0
 11
-95.42452368755
 21
135.09601233263
 31
0.0
1001
Sigma
1000

  0
LINE
  5
4AE
102
{ACAD_REACTORS
330
4A3
102
}
330
1F
100
AcDbEntity
  8
5
  6
Continuous
 62
     7
370
    15
100
AcDbLine
 10
-97.31716006475
 20
137.6293751656199
 30
0.0
 11
-91.89038116635
 21
121.24706937106
 31
0.0
1001
Sigma
1000

  0
LINE
  5
4B1
102
{ACAD_REACTORS
330
4B0
102
}
330
1F
100
AcDbEntity
  8
5
  6
Continuous
 62
     7
370
    15
100
AcDbLine
 10
-90.76618116635
 20
167.76084437105
 30
0.0
 11
-63.86174476909
 21
167.76084437105
 31
0.0
1001
Sigma
1000

  0
LINE
  5
4B3
102
{ACAD_REACTORS
330
4B0
102
}
330
1F
100
AcDbEntity
  8
5
  6
Continuous
 62
     7
370
    15
100
AcDbLine
 10
-95.11591733604999
 20
156.62936376754
 30
0.0
 11
-90.76618116635
 21
167.76084437105
 31
0.0
1001
Sigma
1000

  0
TEXT
  5
4B5
102
{ACAD_REACTORS
330
4B0
102
}
330
1F
100
AcDbEntity
  8
5
  6
Continuous
 62
     7
370
    30
100
AcDbText
 10
-87.0157451348258
 20
168.7208452048041
 30
0.0
 40
2.880000042915344
  1
絞りロックビス
 41
0.5628227284130048
  7
KCADTEXTSTANDARD
100
AcDbText
1001
Sigma
1000

  0
LINE
  5
4B7
102
{ACAD_REACTORS
330
4B0
102
}
330
1F
100
AcDbEntity
  8
5
  6
Continuous
 62
     7
370
    15
100
AcDbLine
 10
-95.11591733604999
 20
156.62936376754
 30
0.0
 11
-93.09262400650998
 21
159.05964848387
 31
0.0
1001
Sigma
1000

  0
LINE
  5
4B9
102
{ACAD_REACTORS
330
4B0
102
}
330
1F
100
AcDbEntity
  8
5
  6
Continuous
 62
     7
370
    15
100
AcDbLine
 10
-95.11591733604999
 20
156.62936376754
 30
0.0
 11
-94.95545350225
 21
159.7875675383099
 31
0.0
1001
Sigma
1000

  0
LINE
  5
4BB
102
{ACAD_REACTORS
330
4B0
102
}
330
1F
100
AcDbEntity
  8
5
  6
Continuous
 62
     7
370
    15
100
AcDbLine
 10
-95.11591733604999
 20
156.62936376754
 30
0.0
 11
-90.76618116635
 21
167.76084437105
 31
0.0
1001
Sigma
1000

  0
POINT
  5
4BE
102
{ACAD_REACTORS
330
4BD
102
}
330
1F
100
AcDbEntity
  8
KCAD_DIMS
  6
Continuous
 62
     7
370
    15
100
AcDbPoint
 10
-214.896597833
 20
128.37936937106
 30
0.0
1001
Sigma
1000
DIM_NORM1
  0
POINT
  5
4C0
102
{ACAD_REACTORS
330
4BD
102
}
330
1F
100
AcDbEntity
  8
KCAD_DIMS
  6
Continuous
 62
     7
370
    15
100
AcDbPoint
 10
-208.8159397112
 20
128.37936937106
 30
0.0
1001
Sigma
1000
DIM_NORM1
  0
POINT
  5
4C2
102
{ACAD_REACTORS
330
4BD
102
}
330
1F
100
AcDbEntity
  8
KCAD_DIMS
  6
Continuous
 62
     7
370
    15
100
AcDbPoint
 10
-208.8159397112
 20
163.3793693710499
 30
0.0
1001
Sigma
1000
DIM_NORM1
  0
TEXT
  5
4C4
102
{ACAD_REACTORS
330
4BD
102
}
330
1F
100
AcDbEntity
  8
KCAD_DIMS
  6
Continuous
 62
     7
370
    30
100
AcDbText
 10
-215.871597833
 20
148.61952356871
 30
0.0
 40
1.220399999999999
  1
-0.1
 50
90.0
  7
KCADDIMSTANDARD
100
AcDbText
1001
Sigma
1000
DIM_NORM1
  0
TEXT
  5
4C6
102
{ACAD_REACTORS
330
4BD
102
}
330
1F
100
AcDbEntity
  8
KCAD_DIMS
  6
Continuous
 62
     7
370
    30
100
AcDbText
 10
-218.1215978926
 20
148.61952356871
 30
0.0
 40
1.220399999999999
  1
 0
 50
90.0
  7
KCADDIMSTANDARD
100
AcDbText
1001
Sigma
1000
DIM_NORM1
  0
TEXT
  5
4C8
102
{ACAD_REACTORS
330
4BD
102
}
330
1F
100
AcDbEntity
  8
KCAD_DIMS
  6
Continuous
 62
     7
370
    30
100
AcDbText
 10
-216.0965978329999
 20
139.7395233899
 30
0.0
 40
2.440799999999999
  1
%%c70
 50
90.0
  7
KCADDIMSTANDARD
100
AcDbText
1001
Sigma
1000
DIM_NORM1
  0
LINE
  5
4CA
102
{ACAD_REACTORS
330
4BD
102
}
330
1F
100
AcDbEntity
  8
KCAD_DIMS
  6
Continuous
 62
     7
370
    15
100
AcDbLine
 10
-209.8159396962
 20
128.37936937106
 30
0.0
 11
-215.8965978329999
 21
128.37936937106
 31
0.0
1001
Sigma
1000
DIM_NORM1
  0
LINE
  5
4CC
102
{ACAD_REACTORS
330
4BD
102
}
330
1F
100
AcDbEntity
  8
KCAD_DIMS
  6
Continuous
 62
     7
370
    15
100
AcDbLine
 10
-209.8159396962
 20
163.3793693710499
 30
0.0
 11
-215.8965978329999
 21
163.3793693710499
 31
0.0
1001
Sigma
1000
DIM_NORM1
  0
LINE
  5
4CE
102
{ACAD_REACTORS
330
4BD
102
}
330
1F
100
AcDbEntity
  8
KCAD_DIMS
  6
Continuous
 62
     7
370
    15
100
AcDbLine
 10
-214.896597833
 20
128.37936937106
 30
0.0
 11
-214.896597833
 21
131.3793693259999
 31
0.0
1001
Sigma
1000
DIM_NORM1
  0
LINE
  5
4D0
102
{ACAD_REACTORS
330
4BD
102
}
330
1F
100
AcDbEntity
  8
KCAD_DIMS
  6
Continuous
 62
     7
370
    15
100
AcDbLine
 10
-214.896597833
 20
128.37936937106
 30
0.0
 11
-213.8965978479999
 21
131.3793693259999
 31
0.0
1001
Sigma
1000
DIM_NORM1
  0
LINE
  5
4D2
102
{ACAD_REACTORS
330
4BD
102
}
330
1F
100
AcDbEntity
  8
KCAD_DIMS
  6
Continuous
 62
     7
370
    15
100
AcDbLine
 10
-214.896597833
 20
128.37936937106
 30
0.0
 11
-215.8965978178999
 21
131.3793693259999
 31
0.0
1001
Sigma
1000
DIM_NORM1
  0
LINE
  5
4D4
102
{ACAD_REACTORS
330
4BD
102
}
330
1F
100
AcDbEntity
  8
KCAD_DIMS
  6
Continuous
 62
     7
370
    15
100
AcDbLine
 10
-214.896597833
 20
163.3793693710499
 30
0.0
 11
-214.896597833
 21
160.3793694161099
 31
0.0
1001
Sigma
1000
DIM_NORM1
  0
LINE
  5
4D6
102
{ACAD_REACTORS
330
4BD
102
}
330
1F
100
AcDbEntity
  8
KCAD_DIMS
  6
Continuous
 62
     7
370
    15
100
AcDbLine
 10
-214.896597833
 20
163.3793693710499
 30
0.0
 11
-215.8965978178999
 21
160.3793694161099
 31
0.0
1001
Sigma
1000
DIM_NORM1
  0
LINE
  5
4D8
102
{ACAD_REACTORS
330
4BD
102
}
330
1F
100
AcDbEntity
  8
KCAD_DIMS
  6
Continuous
 62
     7
370
    15
100
AcDbLine
 10
-214.896597833
 20
163.3793693710499
 30
0.0
 11
-213.8965978479999
 21
160.3793694161099
 31
0.0
1001
Sigma
1000
DIM_NORM1
  0
LINE
  5
4DA
102
{ACAD_REACTORS
330
4BD
102
}
330
1F
100
AcDbEntity
  8
KCAD_DIMS
  6
Continuous
 62
     7
370
    15
100
AcDbLine
 10
-214.896597833
 20
160.3793694161099
 30
0.0
 11
-214.896597833
 21
131.3793693259999
 31
0.0
1001
Sigma
1000
DIM_NORM1
  0
POINT
  5
4DD
102
{ACAD_REACTORS
330
4DC
102
}
330
1F
100
AcDbEntity
  8
KCAD_DIMS
  6
Continuous
 62
     7
370
    15
100
AcDbPoint
 10
-135.4300067888999
 20
154.87936937105
 30
0.0
1001
Sigma
1000
DIM_NORM1
  0
POINT
  5
4DF
102
{ACAD_REACTORS
330
4DC
102
}
330
1F
100
AcDbEntity
  8
KCAD_DIMS
  6
Continuous
 62
     7
370
    15
100
AcDbPoint
 10
-126.2932575213
 20
154.87936937105
 30
0.0
1001
Sigma
1000
DIM_NORM1
  0
POINT
  5
4E1
102
{ACAD_REACTORS
330
4DC
102
}
330
1F
100
AcDbEntity
  8
KCAD_DIMS
  6
Continuous
 62
     7
370
    15
100
AcDbPoint
 10
-126.2932575213
 20
136.8793693710499
 30
0.0
1001
Sigma
1000
DIM_NORM1
  0
TEXT
  5
4E3
102
{ACAD_REACTORS
330
4DC
102
}
330
1F
100
AcDbEntity
  8
KCAD_DIMS
  6
Continuous
 62
     7
370
    30
100
AcDbText
 10
-136.6300067888999
 20
143.54780681264
 30
0.0
 40
2.440799999999999
  1
36
 50
90.0
  7
KCADDIMSTANDARD
100
AcDbText
1001
Sigma
1000
DIM_NORM1
  0
LINE
  5
4E5
102
{ACAD_REACTORS
330
4DC
102
}
330
1F
100
AcDbEntity
  8
KCAD_DIMS
  6
Continuous
 62
     7
370
    15
100
AcDbLine
 10
-127.2932575063
 20
154.87936937105
 30
0.0
 11
-135.9300067888999
 21
154.87936937105
 31
0.0
1001
Sigma
1000
DIM_NORM1
  0
LINE
  5
4E7
102
{ACAD_REACTORS
330
4DC
102
}
330
1F
100
AcDbEntity
  8
KCAD_DIMS
  6
Continuous
 62
     7
370
    15
100
AcDbLine
 10
-127.2932575063
 20
136.8793693710499
 30
0.0
 11
-135.9300067888999
 21
136.8793693710499
 31
0.0
1001
Sigma
1000
DIM_NORM1
  0
LINE
  5
4E9
102
{ACAD_REACTORS
330
4DC
102
}
330
1F
100
AcDbEntity
  8
KCAD_DIMS
  6
Continuous
 62
     7
370
    15
100
AcDbLine
 10
-135.4300067888999
 20
154.87936937105
 30
0.0
 11
-135.4300067888999
 21
151.8793694161099
 31
0.0
1001
Sigma
1000
DIM_NORM1
  0
LINE
  5
4EB
102
{ACAD_REACTORS
330
4DC
102
}
330
1F
100
AcDbEntity
  8
KCAD_DIMS
  6
Continuous
 62
     7
370
    15
100
AcDbLine
 10
-135.4300067888999
 20
154.87936937105
 30
0.0
 11
-136.4300067737999
 21
151.8793694161099
 31
0.0
1001
Sigma
1000
DIM_NORM1
  0
LINE
  5
4ED
102
{ACAD_REACTORS
330
4DC
102
}
330
1F
100
AcDbEntity
  8
KCAD_DIMS
  6
Continuous
 62
     7
370
    15
100
AcDbLine
 10
-135.4300067888999
 20
154.87936937105
 30
0.0
 11
-134.4300068039
 21
151.8793694161099
 31
0.0
1001
Sigma
1000
DIM_NORM1
  0
LINE
  5
4EF
102
{ACAD_REACTORS
330
4DC
102
}
330
1F
100
AcDbEntity
  8
KCAD_DIMS
  6
Continuous
 62
     7
370
    15
100
AcDbLine
 10
-135.4300067888999
 20
136.8793693710499
 30
0.0
 11
-135.4300067888999
 21
139.8793693259999
 31
0.0
1001
Sigma
1000
DIM_NORM1
  0
LINE
  5
4F1
102
{ACAD_REACTORS
330
4DC
102
}
330
1F
100
AcDbEntity
  8
KCAD_DIMS
  6
Continuous
 62
     7
370
    15
100
AcDbLine
 10
-135.4300067888999
 20
136.8793693710499
 30
0.0
 11
-134.4300068039
 21
139.8793693259999
 31
0.0
1001
Sigma
1000
DIM_NORM1
  0
LINE
  5
4F3
102
{ACAD_REACTORS
330
4DC
102
}
330
1F
100
AcDbEntity
  8
KCAD_DIMS
  6
Continuous
 62
     7
370
    15
100
AcDbLine
 10
-135.4300067888999
 20
136.8793693710499
 30
0.0
 11
-136.4300067737999
 21
139.8793693259999
 31
0.0
1001
Sigma
1000
DIM_NORM1
  0
LINE
  5
4F5
102
{ACAD_REACTORS
330
4DC
102
}
330
1F
100
AcDbEntity
  8
KCAD_DIMS
  6
Continuous
 62
     7
370
    15
100
AcDbLine
 10
-135.4300067888999
 20
139.8793693259999
 30
0.0
 11
-135.4300067888999
 21
151.8793694161099
 31
0.0
1001
Sigma
1000
DIM_NORM1
  0
POINT
  5
4F8
102
{ACAD_REACTORS
330
4F7
102
}
330
1F
100
AcDbEntity
  8
KCAD_DIMS
  6
Continuous
 62
     7
370
    15
100
AcDbPoint
 10
-115.1159351336
 20
113.03436870305
 30
0.0
1001
Sigma
1000
DIM_NORM1
  0
POINT
  5
4FA
102
{ACAD_REACTORS
330
4F7
102
}
330
1F
100
AcDbEntity
  8
KCAD_DIMS
  6
Continuous
 62
     7
370
    15
100
AcDbPoint
 10
-115.1159351336
 20
120.8793693710599
 30
0.0
1001
Sigma
1000
DIM_NORM1
  0
POINT
  5
4FC
102
{ACAD_REACTORS
330
4F7
102
}
330
1F
100
AcDbEntity
  8
KCAD_DIMS
  6
Continuous
 62
     7
370
    15
100
AcDbPoint
 10
-119.1159351336
 20
120.8793693710599
 30
0.0
1001
Sigma
1000
DIM_NORM1
  0
TEXT
  5
4FE
102
{ACAD_REACTORS
330
4F7
102
}
330
1F
100
AcDbEntity
  8
KCAD_DIMS
  6
Continuous
 62
     7
370
    30
100
AcDbText
 10
-119.4376164534999
 20
114.23436870305
 30
0.0
 40
2.440799999999999
  1
%%c8
  7
KCADDIMSTANDARD
100
AcDbText
1001
Sigma
1000
DIM_NORM1
  0
LINE
  5
500
102
{ACAD_REACTORS
330
4F7
102
}
330
1F
100
AcDbEntity
  8
KCAD_DIMS
  6
Continuous
 62
     7
370
    15
100
AcDbLine
 10
-115.1159351336
 20
119.8793693860699
 30
0.0
 11
-115.1159351336
 21
112.03436870305
 31
0.0
1001
Sigma
1000
DIM_NORM1
  0
LINE
  5
502
102
{ACAD_REACTORS
330
4F7
102
}
330
1F
100
AcDbEntity
  8
KCAD_DIMS
  6
Continuous
 62
     7
370
    15
100
AcDbLine
 10
-119.1159351336
 20
119.8793693860699
 30
0.0
 11
-119.1159351336
 21
112.03436870305
 31
0.0
1001
Sigma
1000
DIM_NORM1
  0
LINE
  5
504
102
{ACAD_REACTORS
330
4F7
102
}
330
1F
100
AcDbEntity
  8
KCAD_DIMS
  6
Continuous
 62
     7
370
    15
100
AcDbLine
 10
-112.1159351785999
 20
113.03436870305
 30
0.0
 11
-108.765935229
 21
113.03436870305
 31
0.0
1001
Sigma
1000
DIM_NORM1
  0
LINE
  5
506
102
{ACAD_REACTORS
330
4F7
102
}
330
1F
100
AcDbEntity
  8
KCAD_DIMS
  6
Continuous
 62
     7
370
    15
100
AcDbLine
 10
-115.1159351336
 20
113.03436870305
 30
0.0
 11
-112.1159351785999
 21
113.03436870305
 31
0.0
1001
Sigma
1000
DIM_NORM1
  0
LINE
  5
508
102
{ACAD_REACTORS
330
4F7
102
}
330
1F
100
AcDbEntity
  8
KCAD_DIMS
  6
Continuous
 62
     7
370
    15
100
AcDbLine
 10
-115.1159351336
 20
113.03436870305
 30
0.0
 11
-112.1159351785999
 21
112.0343687180699
 31
0.0
1001
Sigma
1000
DIM_NORM1
  0
LINE
  5
50A
102
{ACAD_REACTORS
330
4F7
102
}
330
1F
100
AcDbEntity
  8
KCAD_DIMS
  6
Continuous
 62
     7
370
    15
100
AcDbLine
 10
-115.1159351336
 20
113.03436870305
 30
0.0
 11
-112.1159351785999
 21
114.03436868803
 31
0.0
1001
Sigma
1000
DIM_NORM1
  0
LINE
  5
50C
102
{ACAD_REACTORS
330
4F7
102
}
330
1F
100
AcDbEntity
  8
KCAD_DIMS
  6
Continuous
 62
     7
370
    15
100
AcDbLine
 10
-122.1159350885
 20
113.03436870305
 30
0.0
 11
-125.4659350382
 21
113.03436870305
 31
0.0
1001
Sigma
1000
DIM_NORM1
  0
LINE
  5
50E
102
{ACAD_REACTORS
330
4F7
102
}
330
1F
100
AcDbEntity
  8
KCAD_DIMS
  6
Continuous
 62
     7
370
    15
100
AcDbLine
 10
-119.1159351336
 20
113.03436870305
 30
0.0
 11
-122.1159350885
 21
113.03436870305
 31
0.0
1001
Sigma
1000
DIM_NORM1
  0
LINE
  5
510
102
{ACAD_REACTORS
330
4F7
102
}
330
1F
100
AcDbEntity
  8
KCAD_DIMS
  6
Continuous
 62
     7
370
    15
100
AcDbLine
 10
-119.1159351336
 20
113.03436870305
 30
0.0
 11
-122.1159350885
 21
114.03436868803
 31
0.0
1001
Sigma
1000
DIM_NORM1
  0
LINE
  5
512
102
{ACAD_REACTORS
330
4F7
102
}
330
1F
100
AcDbEntity
  8
KCAD_DIMS
  6
Continuous
 62
     7
370
    15
100
AcDbLine
 10
-119.1159351336
 20
113.03436870305
 30
0.0
 11
-122.1159350885
 21
112.0343687180699
 31
0.0
1001
Sigma
1000
DIM_NORM1
  0
LINE
  5
514
102
{ACAD_REACTORS
330
4F7
102
}
330
1F
100
AcDbEntity
  8
KCAD_DIMS
  6
Continuous
 62
     7
370
    15
100
AcDbLine
 10
-119.1159351336
 20
113.03436870305
 30
0.0
 11
-115.1159351336
 21
113.03436870305
 31
0.0
1001
Sigma
1000
DIM_NORM1
  0
POINT
  5
517
102
{ACAD_REACTORS
330
516
102
}
330
1F
100
AcDbEntity
  8
KCAD_DIMS
  6
Continuous
 62
     7
370
    15
100
AcDbPoint
 10
-113.6159351335999
 20
106.43599206645
 30
0.0
1001
Sigma
1000
DIM_NORM1
  0
POINT
  5
519
102
{ACAD_REACTORS
330
516
102
}
330
1F
100
AcDbEntity
  8
KCAD_DIMS
  6
Continuous
 62
     7
370
    15
100
AcDbPoint
 10
-113.6159351335999
 20
120.8793693710599
 30
0.0
1001
Sigma
1000
DIM_NORM1
  0
POINT
  5
51B
102
{ACAD_REACTORS
330
516
102
}
330
1F
100
AcDbEntity
  8
KCAD_DIMS
  6
Continuous
 62
     7
370
    15
100
AcDbPoint
 10
-120.6159351336
 20
120.8793693710599
 30
0.0
1001
Sigma
1000
DIM_NORM1
  0
TEXT
  5
51D
102
{ACAD_REACTORS
330
516
102
}
330
1F
100
AcDbEntity
  8
KCAD_DIMS
  6
Continuous
 62
     7
370
    30
100
AcDbText
 10
-122.6070852709
 20
107.63599206645
 30
0.0
 40
2.440799999999999
  1
%%c14
  7
KCADDIMSTANDARD
100
AcDbText
1001
Sigma
1000
DIM_NORM1
  0
LINE
  5
51F
102
{ACAD_REACTORS
330
516
102
}
330
1F
100
AcDbEntity
  8
KCAD_DIMS
  6
Continuous
 62
     7
370
    15
100
AcDbLine
 10
-113.6159351335999
 20
119.8793693860699
 30
0.0
 11
-113.6159351335999
 21
105.43599206645
 31
0.0
1001
Sigma
1000
DIM_NORM1
  0
LINE
  5
521
102
{ACAD_REACTORS
330
516
102
}
330
1F
100
AcDbEntity
  8
KCAD_DIMS
  6
Continuous
 62
     7
370
    15
100
AcDbLine
 10
-120.6159351336
 20
119.8793693860699
 30
0.0
 11
-120.6159351336
 21
105.43599206645
 31
0.0
1001
Sigma
1000
DIM_NORM1
  0
LINE
  5
523
102
{ACAD_REACTORS
330
516
102
}
330
1F
100
AcDbEntity
  8
KCAD_DIMS
  6
Continuous
 62
     7
370
    15
100
AcDbLine
 10
-113.6159351335999
 20
106.43599206645
 30
0.0
 11
-116.6159350884999
 21
106.43599206645
 31
0.0
1001
Sigma
1000
DIM_NORM1
  0
LINE
  5
525
102
{ACAD_REACTORS
330
516
102
}
330
1F
100
AcDbEntity
  8
KCAD_DIMS
  6
Continuous
 62
     7
370
    15
100
AcDbLine
 10
-113.6159351335999
 20
106.43599206645
 30
0.0
 11
-116.6159350884999
 21
107.43599205143
 31
0.0
1001
Sigma
1000
DIM_NORM1
  0
LINE
  5
527
102
{ACAD_REACTORS
330
516
102
}
330
1F
100
AcDbEntity
  8
KCAD_DIMS
  6
Continuous
 62
     7
370
    15
100
AcDbLine
 10
-113.6159351335999
 20
106.43599206645
 30
0.0
 11
-116.6159350884999
 21
105.43599208147
 31
0.0
1001
Sigma
1000
DIM_NORM1
  0
LINE
  5
529
102
{ACAD_REACTORS
330
516
102
}
330
1F
100
AcDbEntity
  8
KCAD_DIMS
  6
Continuous
 62
     7
370
    15
100
AcDbLine
 10
-120.6159351336
 20
106.43599206645
 30
0.0
 11
-117.6159351786
 21
106.43599206645
 31
0.0
1001
Sigma
1000
DIM_NORM1
  0
LINE
  5
52B
102
{ACAD_REACTORS
330
516
102
}
330
1F
100
AcDbEntity
  8
KCAD_DIMS
  6
Continuous
 62
     7
370
    15
100
AcDbLine
 10
-120.6159351336
 20
106.43599206645
 30
0.0
 11
-117.6159351786
 21
105.43599208147
 31
0.0
1001
Sigma
1000
DIM_NORM1
  0
LINE
  5
52D
102
{ACAD_REACTORS
330
516
102
}
330
1F
100
AcDbEntity
  8
KCAD_DIMS
  6
Continuous
 62
     7
370
    15
100
AcDbLine
 10
-120.6159351336
 20
106.43599206645
 30
0.0
 11
-117.6159351786
 21
107.43599205143
 31
0.0
1001
Sigma
1000
DIM_NORM1
  0
LINE
  5
52F
102
{ACAD_REACTORS
330
516
102
}
330
1F
100
AcDbEntity
  8
KCAD_DIMS
  6
Continuous
 62
     7
370
    15
100
AcDbLine
 10
-117.6159351786
 20
106.43599206645
 30
0.0
 11
-116.6159350884999
 21
106.43599206645
 31
0.0
1001
Sigma
1000
DIM_NORM1
  0
POINT
  5
532
102
{ACAD_REACTORS
330
531
102
}
330
1F
100
AcDbEntity
  8
KCAD_DIMS
  6
Continuous
 62
     7
370
    15
100
AcDbPoint
 10
-103.5852573381999
 20
145.8793693710499
 30
0.0
1001
Sigma
1000
DIM_NORM1
  0
POINT
  5
534
102
{ACAD_REACTORS
330
531
102
}
330
1F
100
AcDbEntity
  8
KCAD_DIMS
  6
Continuous
 62
     7
370
    15
100
AcDbPoint
 10
-51.74010543698
 20
145.8793693710499
 30
0.0
1001
Sigma
1000
DIM_NORM1
  0
POINT
  5
536
102
{ACAD_REACTORS
330
531
102
}
330
1F
100
AcDbEntity
  8
KCAD_DIMS
  6
Continuous
 62
     7
370
    15
100
AcDbPoint
 10
-113.6159351335999
 20
120.8793693710599
 30
0.0
1001
Sigma
1000
DIM_NORM1
  0
TEXT
  5
538
102
{ACAD_REACTORS
330
531
102
}
330
1F
100
AcDbEntity
  8
KCAD_DIMS
  6
Continuous
 62
     7
370
    30
100
AcDbText
 10
-104.7852573381999
 20
126.3404551280699
 30
0.0
 40
2.440799999999999
  1
50
 50
90.0
  7
KCADDIMSTANDARD
100
AcDbText
1001
Sigma
1000
DIM_NORM1
  0
LINE
  5
53A
102
{ACAD_REACTORS
330
531
102
}
330
1F
100
AcDbEntity
  8
KCAD_DIMS
  6
Continuous
 62
     7
370
    15
100
AcDbLine
 10
-112.6159351485999
 20
120.8793693710599
 30
0.0
 11
-103.0852573381999
 21
120.8793693710599
 31
0.0
1001
Sigma
1000
DIM_NORM1
  0
LINE
  5
53C
102
{ACAD_REACTORS
330
531
102
}
330
1F
100
AcDbEntity
  8
KCAD_DIMS
  6
Continuous
 62
     7
370
    15
100
AcDbLine
 10
-103.5852573381999
 20
145.8793693710499
 30
0.0
 11
-103.5852573381999
 21
142.8793694161099
 31
0.0
1001
Sigma
1000
DIM_NORM1
  0
LINE
  5
53E
102
{ACAD_REACTORS
330
531
102
}
330
1F
100
AcDbEntity
  8
KCAD_DIMS
  6
Continuous
 62
     7
370
    15
100
AcDbLine
 10
-103.5852573381999
 20
145.8793693710499
 30
0.0
 11
-104.5852573232
 21
142.8793694161099
 31
0.0
1001
Sigma
1000
DIM_NORM1
  0
LINE
  5
540
102
{ACAD_REACTORS
330
531
102
}
330
1F
100
AcDbEntity
  8
KCAD_DIMS
  6
Continuous
 62
     7
370
    15
100
AcDbLine
 10
-103.5852573381999
 20
145.8793693710499
 30
0.0
 11
-102.5852573532
 21
142.8793694161099
 31
0.0
1001
Sigma
1000
DIM_NORM1
  0
LINE
  5
542
102
{ACAD_REACTORS
330
531
102
}
330
1F
100
AcDbEntity
  8
KCAD_DIMS
  6
Continuous
 62
     7
370
    15
100
AcDbLine
 10
-103.5852573381999
 20
120.8793693710599
 30
0.0
 11
-103.5852573381999
 21
123.879369326
 31
0.0
1001
Sigma
1000
DIM_NORM1
  0
LINE
  5
544
102
{ACAD_REACTORS
330
531
102
}
330
1F
100
AcDbEntity
  8
KCAD_DIMS
  6
Continuous
 62
     7
370
    15
100
AcDbLine
 10
-103.5852573381999
 20
120.8793693710599
 30
0.0
 11
-102.5852573532
 21
123.879369326
 31
0.0
1001
Sigma
1000
DIM_NORM1
  0
LINE
  5
546
102
{ACAD_REACTORS
330
531
102
}
330
1F
100
AcDbEntity
  8
KCAD_DIMS
  6
Continuous
 62
     7
370
    15
100
AcDbLine
 10
-103.5852573381999
 20
120.8793693710599
 30
0.0
 11
-104.5852573232
 21
123.879369326
 31
0.0
1001
Sigma
1000
DIM_NORM1
  0
LINE
  5
548
102
{ACAD_REACTORS
330
531
102
}
330
1F
100
AcDbEntity
  8
KCAD_DIMS
  6
Continuous
 62
     7
370
    15
100
AcDbLine
 10
-103.5852573381999
 20
123.879369326
 30
0.0
 11
-103.5852573381999
 21
142.8793694161099
 31
0.0
1001
Sigma
1000
DIM_NORM1
  0
POINT
  5
54B
102
{ACAD_REACTORS
330
54A
102
}
330
1F
100
AcDbEntity
  8
KCAD_DIMS
  6
Continuous
 62
     7
370
    15
100
AcDbPoint
 10
-141.4545982896
 20
133.3793693710599
 30
0.0
1001
Sigma
1000
DIM_NORM1
  0
POINT
  5
54D
102
{ACAD_REACTORS
330
54A
102
}
330
1F
100
AcDbEntity
  8
KCAD_DIMS
  6
Continuous
 62
     7
370
    15
100
AcDbPoint
 10
-128.1159351336
 20
133.3793693710599
 30
0.0
1001
Sigma
1000
DIM_NORM1
  0
POINT
  5
54F
102
{ACAD_REACTORS
330
54A
102
}
330
1F
100
AcDbEntity
  8
KCAD_DIMS
  6
Continuous
 62
     7
370
    15
100
AcDbPoint
 10
-128.1159351336
 20
158.3793693710499
 30
0.0
1001
Sigma
1000
DIM_NORM1
  0
TEXT
  5
551
102
{ACAD_REACTORS
330
54A
102
}
330
1F
100
AcDbEntity
  8
KCAD_DIMS
  6
Continuous
 62
     7
370
    30
100
AcDbText
 10
-142.6545982895999
 20
143.60483270189
 30
0.0
 40
2.440799999999999
  1
50
 50
90.0
  7
KCADDIMSTANDARD
100
AcDbText
1001
Sigma
1000
DIM_NORM1
  0
LINE
  5
553
102
{ACAD_REACTORS
330
54A
102
}
330
1F
100
AcDbEntity
  8
KCAD_DIMS
  6
Continuous
 62
     7
370
    15
100
AcDbLine
 10
-129.1159351185999
 20
133.3793693710599
 30
0.0
 11
-142.4545982896
 21
133.3793693710599
 31
0.0
1001
Sigma
1000
DIM_NORM1
  0
LINE
  5
555
102
{ACAD_REACTORS
330
54A
102
}
330
1F
100
AcDbEntity
  8
KCAD_DIMS
  6
Continuous
 62
     7
370
    15
100
AcDbLine
 10
-129.1159351185999
 20
158.3793693710499
 30
0.0
 11
-142.4545982896
 21
158.3793693710499
 31
0.0
1001
Sigma
1000
DIM_NORM1
  0
LINE
  5
557
102
{ACAD_REACTORS
330
54A
102
}
330
1F
100
AcDbEntity
  8
KCAD_DIMS
  6
Continuous
 62
     7
370
    15
100
AcDbLine
 10
-141.4545982896
 20
133.3793693710599
 30
0.0
 11
-141.4545982896
 21
136.3793693259999
 31
0.0
1001
Sigma
1000
DIM_NORM1
  0
LINE
  5
559
102
{ACAD_REACTORS
330
54A
102
}
330
1F
100
AcDbEntity
  8
KCAD_DIMS
  6
Continuous
 62
     7
370
    15
100
AcDbLine
 10
-141.4545982896
 20
133.3793693710599
 30
0.0
 11
-140.4545983046999
 21
136.3793693259999
 31
0.0
1001
Sigma
1000
DIM_NORM1
  0
LINE
  5
55B
102
{ACAD_REACTORS
330
54A
102
}
330
1F
100
AcDbEntity
  8
KCAD_DIMS
  6
Continuous
 62
     7
370
    15
100
AcDbLine
 10
-141.4545982896
 20
133.3793693710599
 30
0.0
 11
-142.4545982745999
 21
136.3793693259999
 31
0.0
1001
Sigma
1000
DIM_NORM1
  0
LINE
  5
55D
102
{ACAD_REACTORS
330
54A
102
}
330
1F
100
AcDbEntity
  8
KCAD_DIMS
  6
Continuous
 62
     7
370
    15
100
AcDbLine
 10
-141.4545982896
 20
158.3793693710499
 30
0.0
 11
-141.4545982896
 21
155.3793694161099
 31
0.0
1001
Sigma
1000
DIM_NORM1
  0
LINE
  5
55F
102
{ACAD_REACTORS
330
54A
102
}
330
1F
100
AcDbEntity
  8
KCAD_DIMS
  6
Continuous
 62
     7
370
    15
100
AcDbLine
 10
-141.4545982896
 20
158.3793693710499
 30
0.0
 11
-142.4545982745999
 21
155.3793694161099
 31
0.0
1001
Sigma
1000
DIM_NORM1
  0
LINE
  5
561
102
{ACAD_REACTORS
330
54A
102
}
330
1F
100
AcDbEntity
  8
KCAD_DIMS
  6
Continuous
 62
     7
370
    15
100
AcDbLine
 10
-141.4545982896
 20
158.3793693710499
 30
0.0
 11
-140.4545983046999
 21
155.3793694161099
 31
0.0
1001
Sigma
1000
DIM_NORM1
  0
LINE
  5
563
102
{ACAD_REACTORS
330
54A
102
}
330
1F
100
AcDbEntity
  8
KCAD_DIMS
  6
Continuous
 62
     7
370
    15
100
AcDbLine
 10
-141.4545982896
 20
155.3793694161099
 30
0.0
 11
-141.4545982896
 21
136.3793693259999
 31
0.0
1001
Sigma
1000
DIM_NORM1
  0
LINE
  5
566
102
{ACAD_REACTORS
330
565
102
}
330
1F
100
AcDbEntity
  8
5
  6
Continuous
 62
     7
370
    15
100
AcDbLine
 10
-122.3586394995999
 20
147.57016103772
 30
0.0
 11
-107.7295392401999
 21
147.57016103772
 31
0.0
1001
Sigma
1000

  0
LINE
  5
568
102
{ACAD_REACTORS
330
565
102
}
330
1F
100
AcDbEntity
  8
5
  6
Continuous
 62
     7
370
    15
100
AcDbLine
 10
-124.141098188
 20
153.99928923587
 30
0.0
 11
-122.3586394995999
 21
147.57016103772
 31
0.0
1001
Sigma
1000

  0
TEXT
  5
56A
102
{ACAD_REACTORS
330
565
102
}
330
1F
100
AcDbEntity
  8
5
  6
Continuous
 62
     7
370
    30
100
AcDbText
 10
-120.4427766998853
 20
148.8501543420025
 30
0.0
 40
2.603520038795471
  1
8-M4
 41
0.8804073553939398
  7
KCADTEXTSTANDARD
100
AcDbText
1001
Sigma
1000

  0
LINE
  5
56C
102
{ACAD_REACTORS
330
565
102
}
330
1F
100
AcDbEntity
  8
5
  6
Continuous
 62
     7
370
    15
100
AcDbLine
 10
-124.141098188
 20
153.99928923587
 30
0.0
 11
-124.3032399237
 21
150.8411711637899
 31
0.0
1001
Sigma
1000

  0
LINE
  5
56E
102
{ACAD_REACTORS
330
565
102
}
330
1F
100
AcDbEntity
  8
5
  6
Continuous
 62
     7
370
    15
100
AcDbLine
 10
-124.141098188
 20
153.99928923587
 30
0.0
 11
-122.3759407333
 21
151.3755097367799
 31
0.0
1001
Sigma
1000

  0
LINE
  5
570
102
{ACAD_REACTORS
330
565
102
}
330
1F
100
AcDbEntity
  8
5
  6
Continuous
 62
     7
370
    15
100
AcDbLine
 10
-124.141098188
 20
153.99928923587
 30
0.0
 11
-122.3586394995999
 21
147.57016103772
 31
0.0
1001
Sigma
1000

  0
POINT
  5
573
102
{ACAD_REACTORS
330
572
102
}
330
1F
100
AcDbEntity
  8
KCAD_DIMS
  6
Continuous
 62
     7
370
    15
100
AcDbPoint
 10
-45.25258447296
 20
139.52937089693
 30
0.0
1001
Sigma
1000
DIM_NORM1
  0
POINT
  5
575
102
{ACAD_REACTORS
330
572
102
}
330
1F
100
AcDbEntity
  8
KCAD_DIMS
  6
Continuous
 62
     7
370
    15
100
AcDbPoint
 10
-59.46592979306
 20
139.52937089693
 30
0.0
1001
Sigma
1000
DIM_NORM1
  0
POINT
  5
577
102
{ACAD_REACTORS
330
572
102
}
330
1F
100
AcDbEntity
  8
KCAD_DIMS
  6
Continuous
 62
     7
370
    15
100
AcDbPoint
 10
-59.46592979306
 20
152.22936784517
 30
0.0
1001
Sigma
1000
DIM_NORM1
  0
TEXT
  5
579
102
{ACAD_REACTORS
330
572
102
}
330
1F
100
AcDbEntity
  8
KCAD_DIMS
  6
Continuous
 62
     7
370
    30
100
AcDbText
 10
-46.15258447296
 20
138.9578067232299
 30
0.0
 40
2.7
  1
Ｃマウント
 50
90.0
 41
0.5645365595817565
  7
KCADDIMSTANDARD
100
AcDbText
1001
Sigma
1000
DIM_NORM1
  0
LINE
  5
57B
102
{ACAD_REACTORS
330
572
102
}
330
1F
100
AcDbEntity
  8
KCAD_DIMS
  6
Continuous
 62
     7
370
    15
100
AcDbLine
 10
-58.46592980808
 20
139.52937089693
 30
0.0
 11
-44.25258447296
 21
139.52937089693
 31
0.0
1001
Sigma
1000
DIM_NORM1
  0
LINE
  5
57D
102
{ACAD_REACTORS
330
572
102
}
330
1F
100
AcDbEntity
  8
KCAD_DIMS
  6
Continuous
 62
     7
370
    15
100
AcDbLine
 10
-58.46592980808
 20
152.22936784517
 30
0.0
 11
-44.25258447296
 21
152.22936784517
 31
0.0
1001
Sigma
1000
DIM_NORM1
  0
LINE
  5
57F
102
{ACAD_REACTORS
330
572
102
}
330
1F
100
AcDbEntity
  8
KCAD_DIMS
  6
Continuous
 62
     7
370
    15
100
AcDbLine
 10
-45.25258447296
 20
139.52937089693
 30
0.0
 11
-45.25258447296
 21
142.5293708518799
 31
0.0
1001
Sigma
1000
DIM_NORM1
  0
LINE
  5
581
102
{ACAD_REACTORS
330
572
102
}
330
1F
100
AcDbEntity
  8
KCAD_DIMS
  6
Continuous
 62
     7
370
    15
100
AcDbLine
 10
-45.25258447296
 20
139.52937089693
 30
0.0
 11
-44.25258448798
 21
142.5293708518799
 31
0.0
1001
Sigma
1000
DIM_NORM1
  0
LINE
  5
583
102
{ACAD_REACTORS
330
572
102
}
330
1F
100
AcDbEntity
  8
KCAD_DIMS
  6
Continuous
 62
     7
370
    15
100
AcDbLine
 10
-45.25258447296
 20
139.52937089693
 30
0.0
 11
-46.25258445794
 21
142.5293708518799
 31
0.0
1001
Sigma
1000
DIM_NORM1
  0
LINE
  5
585
102
{ACAD_REACTORS
330
572
102
}
330
1F
100
AcDbEntity
  8
KCAD_DIMS
  6
Continuous
 62
     7
370
    15
100
AcDbLine
 10
-45.25258447296
 20
152.22936784517
 30
0.0
 11
-45.25258447296
 21
149.2293678902299
 31
0.0
1001
Sigma
1000
DIM_NORM1
  0
LINE
  5
587
102
{ACAD_REACTORS
330
572
102
}
330
1F
100
AcDbEntity
  8
KCAD_DIMS
  6
Continuous
 62
     7
370
    15
100
AcDbLine
 10
-45.25258447296
 20
152.22936784517
 30
0.0
 11
-46.25258445794
 21
149.2293678902299
 31
0.0
1001
Sigma
1000
DIM_NORM1
  0
LINE
  5
589
102
{ACAD_REACTORS
330
572
102
}
330
1F
100
AcDbEntity
  8
KCAD_DIMS
  6
Continuous
 62
     7
370
    15
100
AcDbLine
 10
-45.25258447296
 20
152.22936784517
 30
0.0
 11
-44.25258448798
 21
149.2293678902299
 31
0.0
1001
Sigma
1000
DIM_NORM1
  0
LINE
  5
58B
102
{ACAD_REACTORS
330
572
102
}
330
1F
100
AcDbEntity
  8
KCAD_DIMS
  6
Continuous
 62
     7
370
    15
100
AcDbLine
 10
-45.25258447296
 20
149.2293678902299
 30
0.0
 11
-45.25258447296
 21
142.5293708518799
 31
0.0
1001
Sigma
1000
DIM_NORM1
  0
POINT
  5
58E
102
{ACAD_REACTORS
330
58D
102
}
330
1F
100
AcDbEntity
  8
KCAD_DIMS
  6
Continuous
 62
     7
370
    15
100
AcDbPoint
 10
-39.14890711825
 20
138.6293693710499
 30
0.0
1001
Sigma
1000
DIM_NORM1
  0
POINT
  5
590
102
{ACAD_REACTORS
330
58D
102
}
330
1F
100
AcDbEntity
  8
KCAD_DIMS
  6
Continuous
 62
     7
370
    15
100
AcDbPoint
 10
-61.46593360776
 20
138.6293693710499
 30
0.0
1001
Sigma
1000
DIM_NORM1
  0
POINT
  5
592
102
{ACAD_REACTORS
330
58D
102
}
330
1F
100
AcDbEntity
  8
KCAD_DIMS
  6
Continuous
 62
     7
370
    15
100
AcDbPoint
 10
-61.46592979305999
 20
153.1293693710499
 30
0.0
1001
Sigma
1000
DIM_NORM1
  0
TEXT
  5
594
102
{ACAD_REACTORS
330
58D
102
}
330
1F
100
AcDbEntity
  8
KCAD_DIMS
  6
Continuous
 62
     7
370
    30
100
AcDbText
 10
-40.12390711825
 20
147.92780690205
 30
0.0
 40
1.220399999999999
  1
-0.1
 50
90.0
  7
KCADDIMSTANDARD
100
AcDbText
1001
Sigma
1000
DIM_NORM1
  0
TEXT
  5
596
102
{ACAD_REACTORS
330
58D
102
}
330
1F
100
AcDbEntity
  8
KCAD_DIMS
  6
Continuous
 62
     7
370
    30
100
AcDbText
 10
-42.37390711825
 20
147.92780690205
 30
0.0
 40
1.220399999999999
  1
 0
 50
90.0
  7
KCADDIMSTANDARD
100
AcDbText
1001
Sigma
1000
DIM_NORM1
  0
TEXT
  5
598
102
{ACAD_REACTORS
330
58D
102
}
330
1F
100
AcDbEntity
  8
KCAD_DIMS
  6
Continuous
 62
     7
370
    30
100
AcDbText
 10
-40.34890711825
 20
139.04780672323
 30
0.0
 40
2.440799999999999
  1
%%c29
 50
90.0
  7
KCADDIMSTANDARD
100
AcDbText
1001
Sigma
1000
DIM_NORM1
  0
LINE
  5
59A
102
{ACAD_REACTORS
330
58D
102
}
330
1F
100
AcDbEntity
  8
KCAD_DIMS
  6
Continuous
 62
     7
370
    15
100
AcDbLine
 10
-60.46593362277
 20
138.6293693710499
 30
0.0
 11
-38.14890711825
 21
138.6293693710499
 31
0.0
1001
Sigma
1000
DIM_NORM1
  0
LINE
  5
59C
102
{ACAD_REACTORS
330
58D
102
}
330
1F
100
AcDbEntity
  8
KCAD_DIMS
  6
Continuous
 62
     7
370
    15
100
AcDbLine
 10
-60.46592980808
 20
153.1293693710499
 30
0.0
 11
-38.14890711825
 21
153.1293693710499
 31
0.0
1001
Sigma
1000
DIM_NORM1
  0
LINE
  5
59E
102
{ACAD_REACTORS
330
58D
102
}
330
1F
100
AcDbEntity
  8
KCAD_DIMS
  6
Continuous
 62
     7
370
    15
100
AcDbLine
 10
-39.14890711825
 20
138.6293693710499
 30
0.0
 11
-39.14890711825
 21
141.6293693259999
 31
0.0
1001
Sigma
1000
DIM_NORM1
  0
LINE
  5
5A0
102
{ACAD_REACTORS
330
58D
102
}
330
1F
100
AcDbEntity
  8
KCAD_DIMS
  6
Continuous
 62
     7
370
    15
100
AcDbLine
 10
-39.14890711825
 20
138.6293693710499
 30
0.0
 11
-38.14890713327
 21
141.6293693259999
 31
0.0
1001
Sigma
1000
DIM_NORM1
  0
LINE
  5
5A2
102
{ACAD_REACTORS
330
58D
102
}
330
1F
100
AcDbEntity
  8
KCAD_DIMS
  6
Continuous
 62
     7
370
    15
100
AcDbLine
 10
-39.14890711825
 20
138.6293693710499
 30
0.0
 11
-40.14890710323999
 21
141.6293693259999
 31
0.0
1001
Sigma
1000
DIM_NORM1
  0
LINE
  5
5A4
102
{ACAD_REACTORS
330
58D
102
}
330
1F
100
AcDbEntity
  8
KCAD_DIMS
  6
Continuous
 62
     7
370
    15
100
AcDbLine
 10
-39.14890711825
 20
153.1293693710499
 30
0.0
 11
-39.14890711825
 21
150.1293694161099
 31
0.0
1001
Sigma
1000
DIM_NORM1
  0
LINE
  5
5A6
102
{ACAD_REACTORS
330
58D
102
}
330
1F
100
AcDbEntity
  8
KCAD_DIMS
  6
Continuous
 62
     7
370
    15
100
AcDbLine
 10
-39.14890711825
 20
153.1293693710499
 30
0.0
 11
-40.14890710323999
 21
150.1293694161099
 31
0.0
1001
Sigma
1000
DIM_NORM1
  0
LINE
  5
5A8
102
{ACAD_REACTORS
330
58D
102
}
330
1F
100
AcDbEntity
  8
KCAD_DIMS
  6
Continuous
 62
     7
370
    15
100
AcDbLine
 10
-39.14890711825
 20
153.1293693710499
 30
0.0
 11
-38.14890713327
 21
150.1293694161099
 31
0.0
1001
Sigma
1000
DIM_NORM1
  0
LINE
  5
5AA
102
{ACAD_REACTORS
330
58D
102
}
330
1F
100
AcDbEntity
  8
KCAD_DIMS
  6
Continuous
 62
     7
370
    15
100
AcDbLine
 10
-39.14890711825
 20
150.1293694161099
 30
0.0
 11
-39.14890711825
 21
141.6293693259999
 31
0.0
1001
Sigma
1000
DIM_NORM1
  0
POINT
  5
5AD
102
{ACAD_REACTORS
330
5AC
102
}
330
1F
100
AcDbEntity
  8
KCAD_DIMS
  6
Continuous
 62
     7
370
    15
100
AcDbPoint
 10
-124.6159351336
 20
167.6992441205499
 30
0.0
1001
Sigma
1000
DIM_NORM1
  0
POINT
  5
5AF
102
{ACAD_REACTORS
330
5AC
102
}
330
1F
100
AcDbEntity
  8
KCAD_DIMS
  6
Continuous
 62
     7
370
    15
100
AcDbPoint
 10
-124.6159351336
 20
156.6406913925399
 30
0.0
1001
Sigma
1000
DIM_NORM1
  0
POINT
  5
5B1
102
{ACAD_REACTORS
330
5AC
102
}
330
1F
100
AcDbEntity
  8
KCAD_DIMS
  6
Continuous
 62
     7
370
    15
100
AcDbPoint
 10
-128.1159351336
 20
158.3793693710499
 30
0.0
1001
Sigma
1000
DIM_NORM1
  0
TEXT
  5
5B3
102
{ACAD_REACTORS
330
5AC
102
}
330
1F
100
AcDbEntity
  8
KCAD_DIMS
  6
Continuous
 62
     7
370
    30
100
AcDbText
 10
-127.1974976622
 20
168.8992441205499
 30
0.0
 40
2.440799999999999
  1
7
  7
KCADDIMSTANDARD
100
AcDbText
1001
Sigma
1000
DIM_NORM1
  0
LINE
  5
5B5
102
{ACAD_REACTORS
330
5AC
102
}
330
1F
100
AcDbEntity
  8
KCAD_DIMS
  6
Continuous
 62
     7
370
    15
100
AcDbLine
 10
-124.6159351336
 20
157.6406913775199
 30
0.0
 11
-124.6159351336
 21
168.6992441205499
 31
0.0
1001
Sigma
1000
DIM_NORM1
  0
LINE
  5
5B7
102
{ACAD_REACTORS
330
5AC
102
}
330
1F
100
AcDbEntity
  8
KCAD_DIMS
  6
Continuous
 62
     7
370
    15
100
AcDbLine
 10
-131.1159350885
 20
167.6992441205499
 30
0.0
 11
-134.4659350382
 21
167.6992441205499
 31
0.0
1001
Sigma
1000
DIM_NORM1
  0
LINE
  5
5B9
102
{ACAD_REACTORS
330
5AC
102
}
330
1F
100
AcDbEntity
  8
KCAD_DIMS
  6
Continuous
 62
     7
370
    15
100
AcDbLine
 10
-128.1159351336
 20
167.6992441205499
 30
0.0
 11
-131.1159350885
 21
167.6992441205499
 31
0.0
1001
Sigma
1000
DIM_NORM1
  0
LINE
  5
5BB
102
{ACAD_REACTORS
330
5AC
102
}
330
1F
100
AcDbEntity
  8
KCAD_DIMS
  6
Continuous
 62
     7
370
    15
100
AcDbLine
 10
-128.1159351336
 20
167.6992441205499
 30
0.0
 11
-131.1159350885
 21
168.69924410553
 31
0.0
1001
Sigma
1000
DIM_NORM1
  0
LINE
  5
5BD
102
{ACAD_REACTORS
330
5AC
102
}
330
1F
100
AcDbEntity
  8
KCAD_DIMS
  6
Continuous
 62
     7
370
    15
100
AcDbLine
 10
-128.1159351336
 20
167.6992441205499
 30
0.0
 11
-131.1159350885
 21
166.69924413557
 31
0.0
1001
Sigma
1000
DIM_NORM1
  0
LINE
  5
5BF
102
{ACAD_REACTORS
330
5AC
102
}
330
1F
100
AcDbEntity
  8
KCAD_DIMS
  6
Continuous
 62
     7
370
    15
100
AcDbLine
 10
-128.1159351336
 20
167.6992441205499
 30
0.0
 11
-124.6159351336
 21
167.6992441205499
 31
0.0
1001
Sigma
1000
DIM_NORM1
  0
POINT
  5
5C2
102
{ACAD_REACTORS
330
5C1
102
}
330
1F
100
AcDbEntity
  8
KCAD_DIMS
  6
Continuous
 62
     7
370
    15
100
AcDbPoint
 10
-109.6159351336
 20
167.6992441205499
 30
0.0
1001
Sigma
1000
DIM_NORM1
  0
POINT
  5
5C4
102
{ACAD_REACTORS
330
5C1
102
}
330
1F
100
AcDbEntity
  8
KCAD_DIMS
  6
Continuous
 62
     7
370
    15
100
AcDbPoint
 10
-109.6159351336
 20
156.6406913925399
 30
0.0
1001
Sigma
1000
DIM_NORM1
  0
POINT
  5
5C6
102
{ACAD_REACTORS
330
5C1
102
}
330
1F
100
AcDbEntity
  8
KCAD_DIMS
  6
Continuous
 62
     7
370
    15
100
AcDbPoint
 10
-124.6159351336
 20
156.6406913925399
 30
0.0
1001
Sigma
1000
DIM_NORM1
  0
TEXT
  5
5C8
102
{ACAD_REACTORS
330
5C1
102
}
330
1F
100
AcDbEntity
  8
KCAD_DIMS
  6
Continuous
 62
     7
370
    30
100
AcDbText
 10
-119.447497692
 20
168.8992441205499
 30
0.0
 40
2.440799999999999
  1
30
  7
KCADDIMSTANDARD
100
AcDbText
1001
Sigma
1000
DIM_NORM1
  0
LINE
  5
5CA
102
{ACAD_REACTORS
330
5C1
102
}
330
1F
100
AcDbEntity
  8
KCAD_DIMS
  6
Continuous
 62
     7
370
    15
100
AcDbLine
 10
-109.6159351336
 20
157.6406913775199
 30
0.0
 11
-109.6159351336
 21
168.6992441205499
 31
0.0
1001
Sigma
1000
DIM_NORM1
  0
LINE
  5
5CC
102
{ACAD_REACTORS
330
5C1
102
}
330
1F
100
AcDbEntity
  8
KCAD_DIMS
  6
Continuous
 62
     7
370
    15
100
AcDbLine
 10
-109.6159351336
 20
167.6992441205499
 30
0.0
 11
-112.6159350885
 21
167.6992441205499
 31
0.0
1001
Sigma
1000
DIM_NORM1
  0
LINE
  5
5CE
102
{ACAD_REACTORS
330
5C1
102
}
330
1F
100
AcDbEntity
  8
KCAD_DIMS
  6
Continuous
 62
     7
370
    15
100
AcDbLine
 10
-109.6159351336
 20
167.6992441205499
 30
0.0
 11
-112.6159350885
 21
168.69924410553
 31
0.0
1001
Sigma
1000
DIM_NORM1
  0
LINE
  5
5D0
102
{ACAD_REACTORS
330
5C1
102
}
330
1F
100
AcDbEntity
  8
KCAD_DIMS
  6
Continuous
 62
     7
370
    15
100
AcDbLine
 10
-109.6159351336
 20
167.6992441205499
 30
0.0
 11
-112.6159350885
 21
166.69924413557
 31
0.0
1001
Sigma
1000
DIM_NORM1
  0
LINE
  5
5D2
102
{ACAD_REACTORS
330
5C1
102
}
330
1F
100
AcDbEntity
  8
KCAD_DIMS
  6
Continuous
 62
     7
370
    15
100
AcDbLine
 10
-124.6159351336
 20
167.6992441205499
 30
0.0
 11
-121.6159351786
 21
167.6992441205499
 31
0.0
1001
Sigma
1000
DIM_NORM1
  0
LINE
  5
5D4
102
{ACAD_REACTORS
330
5C1
102
}
330
1F
100
AcDbEntity
  8
KCAD_DIMS
  6
Continuous
 62
     7
370
    15
100
AcDbLine
 10
-124.6159351336
 20
167.6992441205499
 30
0.0
 11
-121.6159351786
 21
166.69924413557
 31
0.0
1001
Sigma
1000
DIM_NORM1
  0
LINE
  5
5D6
102
{ACAD_REACTORS
330
5C1
102
}
330
1F
100
AcDbEntity
  8
KCAD_DIMS
  6
Continuous
 62
     7
370
    15
100
AcDbLine
 10
-124.6159351336
 20
167.6992441205499
 30
0.0
 11
-121.6159351786
 21
168.69924410553
 31
0.0
1001
Sigma
1000
DIM_NORM1
  0
LINE
  5
5D8
102
{ACAD_REACTORS
330
5C1
102
}
330
1F
100
AcDbEntity
  8
KCAD_DIMS
  6
Continuous
 62
     7
370
    15
100
AcDbLine
 10
-121.6159351786
 20
167.6992441205499
 30
0.0
 11
-112.6159350885
 21
167.6992441205499
 31
0.0
1001
Sigma
1000
DIM_NORM1
  0
POINT
  5
5DB
102
{ACAD_REACTORS
330
5DA
102
}
330
1F
100
AcDbEntity
  8
KCAD_DIMS
  6
Continuous
 62
     7
370
    15
100
AcDbPoint
 10
-106.1159351336
 20
167.6992441205499
 30
0.0
1001
Sigma
1000
DIM_NORM1
  0
POINT
  5
5DD
102
{ACAD_REACTORS
330
5DA
102
}
330
1F
100
AcDbEntity
  8
KCAD_DIMS
  6
Continuous
 62
     7
370
    15
100
AcDbPoint
 10
-106.1159351336
 20
158.3793693710499
 30
0.0
1001
Sigma
1000
DIM_NORM1
  0
POINT
  5
5DF
102
{ACAD_REACTORS
330
5DA
102
}
330
1F
100
AcDbEntity
  8
KCAD_DIMS
  6
Continuous
 62
     7
370
    15
100
AcDbPoint
 10
-109.6159351336
 20
156.6406913925399
 30
0.0
1001
Sigma
1000
DIM_NORM1
  0
TEXT
  5
5E1
102
{ACAD_REACTORS
330
5DA
102
}
330
1F
100
AcDbEntity
  8
KCAD_DIMS
  6
Continuous
 62
     7
370
    30
100
AcDbText
 10
-108.6974976622
 20
168.8992441205499
 30
0.0
 40
2.440799999999999
  1
7
  7
KCADDIMSTANDARD
100
AcDbText
1001
Sigma
1000
DIM_NORM1
  0
LINE
  5
5E3
102
{ACAD_REACTORS
330
5DA
102
}
330
1F
100
AcDbEntity
  8
KCAD_DIMS
  6
Continuous
 62
     7
370
    15
100
AcDbLine
 10
-103.1159351786
 20
167.6992441205499
 30
0.0
 11
-99.76593522905
 21
167.6992441205499
 31
0.0
1001
Sigma
1000
DIM_NORM1
  0
LINE
  5
5E5
102
{ACAD_REACTORS
330
5DA
102
}
330
1F
100
AcDbEntity
  8
KCAD_DIMS
  6
Continuous
 62
     7
370
    15
100
AcDbLine
 10
-106.1159351336
 20
167.6992441205499
 30
0.0
 11
-103.1159351786
 21
167.6992441205499
 31
0.0
1001
Sigma
1000
DIM_NORM1
  0
LINE
  5
5E7
102
{ACAD_REACTORS
330
5DA
102
}
330
1F
100
AcDbEntity
  8
KCAD_DIMS
  6
Continuous
 62
     7
370
    15
100
AcDbLine
 10
-106.1159351336
 20
167.6992441205499
 30
0.0
 11
-103.1159351786
 21
166.69924413557
 31
0.0
1001
Sigma
1000
DIM_NORM1
  0
LINE
  5
5E9
102
{ACAD_REACTORS
330
5DA
102
}
330
1F
100
AcDbEntity
  8
KCAD_DIMS
  6
Continuous
 62
     7
370
    15
100
AcDbLine
 10
-106.1159351336
 20
167.6992441205499
 30
0.0
 11
-103.1159351786
 21
168.69924410553
 31
0.0
1001
Sigma
1000
DIM_NORM1
  0
LINE
  5
5EB
102
{ACAD_REACTORS
330
5DA
102
}
330
1F
100
AcDbEntity
  8
KCAD_DIMS
  6
Continuous
 62
     7
370
    15
100
AcDbLine
 10
-109.6159351336
 20
167.6992441205499
 30
0.0
 11
-106.1159351336
 21
167.6992441205499
 31
0.0
1001
Sigma
1000
DIM_NORM1
  0
POINT
  5
5EE
102
{ACAD_REACTORS
330
5ED
102
}
330
1F
100
AcDbEntity
  8
KCAD_DIMS
  6
Continuous
 62
     7
370
    15
100
AcDbPoint
 10
-93.61593131894
 20
174.1992441205499
 30
0.0
1001
Sigma
1000
DIM_NORM1
  0
POINT
  5
5F0
102
{ACAD_REACTORS
330
5ED
102
}
330
1F
100
AcDbEntity
  8
KCAD_DIMS
  6
Continuous
 62
     7
370
    15
100
AcDbPoint
 10
-93.61593131894
 20
153.1293693710499
 30
0.0
1001
Sigma
1000
DIM_NORM1
  0
POINT
  5
5F2
102
{ACAD_REACTORS
330
5ED
102
}
330
1F
100
AcDbEntity
  8
KCAD_DIMS
  6
Continuous
 62
     7
370
    15
100
AcDbPoint
 10
-61.165930556
 20
153.1293693710499
 30
0.0
1001
Sigma
1000
DIM_NORM1
  0
TEXT
  5
5F4
102
{ACAD_REACTORS
330
5ED
102
}
330
1F
100
AcDbEntity
  8
KCAD_DIMS
  6
Continuous
 62
     7
370
    30
100
AcDbText
 10
-82.72249355549
 20
175.3992441205499
 30
0.0
 40
2.440799999999999
  1
64.9
  7
KCADDIMSTANDARD
100
AcDbText
1001
Sigma
1000
DIM_NORM1
  0
LINE
  5
5F6
102
{ACAD_REACTORS
330
5ED
102
}
330
1F
100
AcDbEntity
  8
KCAD_DIMS
  6
Continuous
 62
     7
370
    15
100
AcDbLine
 10
-93.61593131894
 20
154.12936935603
 30
0.0
 11
-93.61593131894
 21
175.1992441205499
 31
0.0
1001
Sigma
1000
DIM_NORM1
  0
LINE
  5
5F8
102
{ACAD_REACTORS
330
5ED
102
}
330
1F
100
AcDbEntity
  8
KCAD_DIMS
  6
Continuous
 62
     7
370
    15
100
AcDbLine
 10
-93.61593131894
 20
174.1992441205499
 30
0.0
 11
-90.61593136399
 21
174.1992441205499
 31
0.0
1001
Sigma
1000
DIM_NORM1
  0
LINE
  5
5FA
102
{ACAD_REACTORS
330
5ED
102
}
330
1F
100
AcDbEntity
  8
KCAD_DIMS
  6
Continuous
 62
     7
370
    15
100
AcDbLine
 10
-93.61593131894
 20
174.1992441205499
 30
0.0
 11
-90.61593136399
 21
173.19924413557
 31
0.0
1001
Sigma
1000
DIM_NORM1
  0
LINE
  5
5FC
102
{ACAD_REACTORS
330
5ED
102
}
330
1F
100
AcDbEntity
  8
KCAD_DIMS
  6
Continuous
 62
     7
370
    15
100
AcDbLine
 10
-93.61593131894
 20
174.1992441205499
 30
0.0
 11
-90.61593136399
 21
175.19924410553
 31
0.0
1001
Sigma
1000
DIM_NORM1
  0
LINE
  5
5FE
102
{ACAD_REACTORS
330
5ED
102
}
330
1F
100
AcDbEntity
  8
KCAD_DIMS
  6
Continuous
 62
     7
370
    15
100
AcDbLine
 10
-61.165930556
 20
174.1992441205499
 30
0.0
 11
-64.16593051094
 21
174.1992441205499
 31
0.0
1001
Sigma
1000
DIM_NORM1
  0
LINE
  5
600
102
{ACAD_REACTORS
330
5ED
102
}
330
1F
100
AcDbEntity
  8
KCAD_DIMS
  6
Continuous
 62
     7
370
    15
100
AcDbLine
 10
-61.165930556
 20
174.1992441205499
 30
0.0
 11
-64.16593051094
 21
175.19924410553
 31
0.0
1001
Sigma
1000
DIM_NORM1
  0
LINE
  5
602
102
{ACAD_REACTORS
330
5ED
102
}
330
1F
100
AcDbEntity
  8
KCAD_DIMS
  6
Continuous
 62
     7
370
    15
100
AcDbLine
 10
-61.165930556
 20
174.1992441205499
 30
0.0
 11
-64.16593051094
 21
173.19924413557
 31
0.0
1001
Sigma
1000
DIM_NORM1
  0
LINE
  5
604
102
{ACAD_REACTORS
330
5ED
102
}
330
1F
100
AcDbEntity
  8
KCAD_DIMS
  6
Continuous
 62
     7
370
    15
100
AcDbLine
 10
-64.16593051094
 20
174.1992441205499
 30
0.0
 11
-90.61593136399
 21
174.1992441205499
 31
0.0
1001
Sigma
1000
DIM_NORM1
  0
POINT
  5
607
102
{ACAD_REACTORS
330
606
102
}
330
1F
100
AcDbEntity
  8
KCAD_DIMS
  6
Continuous
 62
     7
370
    15
100
AcDbPoint
 10
-99.61593131895
 20
174.1992441205499
 30
0.0
1001
Sigma
1000
DIM_NORM1
  0
POINT
  5
609
102
{ACAD_REACTORS
330
606
102
}
330
1F
100
AcDbEntity
  8
KCAD_DIMS
  6
Continuous
 62
     7
370
    15
100
AcDbPoint
 10
-99.61593131895
 20
154.3793693710499
 30
0.0
1001
Sigma
1000
DIM_NORM1
  0
POINT
  5
60B
102
{ACAD_REACTORS
330
606
102
}
330
1F
100
AcDbEntity
  8
KCAD_DIMS
  6
Continuous
 62
     7
370
    15
100
AcDbPoint
 10
-93.61593131894
 20
153.1293693710499
 30
0.0
1001
Sigma
1000
DIM_NORM1
  0
TEXT
  5
60D
102
{ACAD_REACTORS
330
606
102
}
330
1F
100
AcDbEntity
  8
KCAD_DIMS
  6
Continuous
 62
     7
370
    30
100
AcDbText
 10
-98.94749387735
 20
175.3992441205499
 30
0.0
 40
2.440799999999999
  1
12
  7
KCADDIMSTANDARD
100
AcDbText
1001
Sigma
1000
DIM_NORM1
  0
LINE
  5
60F
102
{ACAD_REACTORS
330
606
102
}
330
1F
100
AcDbEntity
  8
KCAD_DIMS
  6
Continuous
 62
     7
370
    15
100
AcDbLine
 10
-99.61593131895
 20
155.37936935603
 30
0.0
 11
-99.61593131895
 21
175.1992441205499
 31
0.0
1001
Sigma
1000
DIM_NORM1
  0
LINE
  5
611
102
{ACAD_REACTORS
330
606
102
}
330
1F
100
AcDbEntity
  8
KCAD_DIMS
  6
Continuous
 62
     7
370
    15
100
AcDbLine
 10
-93.61593131894
 20
174.1992441205499
 30
0.0
 11
-99.61593131895
 21
174.1992441205499
 31
0.0
1001
Sigma
1000
DIM_NORM1
  0
POINT
  5
614
102
{ACAD_REACTORS
330
613
102
}
330
1F
100
AcDbEntity
  8
KCAD_DIMS
  6
Continuous
 62
     7
370
    15
100
AcDbPoint
 10
-106.1159351336
 20
174.1992441205499
 30
0.0
1001
Sigma
1000
DIM_NORM1
  0
POINT
  5
616
102
{ACAD_REACTORS
330
613
102
}
330
1F
100
AcDbEntity
  8
KCAD_DIMS
  6
Continuous
 62
     7
370
    15
100
AcDbPoint
 10
-106.1159351336
 20
158.3793693710499
 30
0.0
1001
Sigma
1000
DIM_NORM1
  0
POINT
  5
618
102
{ACAD_REACTORS
330
613
102
}
330
1F
100
AcDbEntity
  8
KCAD_DIMS
  6
Continuous
 62
     7
370
    15
100
AcDbPoint
 10
-99.61593131895
 20
154.3793693710499
 30
0.0
1001
Sigma
1000
DIM_NORM1
  0
TEXT
  5
61A
102
{ACAD_REACTORS
330
613
102
}
330
1F
100
AcDbEntity
  8
KCAD_DIMS
  6
Continuous
 62
     7
370
    30
100
AcDbText
 10
-105.1974957846
 20
175.3992441205499
 30
0.0
 40
2.440799999999999
  1
13
  7
KCADDIMSTANDARD
100
AcDbText
1001
Sigma
1000
DIM_NORM1
  0
LINE
  5
61C
102
{ACAD_REACTORS
330
613
102
}
330
1F
100
AcDbEntity
  8
KCAD_DIMS
  6
Continuous
 62
     7
370
    15
100
AcDbLine
 10
-106.1159351336
 20
159.37936935603
 30
0.0
 11
-106.1159351336
 21
175.1992441205499
 31
0.0
1001
Sigma
1000
DIM_NORM1
  0
LINE
  5
61E
102
{ACAD_REACTORS
330
613
102
}
330
1F
100
AcDbEntity
  8
KCAD_DIMS
  6
Continuous
 62
     7
370
    15
100
AcDbLine
 10
-106.1159351336
 20
174.1992441205499
 30
0.0
 11
-103.1159351786
 21
174.1992441205499
 31
0.0
1001
Sigma
1000
DIM_NORM1
  0
LINE
  5
620
102
{ACAD_REACTORS
330
613
102
}
330
1F
100
AcDbEntity
  8
KCAD_DIMS
  6
Continuous
 62
     7
370
    15
100
AcDbLine
 10
-106.1159351336
 20
174.1992441205499
 30
0.0
 11
-103.1159351786
 21
173.19924413557
 31
0.0
1001
Sigma
1000
DIM_NORM1
  0
LINE
  5
622
102
{ACAD_REACTORS
330
613
102
}
330
1F
100
AcDbEntity
  8
KCAD_DIMS
  6
Continuous
 62
     7
370
    15
100
AcDbLine
 10
-106.1159351336
 20
174.1992441205499
 30
0.0
 11
-103.1159351786
 21
175.19924410553
 31
0.0
1001
Sigma
1000
DIM_NORM1
  0
LINE
  5
624
102
{ACAD_REACTORS
330
613
102
}
330
1F
100
AcDbEntity
  8
KCAD_DIMS
  6
Continuous
 62
     7
370
    15
100
AcDbLine
 10
-99.61593131895
 20
174.1992441205499
 30
0.0
 11
-102.6159312737999
 21
174.1992441205499
 31
0.0
1001
Sigma
1000
DIM_NORM1
  0
LINE
  5
626
102
{ACAD_REACTORS
330
613
102
}
330
1F
100
AcDbEntity
  8
KCAD_DIMS
  6
Continuous
 62
     7
370
    15
100
AcDbLine
 10
-99.61593131895
 20
174.1992441205499
 30
0.0
 11
-102.6159312737999
 21
175.19924410553
 31
0.0
1001
Sigma
1000
DIM_NORM1
  0
LINE
  5
628
102
{ACAD_REACTORS
330
613
102
}
330
1F
100
AcDbEntity
  8
KCAD_DIMS
  6
Continuous
 62
     7
370
    15
100
AcDbLine
 10
-99.61593131895
 20
174.1992441205499
 30
0.0
 11
-102.6159312737999
 21
173.19924413557
 31
0.0
1001
Sigma
1000
DIM_NORM1
  0
LINE
  5
62A
102
{ACAD_REACTORS
330
613
102
}
330
1F
100
AcDbEntity
  8
KCAD_DIMS
  6
Continuous
 62
     7
370
    15
100
AcDbLine
 10
-102.6159312737999
 20
174.1992441205499
 30
0.0
 11
-103.1159351786
 21
174.1992441205499
 31
0.0
1001
Sigma
1000
DIM_NORM1
  0
POINT
  5
62D
102
{ACAD_REACTORS
330
62C
102
}
330
1F
100
AcDbEntity
  8
KCAD_DIMS
  6
Continuous
 62
     7
370
    15
100
AcDbPoint
 10
-128.1159351336
 20
174.1992441205499
 30
0.0
1001
Sigma
1000
DIM_NORM1
  0
POINT
  5
62F
102
{ACAD_REACTORS
330
62C
102
}
330
1F
100
AcDbEntity
  8
KCAD_DIMS
  6
Continuous
 62
     7
370
    15
100
AcDbPoint
 10
-128.1159351336
 20
158.3793693710499
 30
0.0
1001
Sigma
1000
DIM_NORM1
  0
POINT
  5
631
102
{ACAD_REACTORS
330
62C
102
}
330
1F
100
AcDbEntity
  8
KCAD_DIMS
  6
Continuous
 62
     7
370
    15
100
AcDbPoint
 10
-106.1159351336
 20
158.3793693710499
 30
0.0
1001
Sigma
1000
DIM_NORM1
  0
TEXT
  5
633
102
{ACAD_REACTORS
330
62C
102
}
330
1F
100
AcDbEntity
  8
KCAD_DIMS
  6
Continuous
 62
     7
370
    30
100
AcDbText
 10
-119.447497692
 20
175.3992441205499
 30
0.0
 40
2.440799999999999
  1
44
  7
KCADDIMSTANDARD
100
AcDbText
1001
Sigma
1000
DIM_NORM1
  0
LINE
  5
635
102
{ACAD_REACTORS
330
62C
102
}
330
1F
100
AcDbEntity
  8
KCAD_DIMS
  6
Continuous
 62
     7
370
    15
100
AcDbLine
 10
-128.1159351336
 20
159.37936935603
 30
0.0
 11
-128.1159351336
 21
175.1992441205499
 31
0.0
1001
Sigma
1000
DIM_NORM1
  0
LINE
  5
637
102
{ACAD_REACTORS
330
62C
102
}
330
1F
100
AcDbEntity
  8
KCAD_DIMS
  6
Continuous
 62
     7
370
    15
100
AcDbLine
 10
-128.1159351336
 20
174.1992441205499
 30
0.0
 11
-125.1159351786
 21
174.1992441205499
 31
0.0
1001
Sigma
1000
DIM_NORM1
  0
LINE
  5
639
102
{ACAD_REACTORS
330
62C
102
}
330
1F
100
AcDbEntity
  8
KCAD_DIMS
  6
Continuous
 62
     7
370
    15
100
AcDbLine
 10
-128.1159351336
 20
174.1992441205499
 30
0.0
 11
-125.1159351786
 21
173.19924413557
 31
0.0
1001
Sigma
1000
DIM_NORM1
  0
LINE
  5
63B
102
{ACAD_REACTORS
330
62C
102
}
330
1F
100
AcDbEntity
  8
KCAD_DIMS
  6
Continuous
 62
     7
370
    15
100
AcDbLine
 10
-128.1159351336
 20
174.1992441205499
 30
0.0
 11
-125.1159351786
 21
175.19924410553
 31
0.0
1001
Sigma
1000
DIM_NORM1
  0
LINE
  5
63D
102
{ACAD_REACTORS
330
62C
102
}
330
1F
100
AcDbEntity
  8
KCAD_DIMS
  6
Continuous
 62
     7
370
    15
100
AcDbLine
 10
-106.1159351336
 20
174.1992441205499
 30
0.0
 11
-109.1159350884999
 21
174.1992441205499
 31
0.0
1001
Sigma
1000
DIM_NORM1
  0
LINE
  5
63F
102
{ACAD_REACTORS
330
62C
102
}
330
1F
100
AcDbEntity
  8
KCAD_DIMS
  6
Continuous
 62
     7
370
    15
100
AcDbLine
 10
-106.1159351336
 20
174.1992441205499
 30
0.0
 11
-109.1159350884999
 21
175.19924410553
 31
0.0
1001
Sigma
1000
DIM_NORM1
  0
LINE
  5
641
102
{ACAD_REACTORS
330
62C
102
}
330
1F
100
AcDbEntity
  8
KCAD_DIMS
  6
Continuous
 62
     7
370
    15
100
AcDbLine
 10
-106.1159351336
 20
174.1992441205499
 30
0.0
 11
-109.1159350884999
 21
173.19924413557
 31
0.0
1001
Sigma
1000
DIM_NORM1
  0
LINE
  5
643
102
{ACAD_REACTORS
330
62C
102
}
330
1F
100
AcDbEntity
  8
KCAD_DIMS
  6
Continuous
 62
     7
370
    15
100
AcDbLine
 10
-109.1159350884999
 20
174.1992441205499
 30
0.0
 11
-125.1159351786
 21
174.1992441205499
 31
0.0
1001
Sigma
1000
DIM_NORM1
  0
POINT
  5
646
102
{ACAD_REACTORS
330
645
102
}
330
1F
100
AcDbEntity
  8
KCAD_DIMS
  6
Continuous
 62
     7
370
    15
100
AcDbPoint
 10
-161.6159427629999
 20
174.1992441205499
 30
0.0
1001
Sigma
1000
DIM_NORM1
  0
POINT
  5
648
102
{ACAD_REACTORS
330
645
102
}
330
1F
100
AcDbEntity
  8
KCAD_DIMS
  6
Continuous
 62
     7
370
    15
100
AcDbPoint
 10
-161.6159427629999
 20
163.3793693710499
 30
0.0
1001
Sigma
1000
DIM_NORM1
  0
POINT
  5
64A
102
{ACAD_REACTORS
330
645
102
}
330
1F
100
AcDbEntity
  8
KCAD_DIMS
  6
Continuous
 62
     7
370
    15
100
AcDbPoint
 10
-128.1159351336
 20
158.3793693710499
 30
0.0
1001
Sigma
1000
DIM_NORM1
  0
TEXT
  5
64C
102
{ACAD_REACTORS
330
645
102
}
330
1F
100
AcDbEntity
  8
KCAD_DIMS
  6
Continuous
 62
     7
370
    30
100
AcDbText
 10
-147.4475015066999
 20
175.3992441205499
 30
0.0
 40
2.440799999999999
  1
67
  7
KCADDIMSTANDARD
100
AcDbText
1001
Sigma
1000
DIM_NORM1
  0
LINE
  5
64E
102
{ACAD_REACTORS
330
645
102
}
330
1F
100
AcDbEntity
  8
KCAD_DIMS
  6
Continuous
 62
     7
370
    15
100
AcDbLine
 10
-161.6159427629999
 20
164.3793693560299
 30
0.0
 11
-161.6159427629999
 21
175.1992441205499
 31
0.0
1001
Sigma
1000
DIM_NORM1
  0
LINE
  5
650
102
{ACAD_REACTORS
330
645
102
}
330
1F
100
AcDbEntity
  8
KCAD_DIMS
  6
Continuous
 62
     7
370
    15
100
AcDbLine
 10
-161.6159427629999
 20
174.1992441205499
 30
0.0
 11
-158.615942808
 21
174.1992441205499
 31
0.0
1001
Sigma
1000
DIM_NORM1
  0
LINE
  5
652
102
{ACAD_REACTORS
330
645
102
}
330
1F
100
AcDbEntity
  8
KCAD_DIMS
  6
Continuous
 62
     7
370
    15
100
AcDbLine
 10
-161.6159427629999
 20
174.1992441205499
 30
0.0
 11
-158.615942808
 21
173.19924413557
 31
0.0
1001
Sigma
1000
DIM_NORM1
  0
LINE
  5
654
102
{ACAD_REACTORS
330
645
102
}
330
1F
100
AcDbEntity
  8
KCAD_DIMS
  6
Continuous
 62
     7
370
    15
100
AcDbLine
 10
-161.6159427629999
 20
174.1992441205499
 30
0.0
 11
-158.615942808
 21
175.19924410553
 31
0.0
1001
Sigma
1000
DIM_NORM1
  0
LINE
  5
656
102
{ACAD_REACTORS
330
645
102
}
330
1F
100
AcDbEntity
  8
KCAD_DIMS
  6
Continuous
 62
     7
370
    15
100
AcDbLine
 10
-128.1159351336
 20
174.1992441205499
 30
0.0
 11
-131.1159350885
 21
174.1992441205499
 31
0.0
1001
Sigma
1000
DIM_NORM1
  0
LINE
  5
658
102
{ACAD_REACTORS
330
645
102
}
330
1F
100
AcDbEntity
  8
KCAD_DIMS
  6
Continuous
 62
     7
370
    15
100
AcDbLine
 10
-128.1159351336
 20
174.1992441205499
 30
0.0
 11
-131.1159350885
 21
175.19924410553
 31
0.0
1001
Sigma
1000
DIM_NORM1
  0
LINE
  5
65A
102
{ACAD_REACTORS
330
645
102
}
330
1F
100
AcDbEntity
  8
KCAD_DIMS
  6
Continuous
 62
     7
370
    15
100
AcDbLine
 10
-128.1159351336
 20
174.1992441205499
 30
0.0
 11
-131.1159350885
 21
173.19924413557
 31
0.0
1001
Sigma
1000
DIM_NORM1
  0
LINE
  5
65C
102
{ACAD_REACTORS
330
645
102
}
330
1F
100
AcDbEntity
  8
KCAD_DIMS
  6
Continuous
 62
     7
370
    15
100
AcDbLine
 10
-131.1159350885
 20
174.1992441205499
 30
0.0
 11
-158.615942808
 21
174.1992441205499
 31
0.0
1001
Sigma
1000
DIM_NORM1
  0
POINT
  5
65F
102
{ACAD_REACTORS
330
65E
102
}
330
1F
100
AcDbEntity
  8
KCAD_DIMS
  6
Continuous
 62
     7
370
    15
100
AcDbPoint
 10
-209.115942763
 20
174.1992441205499
 30
0.0
1001
Sigma
1000
DIM_NORM1
  0
POINT
  5
661
102
{ACAD_REACTORS
330
65E
102
}
330
1F
100
AcDbEntity
  8
KCAD_DIMS
  6
Continuous
 62
     7
370
    15
100
AcDbPoint
 10
-209.115942763
 20
163.3793693710499
 30
0.0
1001
Sigma
1000
DIM_NORM1
  0
POINT
  5
663
102
{ACAD_REACTORS
330
65E
102
}
330
1F
100
AcDbEntity
  8
KCAD_DIMS
  6
Continuous
 62
     7
370
    15
100
AcDbPoint
 10
-161.6159427629999
 20
163.3793693710499
 30
0.0
1001
Sigma
1000
DIM_NORM1
  0
TEXT
  5
665
102
{ACAD_REACTORS
330
65E
102
}
330
1F
100
AcDbEntity
  8
KCAD_DIMS
  6
Continuous
 62
     7
370
    30
100
AcDbText
 10
-187.9475053214
 20
175.3992441205499
 30
0.0
 40
2.440799999999999
  1
95
  7
KCADDIMSTANDARD
100
AcDbText
1001
Sigma
1000
DIM_NORM1
  0
LINE
  5
667
102
{ACAD_REACTORS
330
65E
102
}
330
1F
100
AcDbEntity
  8
KCAD_DIMS
  6
Continuous
 62
     7
370
    15
100
AcDbLine
 10
-209.115942763
 20
174.1992441205499
 30
0.0
 11
-206.1159428079999
 21
174.1992441205499
 31
0.0
1001
Sigma
1000
DIM_NORM1
  0
LINE
  5
669
102
{ACAD_REACTORS
330
65E
102
}
330
1F
100
AcDbEntity
  8
KCAD_DIMS
  6
Continuous
 62
     7
370
    15
100
AcDbLine
 10
-209.115942763
 20
174.1992441205499
 30
0.0
 11
-206.1159428079999
 21
173.19924413557
 31
0.0
1001
Sigma
1000
DIM_NORM1
  0
LINE
  5
66B
102
{ACAD_REACTORS
330
65E
102
}
330
1F
100
AcDbEntity
  8
KCAD_DIMS
  6
Continuous
 62
     7
370
    15
100
AcDbLine
 10
-209.115942763
 20
174.1992441205499
 30
0.0
 11
-206.1159428079999
 21
175.19924410553
 31
0.0
1001
Sigma
1000
DIM_NORM1
  0
LINE
  5
66D
102
{ACAD_REACTORS
330
65E
102
}
330
1F
100
AcDbEntity
  8
KCAD_DIMS
  6
Continuous
 62
     7
370
    15
100
AcDbLine
 10
-161.6159427629999
 20
174.1992441205499
 30
0.0
 11
-164.6159427179
 21
174.1992441205499
 31
0.0
1001
Sigma
1000
DIM_NORM1
  0
LINE
  5
66F
102
{ACAD_REACTORS
330
65E
102
}
330
1F
100
AcDbEntity
  8
KCAD_DIMS
  6
Continuous
 62
     7
370
    15
100
AcDbLine
 10
-161.6159427629999
 20
174.1992441205499
 30
0.0
 11
-164.6159427179
 21
175.19924410553
 31
0.0
1001
Sigma
1000
DIM_NORM1
  0
LINE
  5
671
102
{ACAD_REACTORS
330
65E
102
}
330
1F
100
AcDbEntity
  8
KCAD_DIMS
  6
Continuous
 62
     7
370
    15
100
AcDbLine
 10
-161.6159427629999
 20
174.1992441205499
 30
0.0
 11
-164.6159427179
 21
173.19924413557
 31
0.0
1001
Sigma
1000
DIM_NORM1
  0
LINE
  5
673
102
{ACAD_REACTORS
330
65E
102
}
330
1F
100
AcDbEntity
  8
KCAD_DIMS
  6
Continuous
 62
     7
370
    15
100
AcDbLine
 10
-164.6159427179
 20
174.1992441205499
 30
0.0
 11
-206.1159428079999
 21
174.1992441205499
 31
0.0
1001
Sigma
1000
DIM_NORM1
  0
POINT
  5
676
102
{ACAD_REACTORS
330
675
102
}
330
1F
100
AcDbEntity
  8
KCAD_DIMS
  6
Continuous
 62
     7
370
    15
100
AcDbPoint
 10
-61.165930556
 20
180.7550457237599
 30
0.0
1001
Sigma
1000
DIM_NORM1
  0
POINT
  5
678
102
{ACAD_REACTORS
330
675
102
}
330
1F
100
AcDbEntity
  8
KCAD_DIMS
  6
Continuous
 62
     7
370
    15
100
AcDbPoint
 10
-61.165930556
 20
153.1293693710499
 30
0.0
1001
Sigma
1000
DIM_NORM1
  0
POINT
  5
67A
102
{ACAD_REACTORS
330
675
102
}
330
1F
100
AcDbEntity
  8
KCAD_DIMS
  6
Continuous
 62
     7
370
    15
100
AcDbPoint
 10
-52.40093116635
 20
148.08341721674
 30
0.0
1001
Sigma
1000
DIM_NORM1
  0
TEXT
  5
67C
102
{ACAD_REACTORS
330
675
102
}
330
1F
100
AcDbEntity
  8
KCAD_DIMS
  6
Continuous
 62
     7
370
    30
100
AcDbText
 10
-63.61499350898999
 20
181.9550457237599
 30
0.0
 40
2.440799999999999
  1
17.53
  7
KCADDIMSTANDARD
100
AcDbText
1001
Sigma
1000
DIM_NORM1
  0
LINE
  5
67E
102
{ACAD_REACTORS
330
675
102
}
330
1F
100
AcDbEntity
  8
KCAD_DIMS
  6
Continuous
 62
     7
370
    15
100
AcDbLine
 10
-61.165930556
 20
154.12936935603
 30
0.0
 11
-61.165930556
 21
181.7550457237599
 31
0.0
1001
Sigma
1000
DIM_NORM1
  0
LINE
  5
680
102
{ACAD_REACTORS
330
675
102
}
330
1F
100
AcDbEntity
  8
KCAD_DIMS
  6
Continuous
 62
     7
370
    15
100
AcDbLine
 10
-64.16593051094
 20
180.7550457237599
 30
0.0
 11
-67.51593046063
 21
180.7550457237599
 31
0.0
1001
Sigma
1000
DIM_NORM1
  0
LINE
  5
682
102
{ACAD_REACTORS
330
675
102
}
330
1F
100
AcDbEntity
  8
KCAD_DIMS
  6
Continuous
 62
     7
370
    15
100
AcDbLine
 10
-61.165930556
 20
180.7550457237599
 30
0.0
 11
-64.16593051094
 21
180.7550457237599
 31
0.0
1001
Sigma
1000
DIM_NORM1
  0
LINE
  5
684
102
{ACAD_REACTORS
330
675
102
}
330
1F
100
AcDbEntity
  8
KCAD_DIMS
  6
Continuous
 62
     7
370
    15
100
AcDbLine
 10
-61.165930556
 20
180.7550457237599
 30
0.0
 11
-64.16593051094
 21
181.7550457087399
 31
0.0
1001
Sigma
1000
DIM_NORM1
  0
LINE
  5
686
102
{ACAD_REACTORS
330
675
102
}
330
1F
100
AcDbEntity
  8
KCAD_DIMS
  6
Continuous
 62
     7
370
    15
100
AcDbLine
 10
-61.165930556
 20
180.7550457237599
 30
0.0
 11
-64.16593051094
 21
179.75504573878
 31
0.0
1001
Sigma
1000
DIM_NORM1
  0
LINE
  5
688
102
{ACAD_REACTORS
330
675
102
}
330
1F
100
AcDbEntity
  8
KCAD_DIMS
  6
Continuous
 62
     7
370
    15
100
AcDbLine
 10
-49.40093121141
 20
180.7550457237599
 30
0.0
 11
-46.05093126172
 21
180.7550457237599
 31
0.0
1001
Sigma
1000
DIM_NORM1
  0
LINE
  5
68A
102
{ACAD_REACTORS
330
675
102
}
330
1F
100
AcDbEntity
  8
KCAD_DIMS
  6
Continuous
 62
     7
370
    15
100
AcDbLine
 10
-52.40093116635
 20
180.7550457237599
 30
0.0
 11
-49.40093121141
 21
180.7550457237599
 31
0.0
1001
Sigma
1000
DIM_NORM1
  0
LINE
  5
68C
102
{ACAD_REACTORS
330
675
102
}
330
1F
100
AcDbEntity
  8
KCAD_DIMS
  6
Continuous
 62
     7
370
    15
100
AcDbLine
 10
-52.40093116635
 20
180.7550457237599
 30
0.0
 11
-49.40093121141
 21
179.75504573878
 31
0.0
1001
Sigma
1000
DIM_NORM1
  0
LINE
  5
68E
102
{ACAD_REACTORS
330
675
102
}
330
1F
100
AcDbEntity
  8
KCAD_DIMS
  6
Continuous
 62
     7
370
    15
100
AcDbLine
 10
-52.40093116635
 20
180.7550457237599
 30
0.0
 11
-49.40093121141
 21
181.7550457087399
 31
0.0
1001
Sigma
1000
DIM_NORM1
  0
LINE
  5
690
102
{ACAD_REACTORS
330
675
102
}
330
1F
100
AcDbEntity
  8
KCAD_DIMS
  6
Continuous
 62
     7
370
    15
100
AcDbLine
 10
-52.40093116635
 20
180.7550457237599
 30
0.0
 11
-61.165930556
 21
180.7550457237599
 31
0.0
1001
Sigma
1000
DIM_NORM1
  0
POINT
  5
693
102
{ACAD_REACTORS
330
692
102
}
330
1F
100
AcDbEntity
  8
KCAD_DIMS
  6
Continuous
 62
     7
370
    15
100
AcDbPoint
 10
-209.115942763
 20
180.7550457237599
 30
0.0
1001
Sigma
1000
DIM_NORM1
  0
POINT
  5
695
102
{ACAD_REACTORS
330
692
102
}
330
1F
100
AcDbEntity
  8
KCAD_DIMS
  6
Continuous
 62
     7
370
    15
100
AcDbPoint
 10
-209.115942763
 20
163.3793693710499
 30
0.0
1001
Sigma
1000
DIM_NORM1
  0
POINT
  5
697
102
{ACAD_REACTORS
330
692
102
}
330
1F
100
AcDbEntity
  8
KCAD_DIMS
  6
Continuous
 62
     7
370
    15
100
AcDbPoint
 10
-61.165930556
 20
153.1293693710499
 30
0.0
1001
Sigma
1000
DIM_NORM1
  0
TEXT
  5
699
102
{ACAD_REACTORS
330
692
102
}
330
1F
100
AcDbEntity
  8
KCAD_DIMS
  6
Continuous
 62
     7
370
    30
100
AcDbText
 10
-141.9724993072999
 20
181.9550457237599
 30
0.0
 40
2.440799999999999
  1
295.9
  7
KCADDIMSTANDARD
100
AcDbText
1001
Sigma
1000
DIM_NORM1
  0
LINE
  5
69B
102
{ACAD_REACTORS
330
692
102
}
330
1F
100
AcDbEntity
  8
KCAD_DIMS
  6
Continuous
 62
     7
370
    15
100
AcDbLine
 10
-209.115942763
 20
164.3793693560299
 30
0.0
 11
-209.115942763
 21
181.7550457237599
 31
0.0
1001
Sigma
1000
DIM_NORM1
  0
LINE
  5
69D
102
{ACAD_REACTORS
330
692
102
}
330
1F
100
AcDbEntity
  8
KCAD_DIMS
  6
Continuous
 62
     7
370
    15
100
AcDbLine
 10
-209.115942763
 20
180.7550457237599
 30
0.0
 11
-206.1159428079999
 21
180.7550457237599
 31
0.0
1001
Sigma
1000
DIM_NORM1
  0
LINE
  5
69F
102
{ACAD_REACTORS
330
692
102
}
330
1F
100
AcDbEntity
  8
KCAD_DIMS
  6
Continuous
 62
     7
370
    15
100
AcDbLine
 10
-209.115942763
 20
180.7550457237599
 30
0.0
 11
-206.1159428079999
 21
179.75504573878
 31
0.0
1001
Sigma
1000
DIM_NORM1
  0
LINE
  5
6A1
102
{ACAD_REACTORS
330
692
102
}
330
1F
100
AcDbEntity
  8
KCAD_DIMS
  6
Continuous
 62
     7
370
    15
100
AcDbLine
 10
-209.115942763
 20
180.7550457237599
 30
0.0
 11
-206.1159428079999
 21
181.7550457087399
 31
0.0
1001
Sigma
1000
DIM_NORM1
  0
LINE
  5
6A3
102
{ACAD_REACTORS
330
692
102
}
330
1F
100
AcDbEntity
  8
KCAD_DIMS
  6
Continuous
 62
     7
370
    15
100
AcDbLine
 10
-61.165930556
 20
180.7550457237599
 30
0.0
 11
-64.16593051094
 21
180.7550457237599
 31
0.0
1001
Sigma
1000
DIM_NORM1
  0
LINE
  5
6A5
102
{ACAD_REACTORS
330
692
102
}
330
1F
100
AcDbEntity
  8
KCAD_DIMS
  6
Continuous
 62
     7
370
    15
100
AcDbLine
 10
-61.165930556
 20
180.7550457237599
 30
0.0
 11
-64.16593051094
 21
181.7550457087399
 31
0.0
1001
Sigma
1000
DIM_NORM1
  0
LINE
  5
6A7
102
{ACAD_REACTORS
330
692
102
}
330
1F
100
AcDbEntity
  8
KCAD_DIMS
  6
Continuous
 62
     7
370
    15
100
AcDbLine
 10
-61.165930556
 20
180.7550457237599
 30
0.0
 11
-64.16593051094
 21
179.75504573878
 31
0.0
1001
Sigma
1000
DIM_NORM1
  0
LINE
  5
6A9
102
{ACAD_REACTORS
330
692
102
}
330
1F
100
AcDbEntity
  8
KCAD_DIMS
  6
Continuous
 62
     7
370
    15
100
AcDbLine
 10
-64.16593051094
 20
180.7550457237599
 30
0.0
 11
-206.1159428079999
 21
180.7550457237599
 31
0.0
1001
Sigma
1000
DIM_NORM1
  0
POINT
  5
6AC
102
{ACAD_REACTORS
330
6AB
102
}
330
1F
100
AcDbEntity
  8
KCAD_DIMS
  6
Continuous
 62
     7
370
    15
100
AcDbPoint
 10
-241.8209311662999
 20
180.7550457237599
 30
0.0
1001
Sigma
1000
DIM_NORM1
  0
POINT
  5
6AE
102
{ACAD_REACTORS
330
6AB
102
}
330
1F
100
AcDbEntity
  8
KCAD_DIMS
  6
Continuous
 62
     7
370
    15
100
AcDbPoint
 10
-241.8209311662999
 20
147.82647477877
 30
0.0
1001
Sigma
1000
DIM_NORM1
  0
POINT
  5
6B0
102
{ACAD_REACTORS
330
6AB
102
}
330
1F
100
AcDbEntity
  8
KCAD_DIMS
  6
Continuous
 62
     7
370
    15
100
AcDbPoint
 10
-209.115942763
 20
163.3793693710499
 30
0.0
1001
Sigma
1000
DIM_NORM1
  0
TEXT
  5
6B2
102
{ACAD_REACTORS
330
6AB
102
}
330
1F
100
AcDbEntity
  8
KCAD_DIMS
  6
Continuous
 62
     7
370
    30
100
AcDbText
 10
-238.2999997316999
 20
181.9550457237599
 30
0.0
 40
2.440799999999999
  1
WD=158.38
  7
KCADDIMSTANDARD
100
AcDbText
1001
Sigma
1000
DIM_NORM1
  0
LINE
  5
6B4
102
{ACAD_REACTORS
330
6AB
102
}
330
1F
100
AcDbEntity
  8
KCAD_DIMS
  6
Continuous
 62
     7
370
    15
100
AcDbLine
 10
-241.8209311662999
 20
180.7550457237599
 30
0.0
 11
-238.8209312113999
 21
180.7550457237599
 31
0.0
1001
Sigma
1000
DIM_NORM1
  0
LINE
  5
6B6
102
{ACAD_REACTORS
330
6AB
102
}
330
1F
100
AcDbEntity
  8
KCAD_DIMS
  6
Continuous
 62
     7
370
    15
100
AcDbLine
 10
-241.8209311662999
 20
180.7550457237599
 30
0.0
 11
-238.8209312113999
 21
179.75504573878
 31
0.0
1001
Sigma
1000
DIM_NORM1
  0
LINE
  5
6B8
102
{ACAD_REACTORS
330
6AB
102
}
330
1F
100
AcDbEntity
  8
KCAD_DIMS
  6
Continuous
 62
     7
370
    15
100
AcDbLine
 10
-241.8209311662999
 20
180.7550457237599
 30
0.0
 11
-238.8209312113999
 21
181.7550457087399
 31
0.0
1001
Sigma
1000
DIM_NORM1
  0
LINE
  5
6BA
102
{ACAD_REACTORS
330
6AB
102
}
330
1F
100
AcDbEntity
  8
KCAD_DIMS
  6
Continuous
 62
     7
370
    15
100
AcDbLine
 10
-209.115942763
 20
180.7550457237599
 30
0.0
 11
-212.1159427179
 21
180.7550457237599
 31
0.0
1001
Sigma
1000
DIM_NORM1
  0
LINE
  5
6BC
102
{ACAD_REACTORS
330
6AB
102
}
330
1F
100
AcDbEntity
  8
KCAD_DIMS
  6
Continuous
 62
     7
370
    15
100
AcDbLine
 10
-209.115942763
 20
180.7550457237599
 30
0.0
 11
-212.1159427179
 21
181.7550457087399
 31
0.0
1001
Sigma
1000
DIM_NORM1
  0
LINE
  5
6BE
102
{ACAD_REACTORS
330
6AB
102
}
330
1F
100
AcDbEntity
  8
KCAD_DIMS
  6
Continuous
 62
     7
370
    15
100
AcDbLine
 10
-209.115942763
 20
180.7550457237599
 30
0.0
 11
-212.1159427179
 21
179.75504573878
 31
0.0
1001
Sigma
1000
DIM_NORM1
  0
LINE
  5
6C0
102
{ACAD_REACTORS
330
6AB
102
}
330
1F
100
AcDbEntity
  8
KCAD_DIMS
  6
Continuous
 62
     7
370
    15
100
AcDbLine
 10
-212.1159427179
 20
180.7550457237599
 30
0.0
 11
-238.8209312113999
 21
180.7550457237599
 31
0.0
1001
Sigma
1000
DIM_NORM1
  0
POINT
  5
6C3
102
{ACAD_REACTORS
330
6C2
102
}
330
1F
100
AcDbEntity
  8
KCAD_DIMS
  6
Continuous
 62
     7
370
    15
100
AcDbPoint
 10
-52.40093116635
 20
186.8587230784699
 30
0.0
1001
Sigma
1000
DIM_NORM1
  0
POINT
  5
6C5
102
{ACAD_REACTORS
330
6C2
102
}
330
1F
100
AcDbEntity
  8
KCAD_DIMS
  6
Continuous
 62
     7
370
    15
100
AcDbPoint
 10
-52.40093116635
 20
148.08341721674
 30
0.0
1001
Sigma
1000
DIM_NORM1
  0
POINT
  5
6C7
102
{ACAD_REACTORS
330
6C2
102
}
330
1F
100
AcDbEntity
  8
KCAD_DIMS
  6
Continuous
 62
     7
370
    15
100
AcDbPoint
 10
-241.8209311662999
 20
147.82647477877
 30
0.0
1001
Sigma
1000
DIM_NORM1
  0
TEXT
  5
6C9
102
{ACAD_REACTORS
330
6C2
102
}
330
1F
100
AcDbEntity
  8
KCAD_DIMS
  6
Continuous
 62
     7
370
    30
100
AcDbText
 10
-155.4424938439
 20
188.05872307847
 30
0.0
 40
2.440799999999999
  1
471.81
  7
KCADDIMSTANDARD
100
AcDbText
1001
Sigma
1000
DIM_NORM1
  0
LINE
  5
6CB
102
{ACAD_REACTORS
330
6C2
102
}
330
1F
100
AcDbEntity
  8
KCAD_DIMS
  6
Continuous
 62
     7
370
    15
100
AcDbLine
 10
-52.40093116635
 20
149.0834172017299
 30
0.0
 11
-52.40093116635
 21
187.85872307847
 31
0.0
1001
Sigma
1000
DIM_NORM1
  0
LINE
  5
6CD
102
{ACAD_REACTORS
330
6C2
102
}
330
1F
100
AcDbEntity
  8
KCAD_DIMS
  6
Continuous
 62
     7
370
    15
100
AcDbLine
 10
-241.8209311662999
 20
148.82647476375
 30
0.0
 11
-241.8209311662999
 21
187.85872307847
 31
0.0
1001
Sigma
1000
DIM_NORM1
  0
LINE
  5
6CF
102
{ACAD_REACTORS
330
6C2
102
}
330
1F
100
AcDbEntity
  8
KCAD_DIMS
  6
Continuous
 62
     7
370
    15
100
AcDbLine
 10
-52.40093116635
 20
186.8587230784699
 30
0.0
 11
-55.40093112129
 21
186.8587230784699
 31
0.0
1001
Sigma
1000
DIM_NORM1
  0
LINE
  5
6D1
102
{ACAD_REACTORS
330
6C2
102
}
330
1F
100
AcDbEntity
  8
KCAD_DIMS
  6
Continuous
 62
     7
370
    15
100
AcDbLine
 10
-52.40093116635
 20
186.8587230784699
 30
0.0
 11
-55.40093112129
 21
187.8587230634499
 31
0.0
1001
Sigma
1000
DIM_NORM1
  0
LINE
  5
6D3
102
{ACAD_REACTORS
330
6C2
102
}
330
1F
100
AcDbEntity
  8
KCAD_DIMS
  6
Continuous
 62
     7
370
    15
100
AcDbLine
 10
-52.40093116635
 20
186.8587230784699
 30
0.0
 11
-55.40093112129
 21
185.8587230934899
 31
0.0
1001
Sigma
1000
DIM_NORM1
  0
LINE
  5
6D5
102
{ACAD_REACTORS
330
6C2
102
}
330
1F
100
AcDbEntity
  8
KCAD_DIMS
  6
Continuous
 62
     7
370
    15
100
AcDbLine
 10
-241.8209311662999
 20
186.8587230784699
 30
0.0
 11
-238.8209312113999
 21
186.8587230784699
 31
0.0
1001
Sigma
1000
DIM_NORM1
  0
LINE
  5
6D7
102
{ACAD_REACTORS
330
6C2
102
}
330
1F
100
AcDbEntity
  8
KCAD_DIMS
  6
Continuous
 62
     7
370
    15
100
AcDbLine
 10
-241.8209311662999
 20
186.8587230784699
 30
0.0
 11
-238.8209312113999
 21
185.8587230934899
 31
0.0
1001
Sigma
1000
DIM_NORM1
  0
LINE
  5
6D9
102
{ACAD_REACTORS
330
6C2
102
}
330
1F
100
AcDbEntity
  8
KCAD_DIMS
  6
Continuous
 62
     7
370
    15
100
AcDbLine
 10
-241.8209311662999
 20
186.8587230784699
 30
0.0
 11
-238.8209312113999
 21
187.8587230634499
 31
0.0
1001
Sigma
1000
DIM_NORM1
  0
LINE
  5
6DB
102
{ACAD_REACTORS
330
6C2
102
}
330
1F
100
AcDbEntity
  8
KCAD_DIMS
  6
Continuous
 62
     7
370
    15
100
AcDbLine
 10
-238.8209312113999
 20
186.8587230784699
 30
0.0
 11
-55.40093112129
 21
186.8587230784699
 31
0.0
1001
Sigma
1000
DIM_NORM1
  0
POINT
  5
6DE
102
{ACAD_REACTORS
330
6DD
102
}
330
1F
100
AcDbEntity
  8
KCAD_DIMS
  6
Continuous
 62
     7
370
    15
100
AcDbPoint
 10
-61.165930556
 20
99.372680994303
 30
0.0
1001
Sigma
1000
DIM_NORM1
  0
POINT
  5
6E0
102
{ACAD_REACTORS
330
6DD
102
}
330
1F
100
AcDbEntity
  8
KCAD_DIMS
  6
Continuous
 62
     7
370
    15
100
AcDbPoint
 10
-61.165930556
 20
138.6293693710499
 30
0.0
1001
Sigma
1000
DIM_NORM1
  0
POINT
  5
6E2
102
{ACAD_REACTORS
330
6DD
102
}
330
1F
100
AcDbEntity
  8
KCAD_DIMS
  6
Continuous
 62
     7
370
    15
100
AcDbPoint
 10
-59.16593055599999
 20
139.52937089693
 30
0.0
1001
Sigma
1000
DIM_NORM1
  0
TEXT
  5
6E4
102
{ACAD_REACTORS
330
6DD
102
}
330
1F
100
AcDbEntity
  8
KCAD_DIMS
  6
Continuous
 62
     7
370
    30
100
AcDbText
 10
-55.35269409576
 20
100.5726809943
 30
0.0
 40
2.440799999999999
  1
4
  7
KCADDIMSTANDARD
100
AcDbText
1001
Sigma
1000
DIM_NORM1
  0
LINE
  5
6E6
102
{ACAD_REACTORS
330
6DD
102
}
330
1F
100
AcDbEntity
  8
KCAD_DIMS
  6
Continuous
 62
     7
370
    15
100
AcDbLine
 10
-61.165930556
 20
137.62936938607
 30
0.0
 11
-61.165930556
 21
98.372680994303
 31
0.0
1001
Sigma
1000
DIM_NORM1
  0
LINE
  5
6E8
102
{ACAD_REACTORS
330
6DD
102
}
330
1F
100
AcDbEntity
  8
KCAD_DIMS
  6
Continuous
 62
     7
370
    15
100
AcDbLine
 10
-59.16593055599999
 20
138.5293709119499
 30
0.0
 11
-59.16593055599999
 21
98.372680994303
 31
0.0
1001
Sigma
1000
DIM_NORM1
  0
LINE
  5
6EA
102
{ACAD_REACTORS
330
6DD
102
}
330
1F
100
AcDbEntity
  8
KCAD_DIMS
  6
Continuous
 62
     7
370
    15
100
AcDbLine
 10
-56.16593060105
 20
99.372680994303
 30
0.0
 11
-52.81593065137
 21
99.372680994303
 31
0.0
1001
Sigma
1000
DIM_NORM1
  0
LINE
  5
6EC
102
{ACAD_REACTORS
330
6DD
102
}
330
1F
100
AcDbEntity
  8
KCAD_DIMS
  6
Continuous
 62
     7
370
    15
100
AcDbLine
 10
-59.16593055599999
 20
99.372680994303
 30
0.0
 11
-56.16593060105
 21
99.372680994303
 31
0.0
1001
Sigma
1000
DIM_NORM1
  0
LINE
  5
6EE
102
{ACAD_REACTORS
330
6DD
102
}
330
1F
100
AcDbEntity
  8
KCAD_DIMS
  6
Continuous
 62
     7
370
    15
100
AcDbLine
 10
-59.16593055599999
 20
99.372680994303
 30
0.0
 11
-56.16593060105
 21
98.37268100932098
 31
0.0
1001
Sigma
1000
DIM_NORM1
  0
LINE
  5
6F0
102
{ACAD_REACTORS
330
6DD
102
}
330
1F
100
AcDbEntity
  8
KCAD_DIMS
  6
Continuous
 62
     7
370
    15
100
AcDbLine
 10
-59.16593055599999
 20
99.372680994303
 30
0.0
 11
-56.16593060105
 21
100.37268097928
 31
0.0
1001
Sigma
1000
DIM_NORM1
  0
LINE
  5
6F2
102
{ACAD_REACTORS
330
6DD
102
}
330
1F
100
AcDbEntity
  8
KCAD_DIMS
  6
Continuous
 62
     7
370
    15
100
AcDbLine
 10
-59.16593055599999
 20
99.372680994303
 30
0.0
 11
-61.165930556
 21
99.372680994303
 31
0.0
1001
Sigma
1000
DIM_NORM1
  0
LINE
  5
6F4
102
{ACAD_REACTORS
330
6DD
102
}
330
1F
100
AcDbEntity
  8
KCAD_DIMS
  6
Continuous
 62
     7
370
    15
100
AcDbLine
 10
-59.16593055599999
 20
99.372680994303
 30
0.0
 11
-53.44956903854
 21
99.372680994303
 31
0.0
1001
Sigma
1000
DIM_NORM1
  0
POINT
  5
6F7
102
{ACAD_REACTORS
330
6F6
102
}
330
1F
100
AcDbEntity
  8
KCAD_DIMS
  6
Continuous
 62
     7
370
    15
100
AcDbPoint
 10
-117.1159351336
 20
99.372680994303
 30
0.0
1001
Sigma
1000
DIM_NORM1
  0
POINT
  5
6F9
102
{ACAD_REACTORS
330
6F6
102
}
330
1F
100
AcDbEntity
  8
KCAD_DIMS
  6
Continuous
 62
     7
370
    15
100
AcDbPoint
 10
-117.1159351336
 20
104.84602179257
 30
0.0
1001
Sigma
1000
DIM_NORM1
  0
POINT
  5
6FB
102
{ACAD_REACTORS
330
6F6
102
}
330
1F
100
AcDbEntity
  8
KCAD_DIMS
  6
Continuous
 62
     7
370
    15
100
AcDbPoint
 10
-61.165930556
 20
138.6293693710499
 30
0.0
1001
Sigma
1000
DIM_NORM1
  0
TEXT
  5
6FD
102
{ACAD_REACTORS
330
6F6
102
}
330
1F
100
AcDbEntity
  8
KCAD_DIMS
  6
Continuous
 62
     7
370
    30
100
AcDbText
 10
-95.97249549265001
 20
100.5726809943
 30
0.0
 40
2.440799999999999
  1
111.9
  7
KCADDIMSTANDARD
100
AcDbText
1001
Sigma
1000
DIM_NORM1
  0
LINE
  5
6FF
102
{ACAD_REACTORS
330
6F6
102
}
330
1F
100
AcDbEntity
  8
KCAD_DIMS
  6
Continuous
 62
     7
370
    15
100
AcDbLine
 10
-117.1159351336
 20
103.84602180758
 30
0.0
 11
-117.1159351336
 21
98.372680994303
 31
0.0
1001
Sigma
1000
DIM_NORM1
  0
LINE
  5
701
102
{ACAD_REACTORS
330
6F6
102
}
330
1F
100
AcDbEntity
  8
KCAD_DIMS
  6
Continuous
 62
     7
370
    15
100
AcDbLine
 10
-117.1159351336
 20
99.372680994303
 30
0.0
 11
-114.1159351785999
 21
99.372680994303
 31
0.0
1001
Sigma
1000
DIM_NORM1
  0
LINE
  5
703
102
{ACAD_REACTORS
330
6F6
102
}
330
1F
100
AcDbEntity
  8
KCAD_DIMS
  6
Continuous
 62
     7
370
    15
100
AcDbLine
 10
-117.1159351336
 20
99.372680994303
 30
0.0
 11
-114.1159351785999
 21
98.372681009322
 31
0.0
1001
Sigma
1000
DIM_NORM1
  0
LINE
  5
705
102
{ACAD_REACTORS
330
6F6
102
}
330
1F
100
AcDbEntity
  8
KCAD_DIMS
  6
Continuous
 62
     7
370
    15
100
AcDbLine
 10
-117.1159351336
 20
99.372680994303
 30
0.0
 11
-114.1159351785999
 21
100.37268097928
 31
0.0
1001
Sigma
1000
DIM_NORM1
  0
LINE
  5
707
102
{ACAD_REACTORS
330
6F6
102
}
330
1F
100
AcDbEntity
  8
KCAD_DIMS
  6
Continuous
 62
     7
370
    15
100
AcDbLine
 10
-61.165930556
 20
99.372680994303
 30
0.0
 11
-64.16593051094
 21
99.372680994303
 31
0.0
1001
Sigma
1000
DIM_NORM1
  0
LINE
  5
709
102
{ACAD_REACTORS
330
6F6
102
}
330
1F
100
AcDbEntity
  8
KCAD_DIMS
  6
Continuous
 62
     7
370
    15
100
AcDbLine
 10
-61.165930556
 20
99.372680994303
 30
0.0
 11
-64.16593051094
 21
100.37268097928
 31
0.0
1001
Sigma
1000
DIM_NORM1
  0
LINE
  5
70B
102
{ACAD_REACTORS
330
6F6
102
}
330
1F
100
AcDbEntity
  8
KCAD_DIMS
  6
Continuous
 62
     7
370
    15
100
AcDbLine
 10
-61.165930556
 20
99.372680994303
 30
0.0
 11
-64.16593051094
 21
98.37268100932098
 31
0.0
1001
Sigma
1000
DIM_NORM1
  0
LINE
  5
70D
102
{ACAD_REACTORS
330
6F6
102
}
330
1F
100
AcDbEntity
  8
KCAD_DIMS
  6
Continuous
 62
     7
370
    15
100
AcDbLine
 10
-64.16593051094
 20
99.372680994303
 30
0.0
 11
-114.1159351785999
 21
99.372680994303
 31
0.0
1001
Sigma
1000
DIM_NORM1
  0
POINT
  5
710
102
{ACAD_REACTORS
330
70F
102
}
330
1F
100
AcDbEntity
  8
KCAD_DIMS
  6
Continuous
 62
     7
370
    15
100
AcDbPoint
 10
-128.1159351336
 20
99.372680994303
 30
0.0
1001
Sigma
1000
DIM_NORM1
  0
POINT
  5
712
102
{ACAD_REACTORS
330
70F
102
}
330
1F
100
AcDbEntity
  8
KCAD_DIMS
  6
Continuous
 62
     7
370
    15
100
AcDbPoint
 10
-128.1159351336
 20
133.3793693710599
 30
0.0
1001
Sigma
1000
DIM_NORM1
  0
POINT
  5
714
102
{ACAD_REACTORS
330
70F
102
}
330
1F
100
AcDbEntity
  8
KCAD_DIMS
  6
Continuous
 62
     7
370
    15
100
AcDbPoint
 10
-117.1159351336
 20
119.6766143966899
 30
0.0
1001
Sigma
1000
DIM_NORM1
  0
TEXT
  5
716
102
{ACAD_REACTORS
330
70F
102
}
330
1F
100
AcDbEntity
  8
KCAD_DIMS
  6
Continuous
 62
     7
370
    30
100
AcDbText
 10
-124.9474976919999
 20
100.5726809943
 30
0.0
 40
2.440799999999999
  1
22
  7
KCADDIMSTANDARD
100
AcDbText
1001
Sigma
1000
DIM_NORM1
  0
LINE
  5
718
102
{ACAD_REACTORS
330
70F
102
}
330
1F
100
AcDbEntity
  8
KCAD_DIMS
  6
Continuous
 62
     7
370
    15
100
AcDbLine
 10
-128.1159351336
 20
132.37936938607
 30
0.0
 11
-128.1159351336
 21
98.372680994303
 31
0.0
1001
Sigma
1000
DIM_NORM1
  0
LINE
  5
71A
102
{ACAD_REACTORS
330
70F
102
}
330
1F
100
AcDbEntity
  8
KCAD_DIMS
  6
Continuous
 62
     7
370
    15
100
AcDbLine
 10
-128.1159351336
 20
99.372680994303
 30
0.0
 11
-125.1159351786
 21
99.372680994303
 31
0.0
1001
Sigma
1000
DIM_NORM1
  0
LINE
  5
71C
102
{ACAD_REACTORS
330
70F
102
}
330
1F
100
AcDbEntity
  8
KCAD_DIMS
  6
Continuous
 62
     7
370
    15
100
AcDbLine
 10
-128.1159351336
 20
99.372680994303
 30
0.0
 11
-125.1159351786
 21
98.372681009322
 31
0.0
1001
Sigma
1000
DIM_NORM1
  0
LINE
  5
71E
102
{ACAD_REACTORS
330
70F
102
}
330
1F
100
AcDbEntity
  8
KCAD_DIMS
  6
Continuous
 62
     7
370
    15
100
AcDbLine
 10
-128.1159351336
 20
99.372680994303
 30
0.0
 11
-125.1159351786
 21
100.37268097928
 31
0.0
1001
Sigma
1000
DIM_NORM1
  0
LINE
  5
720
102
{ACAD_REACTORS
330
70F
102
}
330
1F
100
AcDbEntity
  8
KCAD_DIMS
  6
Continuous
 62
     7
370
    15
100
AcDbLine
 10
-117.1159351336
 20
99.372680994303
 30
0.0
 11
-120.1159350885
 21
99.372680994303
 31
0.0
1001
Sigma
1000
DIM_NORM1
  0
LINE
  5
722
102
{ACAD_REACTORS
330
70F
102
}
330
1F
100
AcDbEntity
  8
KCAD_DIMS
  6
Continuous
 62
     7
370
    15
100
AcDbLine
 10
-117.1159351336
 20
99.372680994303
 30
0.0
 11
-120.1159350885
 21
100.37268097928
 31
0.0
1001
Sigma
1000
DIM_NORM1
  0
LINE
  5
724
102
{ACAD_REACTORS
330
70F
102
}
330
1F
100
AcDbEntity
  8
KCAD_DIMS
  6
Continuous
 62
     7
370
    15
100
AcDbLine
 10
-117.1159351336
 20
99.372680994303
 30
0.0
 11
-120.1159350885
 21
98.37268100932098
 31
0.0
1001
Sigma
1000
DIM_NORM1
  0
LINE
  5
726
102
{ACAD_REACTORS
330
70F
102
}
330
1F
100
AcDbEntity
  8
KCAD_DIMS
  6
Continuous
 62
     7
370
    15
100
AcDbLine
 10
-120.1159350885
 20
99.372680994303
 30
0.0
 11
-125.1159351786
 21
99.372680994303
 31
0.0
1001
Sigma
1000
DIM_NORM1
  0
POINT
  5
729
102
{ACAD_REACTORS
330
728
102
}
330
1F
100
AcDbEntity
  8
KCAD_DIMS
  6
Continuous
 62
     7
370
    15
100
AcDbPoint
 10
-209.115942763
 20
99.372680994303
 30
0.0
1001
Sigma
1000
DIM_NORM1
  0
POINT
  5
72B
102
{ACAD_REACTORS
330
728
102
}
330
1F
100
AcDbEntity
  8
KCAD_DIMS
  6
Continuous
 62
     7
370
    15
100
AcDbPoint
 10
-209.115942763
 20
128.37936937106
 30
0.0
1001
Sigma
1000
DIM_NORM1
  0
POINT
  5
72D
102
{ACAD_REACTORS
330
728
102
}
330
1F
100
AcDbEntity
  8
KCAD_DIMS
  6
Continuous
 62
     7
370
    15
100
AcDbPoint
 10
-128.1159351336
 20
133.3793693710599
 30
0.0
1001
Sigma
1000
DIM_NORM1
  0
TEXT
  5
72F
102
{ACAD_REACTORS
330
728
102
}
330
1F
100
AcDbEntity
  8
KCAD_DIMS
  6
Continuous
 62
     7
370
    30
100
AcDbText
 10
-172.4475015364999
 20
100.5726809943
 30
0.0
 40
2.440799999999999
  1
162
  7
KCADDIMSTANDARD
100
AcDbText
1001
Sigma
1000
DIM_NORM1
  0
LINE
  5
731
102
{ACAD_REACTORS
330
728
102
}
330
1F
100
AcDbEntity
  8
KCAD_DIMS
  6
Continuous
 62
     7
370
    15
100
AcDbLine
 10
-209.115942763
 20
127.3793693860699
 30
0.0
 11
-209.115942763
 21
98.372680994303
 31
0.0
1001
Sigma
1000
DIM_NORM1
  0
LINE
  5
733
102
{ACAD_REACTORS
330
728
102
}
330
1F
100
AcDbEntity
  8
KCAD_DIMS
  6
Continuous
 62
     7
370
    15
100
AcDbLine
 10
-209.115942763
 20
99.372680994303
 30
0.0
 11
-206.1159428079999
 21
99.372680994303
 31
0.0
1001
Sigma
1000
DIM_NORM1
  0
LINE
  5
735
102
{ACAD_REACTORS
330
728
102
}
330
1F
100
AcDbEntity
  8
KCAD_DIMS
  6
Continuous
 62
     7
370
    15
100
AcDbLine
 10
-209.115942763
 20
99.372680994303
 30
0.0
 11
-206.1159428079999
 21
98.372681009322
 31
0.0
1001
Sigma
1000
DIM_NORM1
  0
LINE
  5
737
102
{ACAD_REACTORS
330
728
102
}
330
1F
100
AcDbEntity
  8
KCAD_DIMS
  6
Continuous
 62
     7
370
    15
100
AcDbLine
 10
-209.115942763
 20
99.372680994303
 30
0.0
 11
-206.1159428079999
 21
100.37268097928
 31
0.0
1001
Sigma
1000
DIM_NORM1
  0
LINE
  5
739
102
{ACAD_REACTORS
330
728
102
}
330
1F
100
AcDbEntity
  8
KCAD_DIMS
  6
Continuous
 62
     7
370
    15
100
AcDbLine
 10
-128.1159351336
 20
99.372680994303
 30
0.0
 11
-131.1159350885
 21
99.372680994303
 31
0.0
1001
Sigma
1000
DIM_NORM1
  0
LINE
  5
73B
102
{ACAD_REACTORS
330
728
102
}
330
1F
100
AcDbEntity
  8
KCAD_DIMS
  6
Continuous
 62
     7
370
    15
100
AcDbLine
 10
-128.1159351336
 20
99.372680994303
 30
0.0
 11
-131.1159350885
 21
100.37268097928
 31
0.0
1001
Sigma
1000
DIM_NORM1
  0
LINE
  5
73D
102
{ACAD_REACTORS
330
728
102
}
330
1F
100
AcDbEntity
  8
KCAD_DIMS
  6
Continuous
 62
     7
370
    15
100
AcDbLine
 10
-128.1159351336
 20
99.372680994303
 30
0.0
 11
-131.1159350885
 21
98.37268100932098
 31
0.0
1001
Sigma
1000
DIM_NORM1
  0
LINE
  5
73F
102
{ACAD_REACTORS
330
728
102
}
330
1F
100
AcDbEntity
  8
KCAD_DIMS
  6
Continuous
 62
     7
370
    15
100
AcDbLine
 10
-131.1159350885
 20
99.372680994303
 30
0.0
 11
-206.1159428079999
 21
99.372680994303
 31
0.0
1001
Sigma
1000
DIM_NORM1
  0
OLE2FRAME
  5
744
330
1F
100
AcDbEntity
  8
0
  6
Continuous
 62
   134
370
    15
100
AcDbOle2Frame
 70
     2
 10
-165.9978322339133
 20
13.67091500406081
 30
0.0
 11
-129.1800950966708
 21
8.140353631513644
 31
0.0
 72
     0
 73
   205
 90
    28288
310
0055AD71DD3DEEBF64C07EACE12B82572B400000000000000000DECBCA56C325
310
60C07EACE12B82572B400000000000000000DECBCA56C32560C0AE73626EDC47
310
20400000000000000000AD71DD3DEEBF64C0AE73626EDC472040000000000000
310
00000000000001000000000100000100000001000000000001000000006E0000
310
D0CF11E0A1B11AE1000000000000000000000000000000003E000300FEFF0900
310
0600000000000000000000000100000001000000000000000010000002000000
310
01000000FEFFFFFF0000000000000000FFFFFFFFFFFFFFFFFFFFFFFFFFFFFFFF
310
FFFFFFFFFFFFFFFFFFFFFFFFFFFFFFFFFFFFFFFFFFFFFFFFFFFFFFFFFFFFFFFF
310
FFFFFFFFFFFFFFFFFFFFFFFFFFFFFFFFFFFFFFFFFFFFFFFFFFFFFFFFFFFFFFFF
310
FFFFFFFFFFFFFFFFFFFFFFFFFFFFFFFFFFFFFFFFFFFFFFFFFFFFFFFFFFFFFFFF
310
FFFFFFFFFFFFFFFFFFFFFFFFFFFFFFFFFFFFFFFFFFFFFFFFFFFFFFFFFFFFFFFF
310
FFFFFFFFFFFFFFFFFFFFFFFFFFFFFFFFFFFFFFFFFFFFFFFFFFFFFFFFFFFFFFFF
310
FFFFFFFFFFFFFFFFFFFFFFFFFFFFFFFFFFFFFFFFFFFFFFFFFFFFFFFFFFFFFFFF
310
FFFFFFFFFFFFFFFFFFFFFFFFFFFFFFFFFFFFFFFFFFFFFFFFFFFFFFFFFFFFFFFF
310
FFFFFFFFFFFFFFFFFFFFFFFFFFFFFFFFFFFFFFFFFFFFFFFFFFFFFFFFFFFFFFFF
310
FFFFFFFFFFFFFFFFFFFFFFFFFFFFFFFFFFFFFFFFFFFFFFFFFFFFFFFFFFFFFFFF
310
FFFFFFFFFFFFFFFFFFFFFFFFFFFFFFFFFFFFFFFFFFFFFFFFFFFFFFFFFFFFFFFF
310
FFFFFFFFFFFFFFFFFFFFFFFFFFFFFFFFFFFFFFFFFFFFFFFFFFFFFFFFFFFFFFFF
310
FFFFFFFFFFFFFFFFFFFFFFFFFFFFFFFFFFFFFFFFFFFFFFFFFFFFFFFFFFFFFFFF
310
FFFFFFFFFFFFFFFFFFFFFFFFFFFFFFFFFFFFFFFFFFFFFFFFFFFFFFFFFFFFFFFF
310
FDFFFFFF35000000FEFFFFFFFEFFFFFF05000000060000000700000008000000
310
090000000A0000000B0000000C0000000D0000000E0000000F00000010000000
310
1100000012000000130000001400000015000000160000001700000018000000
310
190000001A0000001B0000001C0000001D0000001E0000001F00000020000000
310
2100000022000000230000002400000025000000260000002700000028000000
310
290000002A0000002B0000002C0000002D0000002E0000002F00000030000000
310
31000000320000003300000034000000FEFFFFFFFEFFFFFFFFFFFFFFFFFFFFFF
310
FFFFFFFFFFFFFFFFFFFFFFFFFFFFFFFFFFFFFFFFFFFFFFFFFFFFFFFFFFFFFFFF
310
FFFFFFFFFFFFFFFFFFFFFFFFFFFFFFFFFFFFFFFFFFFFFFFFFFFFFFFFFFFFFFFF
310
FFFFFFFFFFFFFFFFFFFFFFFFFFFFFFFFFFFFFFFFFFFFFFFFFFFFFFFFFFFFFFFF
310
FFFFFFFFFFFFFFFFFFFFFFFFFFFFFFFFFFFFFFFFFFFFFFFFFFFFFFFFFFFFFFFF
310
FFFFFFFFFFFFFFFFFFFFFFFFFFFFFFFFFFFFFFFFFFFFFFFFFFFFFFFFFFFFFFFF
310
FFFFFFFFFFFFFFFFFFFFFFFFFFFFFFFFFFFFFFFFFFFFFFFFFFFFFFFFFFFFFFFF
310
FFFFFFFFFFFFFFFFFFFFFFFFFFFFFFFFFFFFFFFFFFFFFFFFFFFFFFFFFFFFFFFF
310
FFFFFFFFFFFFFFFFFFFFFFFFFFFFFFFFFFFFFFFFFFFFFFFFFFFFFFFFFFFFFFFF
310
FFFFFFFFFFFFFFFFFFFFFFFFFFFFFFFFFFFFFFFFFFFFFFFFFFFFFFFFFFFFFFFF
310
52006F006F007400200045006E00740072007900000000000000000000000000
310
0000000000000000000000000000000000000000000000000000000000000000
310
16000500FFFFFFFFFFFFFFFF020000000A00030000000000C000000000000046
310
000000000000000000000000A0B359466B9FC801030000000001000000000000
310
01004F006C006500000000000000000000000000000000000000000000000000
310
0000000000000000000000000000000000000000000000000000000000000000
310
0A000201FFFFFFFFFFFFFFFFFFFFFFFF00000000000000000000000000000000
310
0000000000000000000000000000000000000000000000001400000000000000
310
010043006F006D0070004F0062006A0000000000000000000000000000000000
310
0000000000000000000000000000000000000000000000000000000000000000
310
120002010100000003000000FFFFFFFF00000000000000000000000000000000
310
0000000000000000000000000000000000000000010000004D00000000000000
310
01004F006C006500310030004E00610074006900760065000000000000000000
310
0000000000000000000000000000000000000000000000000000000000000000
310
1A000201FFFFFFFF04000000FFFFFFFF00000000000000000000000000000000
310
0000000000000000000000000000000000000000040000000460000000000000
310
FEFFFFFF02000000FEFFFFFFFEFFFFFFFFFFFFFFFFFFFFFFFFFFFFFFFFFFFFFF
310
FFFFFFFFFFFFFFFFFFFFFFFFFFFFFFFFFFFFFFFFFFFFFFFFFFFFFFFFFFFFFFFF
310
FFFFFFFFFFFFFFFFFFFFFFFFFFFFFFFFFFFFFFFFFFFFFFFFFFFFFFFFFFFFFFFF
310
FFFFFFFFFFFFFFFFFFFFFFFFFFFFFFFFFFFFFFFFFFFFFFFFFFFFFFFFFFFFFFFF
310
FFFFFFFFFFFFFFFFFFFFFFFFFFFFFFFFFFFFFFFFFFFFFFFFFFFFFFFFFFFFFFFF
310
FFFFFFFFFFFFFFFFFFFFFFFFFFFFFFFFFFFFFFFFFFFFFFFFFFFFFFFFFFFFFFFF
310
FFFFFFFFFFFFFFFFFFFFFFFFFFFFFFFFFFFFFFFFFFFFFFFFFFFFFFFFFFFFFFFF
310
FFFFFFFFFFFFFFFFFFFFFFFFFFFFFFFFFFFFFFFFFFFFFFFFFFFFFFFFFFFFFFFF
310
FFFFFFFFFFFFFFFFFFFFFFFFFFFFFFFFFFFFFFFFFFFFFFFFFFFFFFFFFFFFFFFF
310
FFFFFFFFFFFFFFFFFFFFFFFFFFFFFFFFFFFFFFFFFFFFFFFFFFFFFFFFFFFFFFFF
310
FFFFFFFFFFFFFFFFFFFFFFFFFFFFFFFFFFFFFFFFFFFFFFFFFFFFFFFFFFFFFFFF
310
FFFFFFFFFFFFFFFFFFFFFFFFFFFFFFFFFFFFFFFFFFFFFFFFFFFFFFFFFFFFFFFF
310
FFFFFFFFFFFFFFFFFFFFFFFFFFFFFFFFFFFFFFFFFFFFFFFFFFFFFFFFFFFFFFFF
310
FFFFFFFFFFFFFFFFFFFFFFFFFFFFFFFFFFFFFFFFFFFFFFFFFFFFFFFFFFFFFFFF
310
FFFFFFFFFFFFFFFFFFFFFFFFFFFFFFFFFFFFFFFFFFFFFFFFFFFFFFFFFFFFFFFF
310
FFFFFFFFFFFFFFFFFFFFFFFFFFFFFFFFFFFFFFFFFFFFFFFFFFFFFFFFFFFFFFFF
310
0100000200000000000000000000000000000000380515005301090051010C00
310
5101110053011300560113005801110057000000240000005C01000004000000
310
0100FEFF030A0000FFFFFFFF0A00030000000000C00000000000004607000000
310
5042727573680007000000504272757368000700000050427275736800F439B2
310
7100000000000000000000000000000003000000620113005F010E005C010E00
310
5700000024000000660100000900000066010000130000000200000066010900
310
0100000064000000240000006601000004000000660100000700000002000000
310
6601040066010700570000002400000069010000090000006901000013000000
310
0200000069010900690113005700000030000000690100000900000070010000
310
13000000050000007001130070010C006E0109006D01090069010E0057000000
310
4400000073010000090000007A010000130000000A0000007A01130079011100
310
79010C00770109007501090073010C0073011100750113007701130079011100
310
570000003C00000084010000040000008B01000013000000080000008B010700
310
8901040086010400840107008401110086011300890113008B01110057000000
310
400000008E010000090000009501000013000000090000009501110095010C00
310
93010900900109008E010C008E01110090011300930113009501110057000000
310
00600000424DEA5F0000000000003600000028000000E9000000230000000100
310
180000000000B45F000000000000000000000000000000000000FFFFFFFFFFFF
310
FFFFFFFFFFFFFFFFFFFFFFFFFFFFFFFFFFFFFFFFFFFFFFFFFFFFFFFFFFFFFFFF
310
FFFFFFFFFFFFFFF5F5F5AEAEAE2B2B2B1D1D1D1D1D1D1D1D1D1D1D1D1D1D1D1E
310
1E1E2B2B2B7C7C7CF4F4F4FFFFFFFFFFFFFFFFFFFFFFFFFFFFFFFFFFFFFFFFFF
310
FFFFFFFFFFFFFFFFFFFFFFFFFFFFFFFFFFFFFFFFFFFFFFFFFFFFFFFDFDFDF2F2
310
F2CFCFCF8888884949492C2C2C23232320202020202020202020202020202020
310
2020212121212121222222222222232323242424252525252525262626272727
310
2828282828282828282929292A2A2A2B2B2B2C2C2C2D2D2D3333334444446969
310
69ABABABE4E4E4F4F4F4FFFFFFFFFFFFFFFFFFFFFFFFFFFFFFFFFFFFE7E7E78A
310
8A8A3939393C3C3C3E3E3E4040404040403F3F3F3F3F3F8A8A8AF9F9F9FFFFFF
310
FFFFFFFFFFFFFFFFFFFFFFFFFFFFFFFFFFFFFFFFFFFFFFFFFFFFFFFFFFFFFFFF
310
FFFFFFFFFFFFFFFFFFFFF4F4F4C3C3C37676765353535757575959595858585A
310
5A5A5B5B5B5D5D5D5E5E5E6060606262626060606767679C9C9CE4E4E4FFFFFF
310
FFFFFFFFFFFFF9F9F9A3A3A36969696C6C6C6C6C6C6E6E6E6E6E6E6F6F6F6E6E
310
6EC2C2C2FEFEFEFFFFFFFFFFFFFEFEFEAAAAAA7878787A7A7A7C7C7C7E7E7E7E
310
7E7E808080808080C4C4C4F8F8F8FFFFFFFFFFFFFFFFFFFFFFFFFFFFFFFFFFFF
310
FFFFFFFFFFFFFFFFFFFFFFFFFFFFFFFFFFFFFFFFFFFFFFFFFFFFFFFFFFFFFFFF
310
FFFFFFFFFFFFFFFFFFFFFFFFFFFDFDFDC5C5C5ABABABABABABADADADAEAEAEAE
310
AEAEAFAFAFB1B1B1D5D5D5F7F7F7FFFFFFFFFFFFFFFFFFFFFFFFFFFFFFFEFEFE
310
F1F1F1E4E4E4DDDDDDCECECEC6C6C6C5C5C5C6C6C6C7C7C7C9C9C9C9C9C9CACA
310
CACACACACCCCCCCCCCCCCDCDCDCFCFCFD0D0D0D0D0D0D2D2D2D2D2D2D3D3D3D5
310
D5D5D5D5D5D6D6D6D7D7D7D8D8D8D9D9D9D9D9D9DBDBDBDBDBDBDCDCDCDCDCDC
310
DEDEDEDEDEDEDFDFDFDFDFDFDFDFDFDFDFDFE3E3E300FFFFFFFFFFFFFFFFFFFF
310
FFFFFFFFFFFFFFFFFFFFFFFFFFFFFFFFFFFFFFFFFFFFFFFFFFFFFFFFFFFFFFFF
310
FFFFFFF5F5F5A6A6A61212120404040404040404040404040404040303031010
310
106E6E6EF3F3F3FFFFFFFFFFFFFFFFFFFFFFFFFFFFFFFFFFFFFFFFFFFFFFFFFF
310
FFFFFFFFFFFFFFFFFFFFFFFFFFFFFFFFFFFFFFFFFCFCFCE3E3E38F8F8F282828
310
1212120808080303030303030202020202020202020202020202020202020202
310
0202020202020203030303030303030302020202020202020203030303030303
310
03030303030303030303030303030303030303030404040707070D0D0D181818
310
3F3F3F9E9E9EEDEDEDFFFFFFFFFFFFFFFFFFFFFFFFFFFFFFE1E1E16D6D6D0505
310
05050505060606060606060606060606050505686868F7F7F7FFFFFFFFFFFFFF
310
FFFFFFFFFFFFFFFFFFFFFFFFFFFFFFFFFFFFFFFFFFFFFFFFFFFFFFFFFFFFFFFF
310
FCFCFCEDEDEDA0A0A03939390F0F0F0909090A0A0A0A0A0A0A0A0A0A0A0A0B0B
310
0B0B0B0B0B0B0B0B0B0B131313232323787878D9D9D9FBFBFBFFFFFFFFFFFFFF
310
FFFFF7F7F76F6F6F0C0C0C0D0D0D0D0D0D0E0E0E0E0E0E0E0E0E0E0E0E9A9A9A
310
FCFCFCFFFFFFFFFFFFFDFDFD6969690F0F0F1010101010101010101010101111
310
111313138E8E8EEFEFEFFFFFFFFFFFFFFFFFFFFFFFFFFFFFFFFFFFFFFFFFFFFF
310
FFFFFFFFFFFFFFFFFFFFFFFFFFFFFFFFFFFFFFFFFFFFFFFFFFFFFFFFFFFFFFFF
310
FFFFFFFFFFFFFFFFFFF8F8F86262621C1C1C1818181818181818181818181818
310
181E1E1E7E7E7EE6E6E6FFFFFFFFFFFFFFFFFFFFFFFFFBFBFBE0E0E08A8A8A3E
310
3E3E2323231E1E1E1C1C1C1C1C1C1C1C1C1C1C1C1D1D1D1D1D1D1D1D1D1D1D1D
310
1D1D1D1D1D1D1D1D1D1E1E1E1E1E1E1E1E1E1E1E1E1E1E1E1E1E1E1F1F1F1F1F
310
1F1F1F1F1F1F1F1F1F1F1F1F1F1F1F1F20202020202020202020202020202020
310
202020202020202020202020202039393900FFFFFFFFFFFFFFFFFFFFFFFFFFFF
310
FFFFFFFFFFFFFFFFFFFFFFFFFFFFFFFFFFFFFFFFFFFFFFFFFFFFFFFFFFFFFFF5
310
F5F5A8A8A81212120404040404040505050404040404040303031010106E6E6E
310
F2F2F2FFFFFFFFFFFFFFFFFFFFFFFFFFFFFFFFFFFFFFFFFFFFFFFFFFFFFFFFFF
310
FFFFFFFFFFFFFFFFFFFFFFFFFFFEFEFEE5E5E57E7E7E18181803030304040404
310
0404050505050505050505050505050505050505050505050505050505050505
310
0505050505050505050505050505050505050505050505050505050505050505
310
0505050505050505050504040404040404040404040404040403030307070721
310
21217F7F7FF0F0F0FFFFFFFFFFFFFFFFFFFFFFFFE0E0E06B6B6B030303040404
310
040404040404040404040404020202666666F7F7F7FFFFFFFFFFFFFFFFFFFFFF
310
FFFFFFFFFFFFFFFFFFFFFFFFFFFFFFFFFFFFFFFFFFFFFFFFFFF8F8F8D8D8D875
310
7575191919070707040404040404040404040404040404040404040404030303
310
0303031010104D4D4DAFAFAFECECECFBFBFBFFFFFFFFFFFFFFFFFFFFFFFFF7F7
310
F7696969020202040404040404040404040404040404030303959595FCFCFCFF
310
FFFFFFFFFFFDFDFD606060020202040404040404040404040404040404040404
310
888888EFEFEFFFFFFFFFFFFFFFFFFFFFFFFFFFFFFFFFFFFFFFFFFFFFFFFFFFFF
310
FFFFFFFFFFFFFFFFFFFFFFFFFFFFFFFFFFFFFFFFFFFFFFFFFFFFFFFFFFFFFFFF
310
FFFFFFFFFFF7F7F7575757070707030303040404040404040404040404070707
310
737373E5E5E5FFFFFFFFFFFFFFFFFFFDFDFDCFCFCF4646461212120606060303
310
0304040404040404040404040404040404040404040404040404040404040404
310
0404040404040404040404040404040404040404040404040404040404040404
310
0404040404040404040404040303030303030303030303030303030303030303
310
030303030303030202021D1D1D00FFFFFFFFFFFFFFFFFFFFFFFFFFFFFFFFFFFF
310
FFFFFFFFFFFFFFFFFFFFFFFFFFFFFFFFFFFFFFFFFFFFFFFFFFFFFFF5F5F5A7A7
310
A71212120404040404040404040505050505050404041010106D6D6DF2F2F2FF
310
FFFFFFFFFFFFFFFFFFFFFFFFFFFFFFFFFFFFFFFFFFFFFFFFFFFFFFFFFFFFFFFF
310
FFFFFFFFFFFFFFFFFFF6F6F6AAAAAA1919190303030404040505050505050505
310
0505050505050505050505050505050505050505050505050505050505050505
310
0505050505050505050505050505050505050505050505050505050505050505
310
0505050505050505050505050404040505050404040505050404040505052828
310
28999999FBFBFBFFFFFFFFFFFFFFFFFFE1E1E16C6C6C03030305050504040404
310
0404050505050505020202666666F7F7F7FFFFFFFFFFFFFFFFFFFFFFFFFFFFFF
310
FFFFFFFFFFFFFFFFFFFFFFFFFFFFFFFFFFFFF3F3F3B6B6B65050500F0F0F0303
310
030404040505050505050505050505050505050505050404040A0A0A22222280
310
8080DBDBDBF7F7F7FFFFFFFFFFFFFFFFFFFFFFFFFFFFFFFFFFFFF7F7F7696969
310
020202050505050505040404050505040404030303949494FBFBFBFFFFFFFFFF
310
FFFDFDFD606060020202040404050505050505050505040404040404898989EF
310
EFEFFFFFFFFFFFFFFFFFFFFFFFFFFFFFFFFFFFFFFFFFFFFFFFFFFFFFFFFFFFFF
310
FFFFFFFFFFFFFFFFFFFFFFFFFFFFFFFFFFFFFFFFFFFFFFFFFFFFFFFFFFFFFFFF
310
FFF7F7F7595959080808040404050505050505050505050505070707707070E3
310
E3E3FFFFFFFFFFFFFEFEFEE9E9E94D4D4D080808030303040404050505050505
310
0505050505050505050505050505050505050505050505050505050505050505
310
0505050505050505050505050505050505050505050505050505050505050505
310
0505050505050505050505050505050505040404050505040404050505050505
310
0505050404041D1D1D00FFFFFFFFFFFFFFFFFFFFFFFFFFFFFFFFFFFFFFFFFFFF
310
FFFFFFFFFFFFFFFFFFFFFFFFFFFFFFFFFFFFFFFFFFFFFFF5F5F5A7A7A7121212
310
0404040404040505050505050505050404040F0F0F6A6A6AF2F2F2FFFFFFFFFF
310
FFFFFFFFFFFFFFFFFFFFFFFFFFFFFFFFFFFFFFFFFFFFFFFFFFFFFFFFFFFFFFFF
310
FFFFFFFFFFD5D5D5454545050505040404050505050505050505050505050505
310
0505050404040404040404040404040404040404040404040404040404040404
310
0404040404040404040404040404040404040404040404040404040404040404
310
0404040404050505050505040404050505050505050505040404060606535353
310
E0E0E0FFFFFFFFFFFFFFFFFFE0E0E06B6B6B0303030404040505050505050505
310
05050505020202666666F7F7F7FFFFFFFFFFFFFFFFFFFFFFFFFFFFFFFFFFFFFF
310
FFFFFFFFFFFFFFFFFAFAFAE9E9E99494942C2C2C0A0A0A030303040404050505
310
050505050505050505050505040404050505131313545454B6B6B6EFEFEFFDFD
310
FDFFFFFFFFFFFFFFFFFFFFFFFFFFFFFFFFFFFFFFFFFFF7F7F769696902020204
310
0404050505040404050505040404030303939393FBFBFBFFFFFFFFFFFFFDFDFD
310
606060020202040404050505050505050505040404040404898989EFEFEFFFFF
310
FFFFFFFFFFFFFFFFFFFFFFFFFFFFFFFFFFFFFFFFFFFFFFFFFFFFFFFFFFFFFFFF
310
FFFFFFFFFFFFFFFFFFFFFFFFFFFFFFFFFFFFFFFFFFFFFFFFFFFFFFFFFFF7F7F7
310
575757070707040404050505050505050505040404070707707070E4E4E4FFFF
310
FFFFFFFFF9F9F99F9F9F21212103030305050505050505050505050505050505
310
0505050505050505050505050505050505050505050505050505050505050505
310
0505050505050505050505050505050505050505050505050505050505050505
310
0505050505050505050505050504040405050504040405050505050505050504
310
04041D1D1D00FFFFFFFFFFFFFFFFFFFFFFFFFFFFFFFFFFFFFFFFFFFFFFFFFFFF
310
FFFFFFFFFFFFFFFFFFFFFFFFFFFFFFFFFFFFFFF5F5F5A9A9A912121204040405
310
05050505050505050505050404040E0E0E686868F2F2F2FFFFFFFFFFFFFFFFFF
310
FFFFFFFFFFFFFFFFFFFFFFFFFFFFFFFFFFFFFFFFFFFFFFFFFFFFFFFFFFFFFCFC
310
FCBBBBBB1313130303030505050505050505050505050505050404040505050C
310
0C0C0D0D0D0D0D0D0C0C0C0C0C0C0C0C0C0C0C0C0C0C0C0B0B0B0B0B0B0B0B0B
310
0B0B0B0B0B0B0A0A0A0A0A0A0A0A0A0A0A0A0909090909090909090909090808
310
080404040404040505050505050505050505050404040303032424249B9B9BFD
310
FDFDFFFFFFFFFFFFE0E0E06B6B6B030303040404050505050505050505050505
310
020202656565F6F6F6FFFFFFFFFFFFFFFFFFFFFFFFFFFFFFFFFFFFFFFFFFFFFF
310
FFF6F6F6CACACA66666614141405050504040405050505050504040405050505
310
05050404040303030B0B0B2B2B2B8C8C8CE2E2E2F8F8F8FFFFFFFFFFFFFFFFFF
310
FFFFFFFFFFFFFFFFFFFFFFFFFFFFFFFFFFFFF7F7F76969690202020505050505
310
05050505040404040404030303949494FBFBFBFFFFFFFFFFFFFDFDFD60606002
310
0202040404050505050505050505040404040404868686EDEDEDFFFFFFFFFFFF
310
FFFFFFFFFFFFFFFFFFFFFFFFFFFFFFFFFFFFFFFFFFFFFFFFFFFFFFFFFFFFFFFF
310
FFFFFFFFFFFFFFFFFFFFFFFFFFFFFFFFFFFFFFFFFFFFFFFFFFF7F7F757575707
310
07070404040505050505050505050505050707076E6E6EE3E3E3FFFFFFFFFFFF
310
F4F4F45C5C5C0B0B0B0404040505050505050505050505050505050303030303
310
0302020203030303030303030303030303030303030303030303030303030303
310
0303030303030303030303030303040404040404040404040404040404040404
310
0404040404040404040505050404040505050505050505050505050404041D1D
310
1D00FFFFFFFFFFFFFFFFFFFFFFFFFFFFFFFFFFFFFFFFFFFFFFFFFFFFFFFFFFFF
310
FFFFFFFFFFFFFFFFFFFFFFFFFFFFFFF6F6F6A9A9A91212120404040404040505
310
050505050505050404040E0E0E686868F2F2F2FFFFFFFFFFFFFFFFFFFFFFFFFF
310
FFFFFFFFFFFFFFFFFFFFFFFFFFFFFFFFFFFFFFFFFFFFFFFFFFFFF1F1F1979797
310
0A0A0A0404040505050505050505050505050404040808082B2B2B6161616969
310
696767676666666666666565656565656464646161616060605F5F5F5E5E5E5D
310
5D5D5B5B5B5A5A5A5757575757575454545353535252525151514949492A2A2A
310
0A0A0A0404040505050505050505050404040303030909096D6D6DFDFDFDFFFF
310
FFFFFFFFE0E0E06B6B6B03030304040405050505050505050505050502020265
310
6565F7F7F7FFFFFFFFFFFFFFFFFFFFFFFFFFFFFFFFFFFFFDFDFDEFEFEFA8A8A8
310
4040400D0D0D0202020404040505050505050505050505050404040404040707
310
071515155B5B5BBEBEBEF1F1F1FEFEFEFFFFFFFFFFFFFFFFFFFFFFFFFFFFFFFF
310
FFFFFFFFFFFFFFFFFFFFFFFFFFFFF7F7F7696969020202050505050505050505
310
050505040404030303949494FBFBFBFFFFFFFFFFFFFDFDFD6060600202020404
310
04050505050505050505040404040404878787EEEEEEFFFFFFFFFFFFFFFFFFFF
310
FFFFFFFFFFFFFFFFFFFFFFFFFFFFFFFFFFFFFFFFFFFFFFFFFFFFFFFFFFFFFFFF
310
FFFFFFFFFFFFFFFFFFFFFFFFFFFFFFFFFFFFFFFFFFF7F7F75757570707070404
310
040505050505050505050505050707076D6D6DE3E3E3FFFFFFFFFFFFF2F2F245
310
45450505050404040505050505050505050505050505051616161F1F1F202020
310
2020202020202020202020202020202020202020202020202020202020202020
310
202020202020202020202020202020201F1F1F1F1F1F1F1F1F1F1F1F1F1F1F1F
310
1F1F1A1A1A0808080505050505050505050505050505050404041D1D1D00FFFF
310
FFFFFFFFFFFFFFFFFFFFFFFFFFFFFFFFFFFFFFFFFFFFFFFFFFFFFFFFFFFFFFFF
310
FFFFFFFFFFFFFFFFFFFFFFF6F6F6AAAAAA121212040404050505050505050505
310
0404040303030E0E0E666666F2F2F2FFFFFFFFFFFFFFFFFFFFFFFFFFFFFFFFFF
310
FFFFFFFFFFFFFFFFFFFFFFFFFFFFFFFFFFFFFFFFFFFFEDEDED89898909090904
310
04040505050505050505050505050303032F2F2FBBBBBBE9E9E9EBEBEBEBEBEB
310
EBEBEBEBEBEBEBEBEBEBEBEBEBEBEBEAEAEAEAEAEAEAEAEAEAEAEAE9E9E9E9E9
310
E9E9E9E9E8E8E8E8E8E8E8E8E8E8E8E8E8E8E8E7E7E7E6E6E6B7B7B742424203
310
0303040404050505040404050505030303020202606060FCFCFCFFFFFFFFFFFF
310
E0E0E06A6A6A030303040404050505050505050505050505020202646464F5F5
310
F5FFFFFFFFFFFFFFFFFFFFFFFFFFFFFFF8F8F8DDDDDD8080801E1E1E08080804
310
04040505050505050505050505050505050404040202020C0C0C3737379A9A9A
310
E8E8E8F9F9F9FFFFFFFFFFFFFFFFFFFFFFFFFFFFFFFFFFFFFFFFFFFFFFFFFFFF
310
FFFFFFFFFFFFFFFFFFFFF8F8F869696902020205050505050505050505050504
310
0404030303949494FBFBFBFFFFFFFFFFFFFDFDFD606060020202040404050505
310
050505050505040404040404868686EEEEEEFFFFFFFFFFFFFFFFFFFFFFFFFFFF
310
FFFFFFFFFFFFFFFFFFFFFFFFFFFFFFFFFFFFFFFFFFFFFFFFFFFFFFFFFFFFFFFF
310
FFFFFFFFFFFFFFFFFFFFFFFFFFFFFFFFFFF7F7F7585858070707040404050505
310
0505050505050505050707076D6D6DE2E2E2FFFFFFFFFFFFF2F2F24242420303
310
030404040505050505050505050404040C0C0C8F8F8FD6D6D6DFDFDFDFDFDFDF
310
DFDFDFDFDFDFDFDFDFDFDFDFDFDFDFDFDFDFDFDFDFDFDFDFDFDFDEDEDEDDDDDD
310
DCDCDCDBDBDBDBDBDBDADADAD9D9D9D8D8D8D8D8D8D7D7D7D6D6D6D6D6D6B3B3
310
B31E1E1E0404040505050505050505050505050404041C1C1C00FFFFFFFFFFFF
310
FFFFFFFFFFFFFFFFFFFFFFFFFFFFFFFFFFFFFFFFFFFFFFFFFFFFFFFFFFFFFFFF
310
FFFFFFFFFFFFFFF6F6F6AAAAAA12121204040405050505050504040405050503
310
03030E0E0E676767F2F2F2FFFFFFFFFFFFFFFFFFFFFFFFFFFFFFFFFFFFFFFFFF
310
FFFFFFFFFFFFFFFFFFFFFFFFFFFFFFFFFFFFECECEC8888880909090404040505
310
05050505050505040404020202424242F0F0F0FFFFFFFFFFFFFFFFFFFFFFFFFF
310
FFFFFFFFFFFFFFFFFFFFFFFFFFFFFFFFFFFFFFFFFFFFFFFFFFFFFFFFFFFFFFFF
310
FFFFFFFFFFFFFFFFFFFFFFFFFFFFFFFFFFFFFFFFFFEAEAEA8181810505050404
310
040404040505050404040404040202025F5F5FFCFCFCFFFFFFFFFFFFE0E0E06A
310
6A6A030303040404050505050505050505050505020202656565F6F6F6FFFFFF
310
FFFFFFFFFFFFFFFFFFF4F4F4BBBBBB5656561010100303030404040505050404
310
04050505050505050505040404080808171717666666C9C9C9F4F4F4FFFFFFFF
310
FFFFFFFFFFFFFFFFFFFFFFFFFFFFFFFFFFFFFFFFFFFFFFFFFFFFFFFFFFFFFFFF
310
FFFFFFFFFFFFF7F7F76969690202020505050505050505050505050404040303
310
03939393FAFAFAFFFFFFFFFFFFFDFDFD60606002020204040405050505050505
310
0505040404040404858585EDEDEDFFFFFFFFFFFFFFFFFFFFFFFFFFFFFFFFFFFF
310
FFFFFFFFFFFFFFFFFFFFFFFFFFFFFFFFFFFFFFFFFFFFFFFFFFFFFFFFFFFFFFFF
310
FFFFFFFFFFFFFFFFFFFFFFFFFFF7F7F758585807070704040405050505050505
310
05050505050707076D6D6DE3E3E3FFFFFFFFFFFFF2F2F2434343040404040404
310
0505050505050505050404040D0D0DA3A3A3F4F4F4FFFFFFFFFFFFFFFFFFFFFF
310
FFFFFFFFFFFFFFFFFFFFFFFFFFFFFFFFFFFFFFFFFFFFFFFFFFFFFFFFFFFFFFFE
310
FEFEFEFEFEFEFEFEFEFEFEFEFEFEFEFEFEFEFEFEFEFEFEFDFDFDDBDBDB242424
310
0404040505050505050505050505050404041C1C1C00FFFFFFFFFFFFFFFFFFFF
310
FFFFFFFFFFFFFFFFFFFFFFFFFFFFFFFFFFFFFFFFFFFFFFFFFFFFFFFFFFFFFFFF
310
FFFFFFF6F6F6ABABAB1212120404040505050404040505050404040404040E0E
310
0E666666F2F2F2FFFFFFFFFFFFFFFFFFFFFFFFFFFFFFFFFFFFFFFFFFFFFFFFFF
310
FFFFFFFFFFFFFFFFFFFFFFFFFFFFECECEC888888090909040404050505050505
310
050505040404020202464646F5F5F5FFFFFFFFFFFFFFFFFFFFFFFFFFFFFFFFFF
310
FFFFFFFFFFFFFFFFFFFFFFFFFFFFFFFFFFFFFFFFFFFFFFFFFFFFFFFFFFFFFFFF
310
FFFFFFFFFFFFFFFFFFFFFFFFFFFFFFFFFFEFEFEF898989050505040404050505
310
0404040505050303030101015E5E5EFCFCFCFFFFFFFFFFFFE0E0E06B6B6B0303
310
03040404050505050505050505050505020202636363F4F4F4FFFFFFFFFFFFFB
310
FBFBECECEC9B9B9B2F2F2F0B0B0B030303040404050505050505040404050505
310
0505050404040F0F0F414141A3A3A3EBEBEBFBFBFBFFFFFFFFFFFFFFFFFFFFFF
310
FFFFFFFFFFFFFFFFFFFFFFFFFFFFFFFFFFFFFFFFFFFFFFFFFFFFFFFFFFFFFFFF
310
FFFFF7F7F7696969020202050505050505050505050505040404030303939393
310
FAFAFAFFFFFFFFFFFFFDFDFD6060600202020404040505050505050505050404
310
04040404858585EDEDEDFFFFFFFFFFFFFFFFFFFFFFFFFFFFFFFFFFFFFFFFFFFF
310
FFFFFFFFFFFFFFFFFFFFFFFFFFFFFFFFFFFFFFFFFFFFFFFFFFFFFFFFFFFFFFFF
310
FFFFFFFFFFFFFFFFFFF7F7F75858580808080404040505050505050505050505
310
050707076D6D6DE3E3E3FFFFFFFFFFFFF2F2F242424203030304040405050505
310
05050505050404040D0D0DA2A2A2F4F4F4FFFFFFFFFFFFFFFFFFFFFFFFFFFFFF
310
FFFFFFFFFFFFFFFFFFFFFFFFFFFFFFFFFFFFFFFFFFFFFFFFFFFFFFFFFFFFFFFF
310
FFFFFFFFFFFFFFFFFFFFFFFFFFFFFFFFFFFFFFFEFEFEDDDDDD24242404040405
310
05050505050505050505050404041D1D1D00FFFFFFFFFFFFFFFFFFFFFFFFFFFF
310
FFFFFFFFFFFFFFFFFFFFFFFFFFFFFFFFFFFFFFFFFFFFFFFFFFFFFFFFFFFFFFF6
310
F6F6ABABAB1212120404040505050505050404040505050404040E0E0E656565
310
F2F2F2FFFFFFFFFFFFFFFFFFFFFFFFFFFFFFFFFFFFFFFFFFFFFFFFFFFFFFFFFF
310
FFFFFFFFFFFFFFFFFFFFECECEC88888809090904040405050505050505050504
310
0404020202454545F5F5F5FFFFFFFFFFFFFFFFFFFFFFFFFFFFFFFFFFFFFFFFFF
310
FFFFFFFFFFFFFFFFFFFFFFFFFFFFFFFFFFFFFFFFFFFFFFFFFFFFFFFFFFFFFFFF
310
FFFFFFFFFFFFFFFFFFFFFFFFFFEFEFEF8A8A8A05050504040405050504040404
310
04040404040101015E5E5EFCFCFCFFFFFFFFFFFFE0E0E06A6A6A030303040404
310
050505050505050505050505020202646464F5F5F5FFFFFFF6F6F6CCCCCC6A6A
310
6A1515150606060404040505050505050404040404040505050404040A0A0A20
310
2020757575D5D5D5F5F5F5FFFFFFFFFFFFFFFFFFFFFFFFFFFFFFFFFFFFFFFFFF
310
FFFFFFFFFFFFFFFFFFFFFFFFFFFFFFFFFFFFFFFFFFFFFFFFFFFFFFFFFFFFF8F8
310
F8696969020202050505050505050505050505040404030303939393FBFBFBFF
310
FFFFFFFFFFFDFDFD606060020202040404050505050505050505040404040404
310
858585EDEDEDFFFFFFFFFFFFFFFFFFFFFFFFFFFFFFFFFFFFFFFFFFFFFFFFFFFF
310
FFFFFFFFFFFFFFFFFFFFFFFFFFFFFFFFFFFFFFFFFFFFFFFFFFFFFFFFFFFFFFFF
310
FFFFFFFFFFF7F7F7585858070707040404050505050505050505050505070707
310
6C6C6CE2E2E2FFFFFFFFFFFFF3F3F34343430404040404040505050505050505
310
050505050D0D0D979797DDDDDDE5E5E5E6E6E6E6E6E6E6E6E6E6E6E6E7E7E7E7
310
E7E7E7E7E7E7E7E7E7E7E7E8E8E8E7E7E7E8E8E8E8E8E8E8E8E8E8E8E8E8E8E8
310
E8E8E8E9E9E9E9E9E9E9E9E9E9E9E9E9E9E9CFCFCF2222220404040505050505
310
050505050505050404041C1C1C00FFFFFFFFFFFFFFFFFFFFFFFFFFFFFFFFFFFF
310
FFFFFFFFFFFFFFFFFFFFFFFFFFFFFFFFFFFFFFFFFFFFFFFFFFFFFFF6F6F6ADAD
310
AD1313130404040404040505050505050404040404040E0E0E656565F2F2F2FF
310
FFFFFFFFFFFFFFFFFFFFFFFFFFFFFFFFFFFFFFFFFFFFFFFFFFFFFFFFFFFFFFFF
310
FFFFFFFFFFFFEDEDED8A8A8A0909090404040404040505050505050404040303
310
03454545F5F5F5FFFFFFFFFFFFFFFFFFFFFFFFFFFFFFFFFFFFFFFFFFFFFFFFFF
310
FFFFFFFFFFFFFFFFFFFFFFFFFFFFFFFFFFFFFFFFFFFFFFFFFFFFFFFFFFFFFFFF
310
FFFFFFFFFFFFFFFFFFEFEFEF8A8A8A0505050404040404040505050404040404
310
040202025E5E5EFCFCFCFFFFFFFFFFFFDFDFDF6A6A6A03030304040405050505
310
0505050505050505020202646464F3F3F3F0F0F0A9A9A93F3F3F0E0E0E020202
310
0404040505050505050505050505050505050505051111114D4D4DB1B1B1EDED
310
EDFCFCFCFFFFFFFFFFFFFFFFFFFFFFFFFFFFFFFFFFFFFFFFFFFFFFFFFFFFFFFF
310
FFFFFFFFFFFFFFFFFFFFFFFFFFFFFFFFFFFFFFFFFFFFFFFFFFFFF8F8F8696969
310
020202050505050505050505050505040404030303939393FAFAFAFFFFFFFFFF
310
FFFDFDFD606060020202040404050505050505050505040404040404858585ED
310
EDEDFFFFFFFFFFFFFFFFFFFFFFFFFFFFFFFFFFFFFFFFFFFFFFFFFFFFFFFFFFFF
310
FFFFFFFFFFFFFFFFFFFFFFFFFFFFFFFFFFFFFFFFFFFFFFFFFFFFFFFFFFFFFFFF
310
FFF7F7F75858580707070404040505050505050505050505050707076C6C6CE2
310
E2E2FFFFFFFFFFFFF2F2F2454545040404040404050505050505050505050505
310
0505052A2A2A4242424545454646464646464A4A4A4B4B4B4D4D4D4D4D4D4E4E
310
4E4F4F4F51515152525251515153535354545454545457575757575757575759
310
59595A5A5A5A5A5A5B5B5B5C5C5C5050500D0D0D040404050505050505050505
310
0505050404041C1C1C00FFFFFFFFFFFFFFFFFFFFFFFFFFFFFFFFFFFFFFFFFFFF
310
FFFFFFFFFFFFFFFFFFFFFFFFFFFFFFFFFFFFFFFFFFFFFFF6F6F6ADADAD131313
310
0404040505050404040404040505050303030D0D0D646464F1F1F1FFFFFFFFFF
310
FFFFFFFFFFFFFFFFFFFFFFFFFFFFFFFFFFFFFFFFFFFFFFFFFFFFFFFFFFFFFFFF
310
FFFFEDEDED8A8A8A0A0A0A040404050505040404050505040404030303454545
310
F5F5F5FFFFFFFFFFFFFFFFFFFFFFFFFFFFFFFFFFFFFFFFFFFFFFFFFFFFFFFFFF
310
FFFFFFFFFFFFFFFFFFFFFFFFFFFFFFFFFFFFFFFFFFFFFFFFFFFFFFFFFFFFFFFF
310
FFFFFFFFFFEFEFEF8A8A8A050505040404040404050505040404040404020202
310
5E5E5EFCFCFCFFFFFFFFFFFFDFDFDF6969690303030404040505050505050505
310
050505050202025F5F5FD5D5D58282821D1D1D08080804040405050505050505
310
05050505050505050404040C0C0C2A2A2A848484DFDFDFF7F7F7FFFFFFFFFFFF
310
FFFFFFFFFFFFFFFFFFFFFFFFFFFFFFFFFFFFFFFFFFFFFFFFFFFFFFFFFFFFFFFF
310
FFFFFFFFFFFFFFFFFFFFFFFFFFFFFFFFFFFFFFFFFFFFF8F8F869696902020205
310
0505050505050505050505040404030303939393FAFAFAFFFFFFFFFFFFFDFDFD
310
606060020202040404050505050505050505040404040404848484ECECECFFFF
310
FFFFFFFFFFFFFFFFFFFFFFFFFFFFFFFFFFFFFFFFFFFFFFFFFFFFFFFFFFFFFFFF
310
FFFFFFFFFFFFFFFFFFFFFFFFFFFFFFFFFFFFFFFFFFFFFFFFFFFFFFFFFFF7F7F7
310
5858580707070404040505050505050505050505050707076A6A6AE2E2E2FFFF
310
FFFFFFFFF5F5F56060600C0C0C04040405050505050505050505050505050505
310
0505070707070707070707070707080808080808080808080808080808090909
310
0909090909090909090909090909090909090A0A0A0A0A0A0A0A0A0A0A0A0A0A
310
0A0A0A0A0B0B0B0B0B0B09090905050505050505050505050505050505050504
310
04041C1C1C00FFFFFFFFFFFFFFFFFFFFFFFFFFFFFFFFFFFFFFFFFFFFFFFFFFFF
310
FFFFFFFFFFFFFFFFFFFFFFFFFFFFFFFFFFFFFFF6F6F6ADADAD13131304040404
310
04040505050505050404040404040D0D0D626262F1F1F1FFFFFFFFFFFFFFFFFF
310
FFFFFFFFFFFFFFFFFFFFFFFFFFFFFFFFFFFFFFFFFFFFFFFFFFFFFFFFFFFFEDED
310
ED8B8B8B0A0A0A040404040404050505050505040404030303454545F5F5F5FF
310
FFFFFFFFFFFFFFFFFFFFFFFFFFFFFFFFFFFFFFFFFFFFFFFFFFFFFFFFFFFFFFFF
310
FFFFFFFFFFFFFFFFFFFFFFFFFFFFFFFFFFFFFFFFFFFFFFFFFFFFFFFFFFFFFFFF
310
FFEFEFEF8A8A8A0505050404040404040505050505050303030101015E5E5EFC
310
FCFCFFFFFFFFFFFFDEDEDE686868030303040404050505050505050505050505
310
0202021D1D1D3333331010100303030404040505050505050505050505050505
310
05040404030303434343B7B7B7F0F0F0FEFEFEFFFFFFFFFFFFFFFFFFFFFFFFFF
310
FFFFFFFFFFFFFFFFFFFFFFFFFFFFFFFFFFFFFFFFFFFFFFFFFFFFFFFFFFFFFFFF
310
FFFFFFFFFFFFFFFFFFFFFFFFFFFFFFFFFFFFF8F8F86969690202020505050505
310
05050505050505040404030303939393FAFAFAFFFFFFFFFFFFFDFDFD60606002
310
0202040404050505050505050505040404040404848484ECECECFFFFFFFFFFFF
310
FFFFFFFFFFFFFFFFFFFFFFFFFFFFFFFFFFFFFFFFFFFFFFFFFFFFFFFFFFFFFFFF
310
FFFFFFFFFFFFFFFFFFFFFFFFFFFFFFFFFFFFFFFFFFFFFFFFFFF7F7F758585808
310
08080404040505050505050505050505050707076A6A6AE1E1E1FFFFFFFFFFFF
310
FAFAFAA5A5A52323230303030505050505050505050505050505050505050404
310
0404040404040404040404040404040404040404040404040404040404040404
310
0404040404040404040404040404040404040404040404040404040404040404
310
0404040404040404040505050505050505050505050505050505050404041C1C
310
1C00FFFFFFFFFFFFFFFFFFFFFFFFFFFFFFFFFFFFFFFFFFFFFFFFFFFFFFFFFFFF
310
FFFFFFFFFFFFFFFFFFFFFFFFFFFFFFF7F7F7AFAFAF1313130404040404040505
310
050505050505050404040D0D0D626262F1F1F1FFFFFFFFFFFFFFFFFFFFFFFFFF
310
FFFFFFFFFFFFFFFFFFFFFFFFFFFFFFFFFFFFFFFFFFFFFFFFFFFFEDEDED8A8A8A
310
0A0A0A040404050505050505050505040404020202434343F5F5F5FFFFFFFFFF
310
FFFFFFFFFFFFFFFFFFFFFFFFFFFFFFFFFFFFFFFFFFFFFFFFFFFFFFFFFFFFFFFF
310
FFFFFFFFFFFFFFFFFFFFFFFFFFFFFFFFFFFFFFFFFFFFFFFFFFFFFFFFFFEFEFEF
310
8A8A8A0505050505050505050404040404040404040101015E5E5EFCFCFCFFFF
310
FFFFFFFFDFDFDF6A6A6A0303030404040505050505050505050404040303031E
310
1E1E373737141414050505040404050505050505050505050505050505040404
310
0303033E3E3EB1B1B1EFEFEFFEFEFEFFFFFFFFFFFFFFFFFFFFFFFFFFFFFFFFFF
310
FFFFFFFFFFFFFFFFFFFFFFFFFFFFFFFFFFFFFFFFFFFFFFFFFFFFFFFFFFFFFFFF
310
FFFFFFFFFFFFFFFFFFFFFFFFFFFFF8F8F8696969020202050505050505050505
310
050505040404030303929292FAFAFAFFFFFFFFFFFFFDFDFD6060600202020404
310
04050505050505050505040404040404838383ECECECFFFFFFFFFFFFFFFFFFFF
310
FFFFFFFFFFFFFFFFFFFFFFFFFFFFFFFFFFFFFFFFFFFFFFFFFFFFFFFFFFFFFFFF
310
FFFFFFFFFFFFFFFFFFFFFFFFFFFFFFFFFFFFFFFFFFF7F7F75757570707070404
310
040505050505050505050404040707076C6C6CE2E2E2FFFFFFFFFFFFFEFEFEEB
310
EBEB5555550A0A0A030303040404050505050505050505050505050505050505
310
0505050505050505050505050505050505050505050505050505050505050505
310
0505050505050505050505050505050505050505050505050505050505050505
310
05050505050505050505050505050505050505050505050404041C1C1C00FFFF
310
FFFFFFFFFFFFFFFFFFFFFFFFFFFFFFFFFFFFFFFFFFFFFFFFFFFFFFFFFFFFFFFF
310
FFFFFFFFFFFFFFFFFFFFFFF7F7F7AEAEAE131313040404040404050505050505
310
0505050303030D0D0D626262F1F1F1FFFFFFFFFFFFFFFFFFFFFFFFFFFFFFFFFF
310
FFFFFFFFFFFFFFFFFFFFFEFEFEFCFCFCFFFFFFFFFFFFEDEDED8A8A8A0A0A0A04
310
0404050505040404050505040404020202444444F5F5F5FFFFFFFFFFFFFFFFFF
310
FFFFFFFFFFFFFFFFFFFFFFFFFFFFFFFFFFFFFFFFFFFFFFFFFFFFFFFFFFFFFFFF
310
FFFFFFFFFFFFFFFFFFFFFFFFFFFFFFFFFFFFFFFFFFFFFFFFFFEFEFEF8A8A8A05
310
05050404040505050505050505050303030101015E5E5EFCFCFCFFFFFFFFFFFF
310
E0E0E06A6A6A0303030404040505050505050505050505050202025E5E5EDDDD
310
DD9898982D2D2D0B0B0B0404040505050505050505050505050505050404040B
310
0B0B2424247E7E7EDEDEDEF7F7F7FFFFFFFFFFFFFFFFFFFFFFFFFFFFFFFFFFFF
310
FFFFFFFFFFFFFFFFFFFFFFFFFFFFFFFFFFFFFFFFFFFFFFFFFFFFFFFFFFFFFFFF
310
FFFFFFFFFFFFFFFFFFFFF8F8F869696902020205050505050505050505050504
310
0404030303929292FAFAFAFFFFFFFFFFFFFDFDFD606060020202040404050505
310
050505050505040404040404858585EDEDEDFFFFFFFFFFFFFFFFFFFFFFFFFFFF
310
FFFFFFFFFFFFFFFFFFFFFFFFFFFFFFFFFFFFFFFFFFFFFFFFFFFFFFFFFFFFFFFF
310
FFFFFFFFFFFFFFFFFFFFFFFFFFFFFFFFFFF7F7F7585858080808040404050505
310
0505050505050505050707076B6B6BE2E2E2FFFFFFFFFFFFFFFFFFFEFEFED9D9
310
D94D4D4D15151505050503030304040404040404040404040404040404040404
310
0404040404040404040404040404040404040404040404040404040404040404
310
0404040404040404040404040404040404040404040404040404040404040404
310
040505050505050505050505050505050505050404041C1C1C00FFFFFFFFFFFF
310
FFFFFFFFFFFFFFFFFFFFFFFFFFFFFFFFFFFFFFFFFFFFFFFFFFFFFFFFFFFFFFFF
310
FFFFFFFFFFFFFFF7F7F7AEAEAE13131304040405050505050505050505050504
310
04040E0E0E646464F2F2F2FFFFFFFFFFFFFFFFFFFFFFFFFFFFFFFFFFFFFFFFFF
310
FFFFFFFFFFFFFFFFFFFFFFFFFFFFFFFFFFFFEDEDED8A8A8A0909090404040404
310
04050505040404040404020202454545F5F5F5FFFFFFFFFFFFFFFFFFFFFFFFFF
310
FFFFFFFFFFFFFFFFFFFFFFFFFFFFFFFFFFFFFFFFFFFFFFFFFFFFFFFFFFFFFFFF
310
FFFFFFFFFFFFFFFFFFFFFFFFFFFFFFFFFFFFFFFFFFEFEFEF8A8A8A0606060606
310
060505050606060505050303030101015E5E5EFCFCFCFFFFFFFFFFFFDEDEDE68
310
6868030303040404050505050505050505050505020202636363F3F3F3F3F3F3
310
BCBCBC5858581212120404040404040505050505050505050505050505050404
310
041010104F4F4FB4B4B4EFEFEFFEFEFEFFFFFFFFFFFFFFFFFFFFFFFFFFFFFFFF
310
FFFFFFFFFFFFFFFFFFFFFFFFFFFFFFFFFFFFFFFFFFFFFFFFFFFFFFFFFFFFFFFF
310
FFFFFFFFFFFFF8F8F86969690202020505050505050505050505050404040303
310
03929292FAFAFAFFFFFFFFFFFFFDFDFD60606002020204040405050505050505
310
0505040404040404848484ECECECFFFFFFFFFFFFFFFFFFFFFFFFFFFFFFFFFFFF
310
FFFFFFFFFFFFFFFFFFFFFFFFFFFFFFFFFFFFFFFFFFFFFFFFFFFFFFFFFFFFFFFF
310
FFFFFFFFFFFFFFFFFFFFFFFFFFF7F7F758585808080804040405050505050505
310
05050505050707076B6B6BE2E2E2FFFFFFFFFFFFFFFFFFFFFFFFFDFDFDE2E2E2
310
9494943C3C3C2121211C1C1C1919191919191919191919191818181818181818
310
1818181818181818181817171717171717171717171717171717171717171716
310
1616161616161616161616161616161616161616161616151515121212060606
310
0505050505050505050505050505050404041C1C1C00FFFFFFFFFFFFFFFFFFFF
310
FFFFFFFFFFFFFFFFFFFFFFFFFFFFFFFFFFFFFFFFFFFFFFFFFFFFFFFFFFFFFFFF
310
FFFFFFF6F6F6ACACAC1212120404040404040505050505050505050303030D0D
310
0D646464F1F1F1FFFFFFFFFFFFFFFFFFFFFFFFFFFFFFFFFFFFFFFFFFFFFFFFFF
310
FFFFFFFFFFFFFFFFFFFFFFFFFFFFECECEC898989090909040404050505040404
310
050505040404030303454545F5F5F5FFFFFFFFFFFFFFFFFFFFFFFFFFFFFFFFFF
310
FFFFFFFFFFFFFFFFFFFFFFFFFFFFFFFFFFFFFFFFFFFFFFFFFFFFFFFFFFFFFFFF
310
FFFFFFFFFFFFFFFFFFFFFFFFFFFFFFFFFFEFEFEF8A8A8A050505040404040404
310
0404040404040404040101015E5E5EFCFCFCFFFFFFFFFFFFDEDEDE6868680303
310
03040404050505050505050505050505020202616161F1F1F1FFFFFFF9F9F9E0
310
E0E0878787232323090909040404050505050505050505050505050505040404
310
0A0A0A252525818181DEDEDEF7F7F7FFFFFFFFFFFFFFFFFFFFFFFFFFFFFFFFFF
310
FFFFFFFFFFFFFFFFFFFFFFFFFFFFFFFFFFFFFFFFFFFFFFFFFFFFFFFFFFFFFFFF
310
FFFFF7F7F7696969020202050505050505050505050505040404030303929292
310
FAFAFAFFFFFFFFFFFFFDFDFD6060600202020404040505050505050505050404
310
04040404848484ECECECFFFFFFFFFFFFFFFFFFFFFFFFFFFFFFFFFFFFFFFFFFFF
310
FFFFFFFFFFFFFFFFFFFFFFFFFFFFFFFFFFFFFFFFFFFFFFFFFFFFFFFFFFFFFFFF
310
FFFFFFFFFFFFFFFFFFF7F7F75757570707070404040505050505050505050505
310
050707076A6A6AE2E2E2FFFFFFFFFFFFFFFFFFFFFFFFFFFFFFFEFEFEF2F2F2E3
310
E3E3D6D6D6C3C3C3B5B5B5B3B3B3B1B1B1B0B0B0AEAEAEAEAEAEACACACABABAB
310
ABABABABABABA9A9A9A8A8A8A8A8A8A6A6A6A5A5A5A5A5A5A4A4A4A3A3A3A2A2
310
A2A2A2A2A0A0A09F9F9F9E9E9E9E9E9E9D9D9D9C9C9C83838316161603030305
310
05050505050505050505050404041C1C1C00FFFFFFFFFFFFFFFFFFFFFFFFFFFF
310
FFFFFFFFFFFFFFFFFFFFFFFFFFFFFFFFFFFFFFFFFFFFFFFFFFFFFFFFFFFFFFF6
310
F6F6ACACAC1313130404040404040505050505050505050303030D0D0D636363
310
F1F1F1FFFFFFFFFFFFFFFFFFFFFFFFFFFFFFFFFFFFFFFFFFFFFFFFFFFFFFFFFF
310
FFFFFFFFFFFFFFFFFFFFEDEDED8989890A0A0A04040405050505050505050504
310
0404020202424242F1F1F1FFFFFFFFFFFFFFFFFFFFFFFFFFFFFFFFFFFFFFFFFF
310
FFFFFFFFFFFFFFFFFFFFFFFFFFFFFFFFFFFFFFFFFFFFFFFFFFFFFFFFFFFFFFFF
310
FFFFFFFFFFFFFFFFFFFFFFFFFFEDEDED86868605050504040405050505050505
310
05050303030202025F5F5FFCFCFCFFFFFFFFFFFFDEDEDE686868030303040404
310
050505050505050505050505020202636363F3F3F3FFFFFFFFFFFFFEFEFEF0F0
310
F0B3B3B34D4D4D10101003030304040405050505050505050505050505050504
310
04041111114F4F4FB2B2B2EFEFEFFDFDFDFFFFFFFFFFFFFFFFFFFFFFFFFFFFFF
310
FFFFFFFFFFFFFFFFFFFFFFFFFFFFFFFFFFFFFFFFFFFFFFFFFFFFFFFFFFFFF8F8
310
F8696969020202050505050505050505050505040404030303939393FAFAFAFF
310
FFFFFFFFFFFDFDFD606060020202040404050505050505050505040404040404
310
838383ECECECFFFFFFFFFFFFFFFFFFFFFFFFFFFFFFFFFFFFFFFFFFFFFFFFFFFF
310
FFFFFFFFFFFFFFFFFFFFFFFFFFFFFFFFFFFFFFFFFFFFFFFFFFFFFFFFFFFFFFFF
310
FFFFFFFFFFF7F7F7585858080808040404050505050505050505050505070707
310
6A6A6AE2E2E2FFFFFFFFFFFFFFFFFFFFFFFFFFFFFFFFFFFFFFFFFFFFFFFFFDFD
310
FDFAFAFAF8F8F8F8F8F8F7F7F7F7F7F7F7F7F7F7F7F7F7F7F7F6F6F6F6F6F6F6
310
F6F6F6F6F6F6F6F6F6F6F6F6F6F6F5F5F5F5F5F5F5F5F5F5F5F5F5F5F5F5F5F5
310
F5F5F5F4F4F4F4F4F4F4F4F4F4F4F4F4F4F4D8D8D82323230404040909090505
310
050505050505050404041C1C1C00FFFFFFFFFFFFFFFFFFFFFFFFFFFFFFFFFFFF
310
FFFFFFFFFFFFFFFFFFFFFFFFFFFFFFFFFFFFFFFFFFFFFFFFFFFFFFF6F6F6AAAA
310
AA1212120404040404040505050505050505050303030D0D0D646464F1F1F1FF
310
FFFFFFFFFFFFFFFFFFFFFFFFFFFFFFFFFFFFFFFFFFFFFFFFFFFFFFFFFFFFFFFF
310
FFFFFFFFFFFFECECEC8888880909090404040505050505050505050505050303
310
03303030BFBFBFEAEAEAEDEDEDEDEDEDEDEDEDEEEEEEEEEEEEEEEEEEEEEEEEEE
310
EEEEEFEFEFEFEFEFEFEFEFEFEFEFF0F0F0F0F0F0F0F0F0F0F0F0F1F1F1F0F0F0
310
F1F1F1F1F1F1F0F0F0CBCBCB5B5B5B0404040404040505050505050404040404
310
040101015E5E5EFCFCFCFFFFFFFFFFFFDEDEDE67676703030304040405050505
310
0505050505050505020202646464F4F4F4FFFFFFFFFFFFFFFFFFFFFFFFF7F7F7
310
D7D7D77A7A7A1C1C1C0808080404040505050505050505050505050505050404
310
040A0A0A242424818181DDDDDDF7F7F7FFFFFFFFFFFFFFFFFFFFFFFFFFFFFFFF
310
FFFFFFFFFFFFFFFFFFFFFFFFFFFFFFFFFFFFFFFFFFFFFFFFFFFFF8F8F8696969
310
020202050505050505050505050505040404030303939393FAFAFAFFFFFFFFFF
310
FFFDFDFD606060020202040404050505050505050505040404040404848484EC
310
ECECFFFFFFFFFFFFFFFFFFFFFFFFFFFFFFFFFFFFFFFFFFFFFFFFFFFFFFFFFFFF
310
FFFFFFFFFFFFFFFFFFFFFFFFFFFFFFFFFFFFFFFFFFFFFFFFFFFFFFFFFFFFFFFF
310
FFEFEFEF4C4C4C0505050404040505050505050505050505050707076A6A6AE2
310
E2E2FFFFFFFFFFFFFFFFFFFFFFFFFFFFFFFFFFFFFFFFFFFFFFFFFFFFFFFFFFFF
310
FFFFFFFFFFFFFFFFFFFFFFFFFFFFFFFFFFFFFFFFFFFFFFFFFFFFFFFFFFFFFFFF
310
FFFFFFFFFFFFFFFFFFFFFFFFFFFFFFFFFFFFFFFFFFFFFFFFFFFFFFFFFFFFFFFF
310
FFFFFFFFFFFFFFFFFFFFFFFFFFFFE2E2E2252525030303050505050505050505
310
0505050404041C1C1C00FFFFFFFFFFFFFFFFFFFFFFFFFFFFFFFFFFFFFFFFFFFF
310
FFFFFFFFFFFFFFFFFFFFFFFFFFFFFFFFFFFFFFFFFFFFFFF6F6F6A9A9A9121212
310
0404040505050505050505050505050303030E0E0E656565F2F2F2FFFFFFFFFF
310
FFFFFFFFFFFFFFFFFFFFFFFFFFFFFFFFFFFFFFFFFFFFFFFFFFFFFFFFFFFFFFFF
310
FFFFF0F0F09494940A0A0A040404050505050505050505050505040404090909
310
2D2D2D6767677272727373737575757676767878787979797979797B7B7B7C7C
310
7C7E7E7E7E7E7E7F7F7F8282828585858484848686868989898787878A8A8A8A
310
8A8A8484845252520F0F0F040404050505050505040404050505040404030303
310
626262FCFCFCFFFFFFFFFFFFDFDFDF6969690303030404040505050505050505
310
05050505020202636363F3F3F3FFFFFFFFFFFFFFFFFFFFFFFFFFFFFFFCFCFCEE
310
EEEEA9A9A94343430E0E0E030303040404050505050505050505050505050505
310
0404041111114E4E4EB2B2B2EFEFEFFDFDFDFFFFFFFFFFFFFFFFFFFFFFFFFFFF
310
FFFFFFFFFFFFFFFFFFFFFFFFFFFFFFFFFFFFFFFFFFFFF6F6F668686802020205
310
0505050505050505050505040404030303939393FAFAFAFFFFFFFFFFFFFDFDFD
310
606060020202040404050505050505050505040404040404777777D1D1D1DFDF
310
DFDFDFDFDFDFDFDFDFDFDFDFDFE0E0E0E0E0E0E0E0E0E0E0E0E0E0E0E0E0E0E0
310
E0E0E1E1E1E1E1E1E1E1E1E1E1E1E1E1E1E1E1E1E1E1E1E2E2E2DFDFDFADADAD
310
2E2E2E0404040505050505050505050505050505050707076C6C6CE2E2E2FFFF
310
FFFFFFFFFFFFFFFFFFFFFFFFFFFFFFFFFFFFFFFFFFFFFFFFFFFFFFFFFFFFFFFF
310
FFFFFFFFFFFFFFFFFFFFFFFFFFFFFFFFFFFFFFFFFFFFFFFFFFFFFFFFFFFFFFFF
310
FFFFFFFFFFFFFFFFFFFFFFFFFFFFFFFFFFFFFFFFFFFFFFFFFFFFFFFFFFFFFFFF
310
FFFFFFFFFFFFFFFCFCFCCDCDCD21212104040405050505050505050505050504
310
04041C1C1C00FFFFFFFFFFFFFFFFFFFFFFFFFFFFFFFFFFFFFFFFFFFFFFFFFFFF
310
FFFFFFFFFFFFFFFFFFFFFFFFFFFFFFFFFFFFFFF6F6F6AAAAAA12121204040405
310
05050505050505050505050404040D0D0D636363F1F1F1FFFFFFFFFFFFFFFFFF
310
FFFFFFFFFFFFFFFFFFFFFFFFFFFFFFFFFFFFFFFFFFFFFFFFFFFFFFFFFFFFFBFB
310
FBB9B9B91212120303030505050505050505050505050505050404040505050D
310
0D0D0E0E0E0E0E0E0F0F0F0F0F0F0F0F0F101010101010101010101010101010
310
1010101010101111111111111111111212121212121212121212121212121111
310
110B0B0B040404050505050505050505050505040404030303151515818181FD
310
FDFDFFFFFFFFFFFFDEDEDE676767030303040404050505050505050505050505
310
020202656565F5F5F5FFFFFFFFFFFFFFFFFFFFFFFFFFFFFFFFFFFFFFFFFFF6F6
310
F6D2D2D272727218181807070704040405050505050505050505050505050504
310
04040A0A0A2323237D7D7DDADADAF7F7F7FFFFFFFFFFFFFFFFFFFFFFFFFFFFFF
310
FFFFFFFFFFFFFFFFFFFFFFFFFFFFFFFFFFFFF6F6F66868680202020505050505
310
05050505050505040404030303939393FAFAFAFFFFFFFFFFFFFCFCFC60606002
310
02020404040505050505050505050505050404041212121E1E1E202020202020
310
2121212121212222222222222323232424242424242525252727272727272828
310
282A2A2A2A2A2A2B2B2B2B2B2B2C2C2C2D2D2D2F2F2F2B2B2B1B1B1B09090905
310
0505050505050505050505050505040404080808868686EBEBEBFFFFFFFFFFFF
310
FEFEFEF2F2F2E2E2E2DEDEDEDEDEDEDFDFDFDFDFDFDFDFDFDFDFDFDFDFDFDFDF
310
DFDFDFDFDFDFDFDFDFDFDFDFDFDFDFDFDFDFDFDFDFDFDFDFDFDFDFDFDFDFDFDF
310
DFDFDFDFDFDFDFDFDFDFDFDFDFDFDFDFDFE0E0E0E0E0E0E0E0E0E0E0E0E0E0E0
310
E0E0E0D1D1D16363630E0E0E0404040505050505050505050505050404041E1E
310
1E00FFFFFFFFFFFFFFFFFFFFFFFFFFFFFFFFFFFFFFFFFFFFFFFFFFFFFFFFFFFF
310
FFFFFFFFFFFFFFFFFFFFFFFFFFFFFFF5F5F5A9A9A91212120404040505050505
310
050505050505050404040D0D0D646464F1F1F1FFFFFFFFFFFFFFFFFFFFFFFFFF
310
FFFFFFFFFFFFFFFFFFFFFFFFFFFFFFFFFFFFFFFFFFFFFFFFFFFFFFFFFFD2D2D2
310
3F3F3F0505050505050505050505050505050505050505050505050404040505
310
0504040404040404040404040404040404040404040404040404040404040404
310
0404040404040404040404040404040404040404040404040404040404050505
310
050505050505050505050505050505050505030303383838BDBDBDFEFEFEFFFF
310
FFFFFFFFDDDDDD67676703030304040405050505050505050505050502020264
310
6464F5F5F5FFFFFFFFFFFFFFFFFFFFFFFFFFFFFFFFFFFFFFFFFFFFFFFFFCFCFC
310
EDEDEDA3A3A33C3C3C0E0E0E0303030505050505050505050505050505050404
310
040404041010104A4A4AAEAEAEEEEEEEFCFCFCFFFFFFFFFFFFFFFFFFFFFFFFFF
310
FFFFFFFFFFFFFFFFFFFFFFFFFFFFF6F6F6686868020202050505050505050505
310
050505040404030303939393FAFAFAFFFFFFFFFFFFFDFDFD6060600202020404
310
0405050505050505050505050505050504040402020202020202020202020202
310
0202020202030303020202020202020202020202030303030303030303030303
310
0303030303030303030303030303030303030303030303030505050505050505
310
05050505050505050505040404111111B3B3B3FAFAFAFFFFFFFFFFFFFAFAFAA6
310
A6A63A3A3A202020202020202020202020202020202020202020202020202020
310
2020202020202020202020202020202020202020202020202020202020202020
310
202020202121212222222222222323232323232424242525252525252727271F
310
1F1F0C0C0C0505050505050505050505050505050505050303032A2A2A00FFFF
310
FFFFFFFFFFFFFFFFFFFFFFFFFFFFFFFFFFFFFFFFFFFFFFFFFFFFFFFFFFFFFFFF
310
FFFFFFFFFFFFFFFFFFFFFFF6F6F6AAAAAA121212040404050505050505050505
310
0505050404040D0D0D616161F1F1F1FFFFFFFFFFFFFFFFFFFFFFFFFFFFFFFFFF
310
FFFFFFFFFFFFFFFFFFFFFFFFFFFFFFFFFFFFFFFFFFFFFFFFFFF3F3F3A3A3A317
310
1717040404050505050505050505050505050505050505050505060606040404
310
0505050505050505050505050505050505050505050505050505050505050505
310
0505050504040405050504040405050505050505050505050505050505050505
310
05050505050505050505050303030C0C0C6C6C6CF4F4F4FFFFFFFFFFFFFFFFFF
310
DEDEDE676767030303040404050505050505050505050505020202626262F2F2
310
F2FFFFFFFFFFFFFFFFFFFFFFFFFFFFFFFFFFFFFFFFFFFFFFFFFFFFFFFFFFFFF5
310
F5F5CCCCCC6A6A6A151515070707040404050505050505050505050505050505
310
040404090909202020797979D5D5D5F6F6F6FFFFFFFFFFFFFFFFFFFFFFFFFFFF
310
FFFFFFFFFFFFFFFFFFFFF7F7F769696902020205050505050505050505050504
310
0404030303929292FAFAFAFFFFFFFFFFFFFCFCFC606060020202040404050505
310
0505050505050505050505050505050505050505050505050505050505050505
310
0505050505050505050505050505050505050505050505050505050505050504
310
0404040404040404040404040404050505050505050505050505050505050505
310
050505050505050505414141D2D2D2FFFFFFFFFFFFFFFFFFF9F9F99E9E9E2020
310
2002020204040403030303030303030303030303030303030303030303030303
310
0303030303030303030303020202020202020202020202020202020202020202
310
0202020202020202020202020303030202020202020202020303030303030404
310
040505050505050505050505050505050404040F0F0F76767600FFFFFFFFFFFF
310
FFFFFFFFFFFFFFFFFFFFFFFFFFFFFFFFFFFFFFFFFFFFFFFFFFFFFFFFFFFFFFFF
310
FFFFFFFFFFFFFFF6F6F6AAAAAA12121204040404040405050505050505050504
310
04040C0C0C606060F1F1F1FFFFFFFFFFFFFFFFFFFFFFFFFFFFFFFFFFFFFFFFFF
310
FFFFFFFFFFFFFFFFFFFFFFFFFFFFFFFFFFFFFFFFFFFEFEFEE1E1E17777771616
310
1603030304040405050505050505050505050505050504040405050505050505
310
0505050505050505050505050505050505050505050505050505050505040404
310
0505050404040505050505050505050505050505050505050505050505050505
310
050404040303030A0A0A555555D3D3D3FEFEFEFFFFFFFFFFFFFFFFFFDEDEDE67
310
6767030303040404050505050505050505050505020202626262F2F2F2FFFFFF
310
FFFFFFFFFFFFFFFFFFFFFFFFFFFFFFFFFFFFFFFFFFFFFFFFFFFFFFFFFFFFFBFB
310
FBEBEBEB9C9C9C3636360C0C0C03030305050505050505050505050505050504
310
04040404040F0F0F464646AAAAAAEDEDEDFCFCFCFFFFFFFFFFFFFFFFFFFFFFFF
310
FFFFFFFFFFFFF7F7F76969690202020505050505050505050505050404040303
310
03929292FAFAFAFFFFFFFFFFFFFDFDFD60606002020204040405050505050505
310
0505050505050505050505050505050505050505050505050505050505050505
310
0505050505050505050505050505050505050505050505050505050505050505
310
0505050505050505050505050505050505050505050505050505050505050503
310
03031B1B1BABABABF6F6F6FFFFFFFFFFFFFFFFFFF9F9F99F9F9F202020040404
310
0505050505050505050505050505050505050505050505050505050505050505
310
0505050505050505050505050505050505050505050505050505050505050505
310
0505050505050505050505050505050505050505050505050505050505050505
310
050505050505050505050505040404303030D4D4D400FFFFFFFFFFFFFFFFFFFF
310
FFFFFFFFFFFFFFFFFFFFFFFFFFFFFFFFFFFFFFFFFFFFFFFFFFFFFFFFFFFFFFFF
310
FFFFFFF6F6F6ACACAC1212120404040505050505050505050505050404040C0C
310
0C5F5F5FF1F1F1FFFFFFFFFFFFFFFFFFFFFFFFFFFFFFFFFFFFFFFFFFFFFFFFFF
310
FFFFFFFFFFFFFFFFFFFFFFFFFFFFFFFFFFFFFFFFFCFCFCDFDFDF858585222222
310
1010100606060202020303030404040404040404040404040404040404040404
310
0404040404040404040404040404040404040404040404040404040404040404
310
0404040404040404040404040404040404040404040404040404030303090909
310
181818595959D0D0D0FAFAFAFFFFFFFFFFFFFFFFFFFFFFFFE0E0E06A6A6A0303
310
03040404050505050505050505050505020202636363F4F4F4FFFFFFFFFFFFFF
310
FFFFFFFFFFFFFFFFFFFFFFFFFFFFFFFFFFFFFFFFFFFFFFFFFFFFFFFFFFFFFFFF
310
F4F4F4C5C5C56262621414140606060404040404040404040404040404040404
310
040303030808081C1C1C757575D2D2D2F5F5F5FFFFFFFFFFFFFFFFFFFFFFFFFF
310
FFFFF7F7F7696969020202040404040404040404040404040404030303929292
310
FAFAFAFFFFFFFFFFFFFDFDFD6060600202020404040404040404040404040404
310
0404040404040404040404040404040404040404040404040404040404040404
310
0404040404040404040404040404040404040404040404040404040404040404
310
0404040404040404040404040404040404040404040404040606061C1C1C8B8B
310
8BE9E9E9FFFFFFFFFFFFFFFFFFFFFFFFF9F9F9A0A0A021212104040405050505
310
0505050505050505050505050505050505050505050505050505050505050505
310
0505050505050505050505050505050505050505050505050505050505050505
310
0505050505050505050505050505050505050505050505050505050505050504
310
04040404040505052A2A2AABABABF6F6F600E7E7E7E7E7E7E7E7E7E7E7E7E7E7
310
E7E7E7E7E7E7E7E7E7E7E8E8E8E8E8E8E8E8E8E8E8E8E8E8E8E8E8E8E8E8E8E2
310
E2E2A3A3A31111110404040505050505050505050505050404040B0B0B595959
310
E2E2E2EFEFEFEFEFEFF0F0F0F0F0F0F0F0F0F0F0F0F0F0F0F1F1F1F1F1F1F1F1
310
F1F1F1F1F2F2F2F2F2F2F2F2F2F2F2F2F4F4F4F9F9F9EFEFEFCACACA7B7B7B3D
310
3D3D2121211E1E1E1D1D1D1D1D1D1D1D1D1D1D1D1D1D1D1C1C1C1C1C1C1C1C1C
310
1C1C1C1C1C1C1C1C1C1B1B1B1B1B1B1B1B1B1B1B1B1B1B1B1B1B1B1B1B1B1A1A
310
1A1A1A1A1A1A1A1A1A1A1A1A1A1919191A1A1A1C1C1C272727525252A6A6A6E8
310
E8E8FBFBFBFFFFFFFFFFFFFFFFFFFFFFFFFFFFFFDFDFDF696969030303040404
310
050505050505050505050505020202636363F4F4F4FFFFFFFFFFFFFFFFFFFFFF
310
FFFFFFFFFFFFFFFFFFFFFFFFFFFFFFFFFFFFFFFFFFFFFFFFFFFFFFFFFFFFFFFA
310
FAFAE8E8E8959595323232131313121212121212111111111111111111111111
310
1010101010101E1E1E4B4B4BB2B2B2F8F8F8FFFFFFFFFFFFFFFFFFFFFFFFF7F7
310
F77070700D0D0D0E0E0E0E0E0E0D0D0D0D0D0D0D0D0D0D0D0D979797FAFAFAFF
310
FFFFFFFFFFFDFDFD6767670B0B0B0B0B0B0B0B0B0B0B0B0B0B0B0B0B0B0A0A0A
310
0A0A0A0A0A0A0A0A0A0A0A0A0909090909090909090808080808080808080808
310
0807070707070707070707070707070706060606060606060606060606060605
310
05050505050505050606060909090F0F0F191919393939A4A4A4EAEAEAFDFDFD
310
FFFFFFFFFFFFFFFFFFFFFFFFF9F9F99F9F9F2121210202020303030303030202
310
0202020203030303030303030302020202020202020202020202020202020203
310
0303020202030303030303030303030303030303030303030303030303030303
310
0303030303030303030303030404040404040404040303030303030A0A0A1515
310
15373737B1B1B1F1F1F1FEFEFE004E4E4E4C4C4C4E4E4E4E4E4E4E4E4E4F4F4F
310
4F4F4F5151515353535454545454545555555656565656565757575656563B3B
310
3B0707070404040505050505050505050505050404040707072D2D2D7B7B7B81
310
81818181818282828484848484848585858787878A8A8A8B8B8B8B8B8B8D8D8D
310
8E8E8E909090939393929292A5A5A5E3E3E3FEFEFEFBFBFBEEEEEEE4E4E4DCDC
310
DCD1D1D1CCCCCCCBCBCBC9C9C9C9C9C9C8C8C8C6C6C6C6C6C6C4C4C4C3C3C3C3
310
C3C3C2C2C2C0C0C0C0C0C0C0C0C0BEBEBEBDBDBDBDBDBDBCBCBCBABABAB9B9B9
310
B8B8B8B7B7B7B6B6B6B5B5B5B8B8B8C6C6C6DADADAE8E8E8F6F6F6FFFFFFFFFF
310
FFFFFFFFFFFFFFFFFFFFFFFFFFFFFFFFE0E0E06B6B6B03030304040405050504
310
0404050505050505020202636363F4F4F4FFFFFFFFFFFFFFFFFFFFFFFFFFFFFF
310
FFFFFFFFFFFFFFFFFFFFFFFFFFFFFFFFFFFFFFFFFFFFFFFFFFFFFFFFFFFFFFFF
310
FFF3F3F3C2C2C29191918686868787878484848484848282828181817F7F7F7C
310
7C7C7B7B7B7C7C7C939393D7D7D7FFFFFFFFFFFFFFFFFFFFFFFFFBFBFBA9A9A9
310
6F6F6F6F6F6F6D6D6D6C6C6C6C6C6C6B6B6B676767BDBDBDFCFCFCFFFFFFFFFF
310
FFFDFDFD9B9B9B6060606060605F5F5F5D5D5D5D5D5D5C5C5C5A5A5A5A5A5A57
310
57575656565656565353535151515050504E4E4E4D4D4D4B4B4B4B4B4B484848
310
4747474646464545454444444242424141414040403F3F3F3D3D3D3C3C3C3B3B
310
3B3A3A3A3F3F3F525252757575ACACACDADADAF5F5F5FEFEFEFFFFFFFFFFFFFF
310
FFFFFFFFFFFFFFFFFBFBFBB0B0B03F3F3F272727282828272727252525252525
310
2222222323232222222121212020202020202020202020202020202020202020
310
2020202020202020202020202020202020202020202020202020202020202020
310
20202020202020202020202020202020202121212A2A2A575757999999DADADA
310
F7F7F7FEFEFEFFFFFF000D0D0D08080808080808080808080808080808080809
310
09090909090909090909090909090A0A0A0A0A0A0A0A0A0A0A0A080808040404
310
0505050505050505050505050505050505050404040707071010101111111111
310
1111111111111111111112121212121212121212121212121213131313131313
310
1313141414131313393939BFBFBFFBFBFBFFFFFFFFFFFFFFFFFFFFFFFFFDFDFD
310
FCFCFCFCFCFCFBFBFBFBFBFBFBFBFBFBFBFBFBFBFBFBFBFBFAFAFAFAFAFAFAFA
310
FAFAFAFAFAFAFAFAFAFAFAFAFAF9F9F9F9F9F9F9F9F9F9F9F9F9F9F9F9F9F9F8
310
F8F8F8F8F8F8F8F8F9F9F9FBFBFBFEFEFEFFFFFFFFFFFFFFFFFFFFFFFFFFFFFF
310
FFFFFFFFFFFFFFFFFFFFFFFFE0E0E06B6B6B0303030606060606060505050404
310
04050505020202636363F4F4F4FFFFFFFFFFFFFFFFFFFFFFFFFFFFFFFFFFFFFF
310
FFFFFFFFFFFFFFFFFFFFFFFFFFFFFFFFFFFFFFFFFFFFFFFFFFFFFFFFFFFFFFFF
310
FAFAFAF2F2F2F0F0F0F0F0F0F0F0F0F0F0F0F0F0F0EFEFEFEFEFEFEFEFEFEEEE
310
EEEEEEEEEFEFEFF8F8F8FFFFFFFFFFFFFFFFFFFFFFFFFFFFFFF4F4F4ECECECEC
310
ECECECECECECECECECECECECECECEBEBEBF6F6F6FFFFFFFFFFFFFFFFFFFFFFFF
310
F2F2F2EAEAEAEAEAEAEAEAEAE9E9E9E9E9E9E9E9E9E9E9E9E9E9E9E8E8E8E8E8
310
E8E8E8E8E8E8E8E7E7E7E7E7E7E7E7E7E7E7E7E6E6E6E6E6E6E6E6E6E6E6E6E6
310
E6E6E5E5E5E5E5E5E5E5E5E5E5E5E5E5E5E4E4E4E4E4E4E4E4E4E4E4E4E4E4E4
310
E4E4E4E8E8E8EDEDEDF6F6F6FDFDFDFFFFFFFFFFFFFFFFFFFFFFFFFFFFFFFFFF
310
FFFFFFFFFEFEFEF4F4F4E4E4E4E0E0E0E1E1E1E0E0E0E0E0E0E0E0E0E0E0E0E0
310
E0E0E0E0E0DFDFDFDFDFDFDFDFDFDFDFDFDFDFDFDFDFDFDFDFDFDFDFDFDFDFDF
310
DFDFDFDFDFDFDFDFDFDFDFDFDFDFDFDFDFDFDFDFDFDFDFDFDFDFDFDEDEDEDDDD
310
DDDCDCDCDCDCDCDCDCDCDCDCDCDFDFDFE1E1E1E8E8E8F3F3F3FEFEFEFFFFFFFF
310
FFFFFFFFFF000707070404040404040404040404040404040404040404040404
310
0404040404040404040404040404040404040404040405050505050505050505
310
0505050505050505050505040404050505040404040404040404040404040404
310
0404040404040404040404040404040404040404040404040404040404040404
310
040303032A2A2ABBBBBBFBFBFBFFFFFFFFFFFFFFFFFFFFFFFFFFFFFFFFFFFFFF
310
FFFFFFFFFFFFFFFFFFFFFFFFFFFFFFFFFFFFFFFFFFFFFFFFFFFFFFFFFFFFFFFF
310
FFFFFFFFFFFFFFFFFFFFFFFFFFFFFFFFFFFFFFFFFFFFFFFFFFFFFFFFFFFFFFFF
310
FFFFFFFFFFFFFFFFFFFFFFFFFFFFFFFFFFFFFFFFFFFFFFFFFFFFFFFFFFFFFFFF
310
FFFFFFFFFFFFFFFFE0E0E06B6B6B030303040404040404040404040404050505
310
020202636363F4F4F4FFFFFFFFFFFFFFFFFFFFFFFFFFFFFFFFFFFFFFFFFFFFFF
310
FFFFFFFFFFFFFFFFFFFFFFFFFFFFFFFFFFFFFFFFFFFFFFFFFFFFFFFFFFFFFFFF
310
FFFFFFFFFFFFFFFFFFFFFFFFFFFFFFFFFFFFFFFFFFFFFFFFFFFFFFFFFFFFFFFF
310
FFFFFFFFFFFFFFFFFFFFFFFFFFFFFFFFFFFFFEFEFEECECECDFDFDFDFDFDFDFDF
310
DFDFDFDFDFDFDFDFDFDFDFDFDFF1F1F1FEFEFEFFFFFFFFFFFFFFFFFFFFFFFFFF
310
FFFFFFFFFFFFFFFFFFFFFFFFFFFFFFFFFFFFFFFFFFFFFFFFFFFFFFFFFFFFFFFF
310
FFFFFFFFFFFFFFFFFFFFFFFFFFFFFFFFFFFFFFFFFFFFFFFFFFFFFFFFFFFFFFFF
310
FFFFFFFFFFFFFFFFFFFFFFFFFFFFFFFFFFFFFFFFFFFFFFFFFFFFFFFFFFFFFFFF
310
FFFFFFFFFFFFFFFFFFFFFFFFFFFFFFFFFFFFFFFFFFFFFFFFFFFFFFFFFFFFFFFF
310
FFFFFFFFFFFFFFFFFFFFFFFFFFFFFFFFFFFFFFFFFFFFFFFFFFFFFFFFFFFFFFFF
310
FFFFFFFFFFFFFFFFFFFFFFFFFFFFFFFFFFFFFFFFFFFFFFFFFFFFFFFFFFFFFFFF
310
FFFFFFFFFFFFFFFFFFFFFFFFFFFFFFFFFFFFFFFFFFFFFFFFFFFFFFFFFFFFFFFF
310
FFFFFFFFFFFFFFFFFFFFFFFFFFFFFFFFFFFFFFFFFFFFFFFFFFFFFFFFFFFFFFFF
310
FF00060606040404040404040404050505050505050505050505050505050505
310
0505050505050505050505050505050505050505050505050505050505050505
310
0505050505050505050507070704040404040405050505050505050505050505
310
0505050505050505050505050505050505050505050505050505050505030303
310
2A2A2ABBBBBBFBFBFBFFFFFFFFFFFFFFFFFFFFFFFFFFFFFFFFFFFFFFFFFFFFFF
310
FFFFFFFFFFFFFFFFFFFFFFFFFFFFFFFFFFFFFFFFFFFFFFFFFFFFFFFFFFFFFFFF
310
FFFFFFFFFFFFFFFFFFFFFFFFFFFFFFFFFFFFFFFFFFFFFFFFFFFFFFFFFFFFFFFF
310
FFFFFFFFFFFFFFFFFFFFFFFFFFFFFFFFFFFFFFFFFFFFFFFFFFFFFFFFFFFFFFFF
310
FFFFFFFFE0E0E06B6B6B03030304040404040404040405050505050502020263
310
6363F4F4F4FFFFFFFFFFFFFFFFFFFFFFFFFFFFFFFFFFFFFFFFFFFFFFFFFFFFFF
310
FFFFFFFFFFFFFFFFFFFFFFFFFFFFFFFFFFFFFFFFFFFFFFFFFFFFFFFFFFFFFFFF
310
FFFFFFFFFFFFFFFFFFFFFFFFFFFFFFFFFFFFFFFFFFFFFFFFFFFFFFFFFFFFFFFF
310
FFFFFFFFFFFFFFFFFFFFFFFFFFFFF8F8F87C7C7C202020202020202020202020
310
212121222222222222A0A0A0FBFBFBFFFFFFFFFFFFFFFFFFFFFFFFFFFFFFFFFF
310
FFFFFFFFFFFFFFFFFFFFFFFFFFFFFFFFFFFFFFFFFFFFFFFFFFFFFFFFFFFFFFFF
310
FFFFFFFFFFFFFFFFFFFFFFFFFFFFFFFFFFFFFFFFFFFFFFFFFFFFFFFFFFFFFFFF
310
FFFFFFFFFFFFFFFFFFFFFFFFFFFFFFFFFFFFFFFFFFFFFFFFFFFFFFFFFFFFFFFF
310
FFFFFFFFFFFFFFFFFFFFFFFFFFFFFFFFFFFFFFFFFFFFFFFFFFFFFFFFFFFFFFFF
310
FFFFFFFFFFFFFFFFFFFFFFFFFFFFFFFFFFFFFFFFFFFFFFFFFFFFFFFFFFFFFFFF
310
FFFFFFFFFFFFFFFFFFFFFFFFFFFFFFFFFFFFFFFFFFFFFFFFFFFFFFFFFFFFFFFF
310
FFFFFFFFFFFFFFFFFFFFFFFFFFFFFFFFFFFFFFFFFFFFFFFFFFFFFFFFFFFFFFFF
310
FFFFFFFFFFFFFFFFFFFFFFFFFFFFFFFFFFFFFFFFFFFFFFFFFFFFFFFFFF000606
310
0606060605050504040405050505050505050505050505050505050505050505
310
0505050505050505050505050505050505050505050505050505050505050505
310
0505050505050505050404040505050505050505050505050505050505050505
310
050505050505050505050505050505050505050505050404040303032A2A2ABD
310
BDBDFBFBFBFFFFFFFFFFFFFFFFFFFFFFFFFFFFFFFFFFFFFFFFFFFFFFFFFFFFFF
310
FFFFFFFFFFFFFFFFFFFFFFFFFFFFFFFFFFFFFFFFFFFFFFFFFFFFFFFFFFFFFFFF
310
FFFFFFFFFFFFFFFFFFFFFFFFFFFFFFFFFFFFFFFFFFFFFFFFFFFFFFFFFFFFFFFF
310
FFFFFFFFFFFFFFFFFFFFFFFFFFFFFFFFFFFFFFFFFFFFFFFFFFFFFFFFFFFFFFFF
310
E1E1E16C6C6C030303040404050505050505050505050505020202646464F5F5
310
F5FFFFFFFFFFFFFFFFFFFFFFFFFFFFFFFFFFFFFFFFFFFFFFFFFFFFFFFFFFFFFF
310
FFFFFFFFFFFFFFFFFFFFFFFFFFFFFFFFFFFFFFFFFFFFFFFFFFFFFFFFFFFFFFFF
310
FFFFFFFFFFFFFFFFFFFFFFFFFFFFFFFFFFFFFFFFFFFFFFFFFFFFFFFFFFFFFFFF
310
FFFFFFFFFFFFFFFFFFFFF9F9F96A6A6A01010102020202020202020202020202
310
0202020202939393FAFAFAFFFFFFFFFFFFFFFFFFFFFFFFFFFFFFFFFFFFFFFFFF
310
FFFFFFFFFFFFFFFFFFFFFFFFFFFFFFFFFFFFFFFFFFFFFFFFFFFFFFFFFFFFFFFF
310
FFFFFFFFFFFFFFFFFFFFFFFFFFFFFFFFFFFFFFFFFFFFFFFFFFFFFFFFFFFFFFFF
310
FFFFFFFFFFFFFFFFFFFFFFFFFFFFFFFFFFFFFFFFFFFFFFFFFFFFFFFFFFFFFFFF
310
FFFFFFFFFFFFFFFFFFFFFFFFFFFFFFFFFFFFFFFFFFFFFFFFFFFFFFFFFFFFFFFF
310
FFFFFFFFFFFFFFFFFFFFFFFFFFFFFFFFFFFFFFFFFFFFFFFFFFFFFFFFFFFFFFFF
310
FFFFFFFFFFFFFFFFFFFFFFFFFFFFFFFFFFFFFFFFFFFFFFFFFFFFFFFFFFFFFFFF
310
FFFFFFFFFFFFFFFFFFFFFFFFFFFFFFFFFFFFFFFFFFFFFFFFFFFFFFFFFFFFFFFF
310
FFFFFFFFFFFFFFFFFFFFFFFFFFFFFFFFFFFFFFFFFFFFFFFFFF00060606040404
310
0404040505050505050505050404040505050505050505050505050505050505
310
0505050505050505050505050505050505050505050505050505050505050505
310
0505050505050505050505050505050505050505050505050505050505050505
310
0505050505050505050505050505050404040505050303032A2A2ABDBDBDFBFB
310
FBFFFFFFFFFFFFFFFFFFFFFFFFFFFFFFFFFFFFFFFFFFFFFFFFFFFFFFFFFFFFFF
310
FFFFFFFFFFFFFFFFFFFFFFFFFFFFFFFFFFFFFFFFFFFFFFFFFFFFFFFFFFFFFFFF
310
FFFFFFFFFFFFFFFFFFFFFFFFFFFFFFFFFFFFFFFFFFFFFFFFFFFFFFFFFFFFFFFF
310
FFFFFFFFFFFFFFFFFFFFFFFFFFFFFFFFFFFFFFFFFFFFFFFFFFFFFFFFE0E0E06B
310
6B6B030303040404050505050505050505040404020202636363F4F4F4FFFFFF
310
FFFFFFFFFFFFFFFFFFFFFFFFFFFFFFFFFFFFFFFFFFFFFFFFFFFFFFFFFFFFFFFF
310
FFFFFFFFFFFFFFFFFFFFFFFFFFFFFFFFFFFFFFFFFFFFFFFFFFFFFFFFFFFFFFFF
310
FFFFFFFFFFFFFFFFFFFFFFFFFFFFFFFFFFFFFFFFFFFFFFFFFFFFFFFFFFFFFFFF
310
FFFFFFFFFFFFF9F9F96A6A6A0202020505050505050505050505050404040303
310
03939393FBFBFBFFFFFFFFFFFFFFFFFFFFFFFFFFFFFFFFFFFFFFFFFFFFFFFFFF
310
FFFFFFFFFFFFFFFFFFFFFFFFFFFFFFFFFFFFFFFFFFFFFFFFFFFFFFFFFFFFFFFF
310
FFFFFFFFFFFFFFFFFFFFFFFFFFFFFFFFFFFFFFFFFFFFFFFFFFFFFFFFFFFFFFFF
310
FFFFFFFFFFFFFFFFFFFFFFFFFFFFFFFFFFFFFFFFFFFFFFFFFFFFFFFFFFFFFFFF
310
FFFFFFFFFFFFFFFFFFFFFFFFFFFFFFFFFFFFFFFFFFFFFFFFFFFFFFFFFFFFFFFF
310
FFFFFFFFFFFFFFFFFFFFFFFFFFFFFFFFFFFFFFFFFFFFFFFFFFFFFFFFFFFFFFFF
310
FFFFFFFFFFFFFFFFFFFFFFFFFFFFFFFFFFFFFFFFFFFFFFFFFFFFFFFFFFFFFFFF
310
FFFFFFFFFFFFFFFFFFFFFFFFFFFFFFFFFFFFFFFFFFFFFFFFFFFFFFFFFFFFFFFF
310
FFFFFFFFFFFFFFFFFFFFFFFFFFFFFFFFFFFFFFFFFF0006060602020203030303
310
0303030303030303030303030303030303030303040404040404040404040404
310
0404040404040404040404040404040404040404040404040404040404040404
310
0404040404040404040404040404040404040404040404040404040404040404
310
04040404040404040404040404040404040303032B2B2BBEBEBEFCFCFCFFFFFF
310
FFFFFFFFFFFFFFFFFFFFFFFFFFFFFFFFFFFFFFFFFFFFFFFFFFFFFFFFFFFFFFFF
310
FFFFFFFFFFFFFFFFFFFFFFFFFFFFFFFFFFFFFFFFFFFFFFFFFFFFFFFFFFFFFFFF
310
FFFFFFFFFFFFFFFFFFFFFFFFFFFFFFFFFFFFFFFFFFFFFFFFFFFFFFFFFFFFFFFF
310
FFFFFFFFFFFFFFFFFFFFFFFFFFFFFFFFFFFFFFFFFFFFFFFFE1E1E16C6C6C0303
310
03040404040404040404040404040404020202636363F4F4F4FFFFFFFFFFFFFF
310
FFFFFFFFFFFFFFFFFFFFFFFFFFFFFFFFFFFFFFFFFFFFFFFFFFFFFFFFFFFFFFFF
310
FFFFFFFFFFFFFFFFFFFFFFFFFFFFFFFFFFFFFFFFFFFFFFFFFFFFFFFFFFFFFFFF
310
FFFFFFFFFFFFFFFFFFFFFFFFFFFFFFFFFFFFFFFFFFFFFFFFFFFFFFFFFFFFFFFF
310
FFFFFAFAFA6B6B6B020202040404040404040404040404040404030303939393
310
FAFAFAFFFFFFFFFFFFFFFFFFFFFFFFFFFFFFFFFFFFFFFFFFFFFFFFFFFFFFFFFF
310
FFFFFFFFFFFFFFFFFFFFFFFFFFFFFFFFFFFFFFFFFFFFFFFFFFFFFFFFFFFFFFFF
310
FFFFFFFFFFFFFFFFFFFFFFFFFFFFFFFFFFFFFFFFFFFFFFFFFFFFFFFFFFFFFFFF
310
FFFFFFFFFFFFFFFFFFFFFFFFFFFFFFFFFFFFFFFFFFFFFFFFFFFFFFFFFFFFFFFF
310
FFFFFFFFFFFFFFFFFFFFFFFFFFFFFFFFFFFFFFFFFFFFFFFFFFFFFFFFFFFFFFFF
310
FFFFFFFFFFFFFFFFFFFFFFFFFFFFFFFFFFFFFFFFFFFFFFFFFFFFFFFFFFFFFFFF
310
FFFFFFFFFFFFFFFFFFFFFFFFFFFFFFFFFFFFFFFFFFFFFFFFFFFFFFFFFFFFFFFF
310
FFFFFFFFFFFFFFFFFFFFFFFFFFFFFFFFFFFFFFFFFFFFFFFFFFFFFFFFFFFFFFFF
310
FFFFFFFFFFFFFFFFFFFFFFFFFFFFFFFFFF002222221E1E1E1E1E1E1E1E1E1E1E
310
1E1E1E1E1E1E1E1D1D1D1D1D1D1D1D1D1D1D1D1C1C1C1C1C1C1C1C1C1C1C1C1C
310
1C1C1C1C1C1B1B1B1B1B1B1B1B1B1B1B1B1B1B1B1A1A1A1A1A1A1A1A1A1A1A1A
310
1A1A1A1A1A1A1919191919191919191919191919191818181818181818181818
310
181818181818181717171717171717173D3D3DC2C2C2FCFCFCFFFFFFFFFFFFFF
310
FFFFFFFFFFFFFFFFFFFFFFFFFFFFFFFFFFFFFFFFFFFFFFFFFFFFFFFFFFFFFFFF
310
FFFFFFFFFFFFFFFFFFFFFFFFFFFFFFFFFFFFFFFFFFFFFFFFFFFFFFFFFFFFFFFF
310
FFFFFFFFFFFFFFFFFFFFFFFFFFFFFFFFFFFFFFFFFFFFFFFFFFFFFFFFFFFFFFFF
310
FFFFFFFFFFFFFFFFFFFFFFFFFFFFFFFFFFFFFFFFE1E1E17373731010100F0F0F
310
0F0F0F0F0F0F0E0E0E0E0E0E0D0D0D6A6A6AF4F4F4FFFFFFFFFFFFFFFFFFFFFF
310
FFFFFFFFFFFFFFFFFFFFFFFFFFFFFFFFFFFFFFFFFFFFFFFFFFFFFFFFFFFFFFFF
310
FFFFFFFFFFFFFFFFFFFFFFFFFFFFFFFFFFFFFFFFFFFFFFFFFFFFFFFFFFFFFFFF
310
FFFFFFFFFFFFFFFFFFFFFFFFFFFFFFFFFFFFFFFFFFFFFFFFFFFFFFFFFFFFF9F9
310
F96D6D6D050505060606050505050505050505050505040404949494FAFAFAFF
310
FFFFFFFFFFFFFFFFFFFFFFFFFFFFFFFFFFFFFFFFFFFFFFFFFFFFFFFFFFFFFFFF
310
FFFFFFFFFFFFFFFFFFFFFFFFFFFFFFFFFFFFFFFFFFFFFFFFFFFFFFFFFFFFFFFF
310
FFFFFFFFFFFFFFFFFFFFFFFFFFFFFFFFFFFFFFFFFFFFFFFFFFFFFFFFFFFFFFFF
310
FFFFFFFFFFFFFFFFFFFFFFFFFFFFFFFFFFFFFFFFFFFFFFFFFFFFFFFFFFFFFFFF
310
FFFFFFFFFFFFFFFFFFFFFFFFFFFFFFFFFFFFFFFFFFFFFFFFFFFFFFFFFFFFFFFF
310
FFFFFFFFFFFFFFFFFFFFFFFFFFFFFFFFFFFFFFFFFFFFFFFFFFFFFFFFFFFFFFFF
310
FFFFFFFFFFFFFFFFFFFFFFFFFFFFFFFFFFFFFFFFFFFFFFFFFFFFFFFFFFFFFFFF
310
FFFFFFFFFFFFFFFFFFFFFFFFFFFFFFFFFFFFFFFFFFFFFFFFFFFFFFFFFFFFFFFF
310
FFFFFFFFFFFFFFFFFFFFFFFFFF00000000000000000000000000000000000000
310
000000006B476441215FF1167C5395D30CFF77011900270001000000FFFFFFFF
310
5C0104000000001900276C0001050093085D000064085406FC000E696F2500F7
310
6DB103155A2500C9DC37009BA80794127004F4037C0420000000000000000000
310
0000000000000000000000000000000000000000000000000000000000000000
310
0000000000000000000000000000000000000000000000000000000000000000
310
0000000000000000000000000000000000000000000000000000000000000000
310
00000000000000000000D71400110000B04307008A476441CC4564410B456441
310
8B4764418B4764413CEF443961E4A884003DCF7B1F23FDDE38A95F7C68B84E6D
310
335FA9010000000007001FBF55D095405B6AA8D23A2026605A04825203555521
310
08320C8320C8320C81A8D2808249924D4CCCCCCCCC84A01353333333333527E4
310
D45C0303CDC9FD5555555811002400001C07EA80970D2DE4A007BB6D88182AB4
310
4A0064EE1B805515FC06E011EB5C8403000000180000336A220A222A22CA24EA
310
23155554740E2E1600508074040034448154D4CA0A12855555555554631C7B2A
310
3289A1201BF5C99D1F7C0C18112F82392FC1B2C880292965D5D067AFE0400000
310
0C03E8CC181FFFFFFBFF7C0C18000000141C1B2C884C1D08080117CA48154D4C
310
A0A1285C12000C5528A5703D0BD6A20880295C0F42F5A8EC1F8A5703D0BD6A20
310
01004F006C006500310030004900740065006D004E0061006D00650000000000
310
0000000000000000000000000000000000000000000000000000000000000000
310
1E000200FFFFFFFFFFFFFFFFFFFFFFFF00000000000000000000000000000000
310
0000000000000000000000000000000000000000030000000500000000000000
310
0000000000000000000000000000000000000000000000000000000000000000
310
0000000000000000000000000000000000000000000000000000000000000000
310
00000000FFFFFFFFFFFFFFFFFFFFFFFF00000000000000000000000000000000
310
0000000000000000000000000000000000000000000000000000000000000000
310
0000000000000000000000000000000000000000000000000000000000000000
310
0000000000000000000000000000000000000000000000000000000000000000
310
00000000FFFFFFFFFFFFFFFFFFFFFFFF00000000000000000000000000000000
310
0000000000000000000000000000000000000000000000000000000000000000
310
0000000000000000000000000000000000000000000000000000000000000000
310
0000000000000000000000000000000000000000000000000000000000000000
310
00000000FFFFFFFFFFFFFFFFFFFFFFFF00000000000000000000000000000000
310
0000000000000000000000000000000000000000000000000000000000000000
  1
OLE
  0
TEXT
  5
745
330
1F
100
AcDbEntity
  8
1
  6
Continuous
 62
     7
100
AcDbText
 10
-96.78680705746591
 20
9.511127256293207
 30
0.0
 40
4.0
  1
株式会社 トキナー
100
AcDbText
  0
TEXT
  5
746
330
1F
100
AcDbEntity
  8
1
  6
Continuous
 62
     7
100
AcDbText
 10
-50.20719521573901
 20
9.926465906023083
 30
0.0
 40
4.0
  1
Tokina Co. ,Ltd.
 41
0.7000000000000001
100
AcDbText
  0
TEXT
  5
78C
330
1F
100
AcDbEntity
  8
99
  6
Continuous
 62
     7
370
    30
100
AcDbText
 10
-118.6158624597246
 20
22.50611659405647
 30
0.0
 40
2.5
  1
図番登録
 41
0.9
  7
KCADTEXTSTANDARD
100
AcDbText
1001
Sigma
1000

  0
TEXT
  5
78D
330
1F
100
AcDbEntity
  8
99
  6
Continuous
 62
     7
370
    30
100
AcDbText
 10
-118.1852008504419
 20
17.26222820372236
 30
0.0
 40
2.0
  1
2008.5.15
 41
0.7000000000000001
  7
KCADTEXTSTANDARD
100
AcDbText
1001
Sigma
1000

  0
ENDSEC
  0
SECTION
  2
OBJECTS
  0
DICTIONARY
  5
C
330
0
100
AcDbDictionary
281
     1
  3
ACAD_COLOR
350
6C
  3
ACAD_GROUP
350
D
  3
ACAD_LAYOUT
350
1A
  3
ACAD_MATERIAL
350
6B
  3
ACAD_MLINESTYLE
350
17
  3
ACAD_PLOTSETTINGS
350
19
  3
ACAD_PLOTSTYLENAME
350
E
  3
ACAD_TABLESTYLE
350
92
  3
ACDBHEADERROUNDTRIPXREC
350
854
  3
AcDbVariableDictionary
350
59
  3
DWGPROPS
350
857
  3
KCADFRAMEINFO
350
2A7
  0
DICTIONARY
  5
6C
102
{ACAD_REACTORS
330
C
102
}
330
C
100
AcDbDictionary
281
     1
  0
DICTIONARY
  5
D
102
{ACAD_REACTORS
330
C
102
}
330
C
100
AcDbDictionary
281
     1
  3
*A1
350
4A3
  3
*A10
350
5DA
  3
*A11
350
5ED
  3
*A12
350
6DD
  3
*A13
350
606
  3
*A14
350
613
  3
*A15
350
645
  3
*A16
350
4B0
  3
*A17
350
65E
  3
*A18
350
675
  3
*A19
350
692
  3
*A2
350
516
  3
*A20
350
6AB
  3
*A21
350
6C2
  3
*A22
350
6F6
  3
*A23
350
572
  3
*A24
350
70F
  3
*A25
350
728
  3
*A26
350
4BD
  3
*A27
350
4DC
  3
*A28
350
4F7
  3
*A3
350
531
  3
*A4
350
62C
  3
*A5
350
54A
  3
*A6
350
565
  3
*A7
350
58D
  3
*A8
350
5AC
  3
*A9
350
5C1
  0
DICTIONARY
  5
1A
102
{ACAD_REACTORS
330
C
102
}
330
C
100
AcDbDictionary
281
     1
  3
Model
350
22
  3
ﾚｲｱｳﾄ1
350
22F
  0
DICTIONARY
  5
6B
102
{ACAD_REACTORS
330
C
102
}
330
C
100
AcDbDictionary
281
     1
  0
DICTIONARY
  5
17
102
{ACAD_REACTORS
330
C
102
}
330
C
100
AcDbDictionary
281
     1
  3
Standard
350
18
  0
DICTIONARY
  5
19
102
{ACAD_REACTORS
330
C
102
}
330
C
100
AcDbDictionary
281
     1
  0
ACDBDICTIONARYWDFLT
  5
E
102
{ACAD_REACTORS
330
C
102
}
330
C
100
AcDbDictionary
281
     1
  3
Normal
350
F
100
AcDbDictionaryWithDefault
340
F
  0
DICTIONARY
  5
92
102
{ACAD_REACTORS
330
C
102
}
330
C
100
AcDbDictionary
281
     1
  0
DICTIONARY
  5
854
102
{ACAD_REACTORS
330
C
102
}
330
C
100
AcDbDictionary
281
     1
  3
COLORDICT
350
855
  3
MATERIALDICT
350
856
  0
DICTIONARY
  5
59
102
{ACAD_REACTORS
330
C
102
}
330
C
100
AcDbDictionary
281
     1
  3
DIMASSOC
350
853
  0
XRECORD
  5
857
102
{ACAD_REACTORS
330
C
102
}
330
C
100
AcDbXrecord
280
     1
  1
DWGPROPS COOKIE
  2

  3

  4

  6

  7

  8
fottrem
  9

300
=
301
=
302
=
303
=
304
=
305
=
306
=
307
=
308
=
309
=
 40
0.0
 41
2453353.717125822
 42
2453295.053817616
  1

 90
        0
  0
XRECORD
  5
2A7
102
{ACAD_REACTORS
330
C
102
}
330
C
100
AcDbXrecord
280
     1
  1
A3
 40
420.0
 40
297.0
 90
        1
 90
        1
  0
GROUP
  5
4A3
102
{ACAD_REACTORS
330
D
102
}
330
D
100
AcDbGroup
300
group from kcad family
 70
     1
 71
     1
340
4A4
340
4A6
340
4A8
340
4AA
340
4AC
340
4AE
  0
GROUP
  5
5DA
102
{ACAD_REACTORS
330
D
102
}
330
D
100
AcDbGroup
300
group from kcad family
 70
     1
 71
     1
340
5DB
340
5DD
340
5DF
340
5E1
340
5E3
340
5E5
340
5E7
340
5E9
340
5EB
  0
GROUP
  5
5ED
102
{ACAD_REACTORS
330
D
102
}
330
D
100
AcDbGroup
300
group from kcad family
 70
     1
 71
     1
340
5EE
340
5F0
340
5F2
340
5F4
340
5F6
340
5F8
340
5FA
340
5FC
340
5FE
340
600
340
602
340
604
  0
GROUP
  5
6DD
102
{ACAD_REACTORS
330
D
102
}
330
D
100
AcDbGroup
300
group from kcad family
 70
     1
 71
     1
340
6DE
340
6E0
340
6E2
340
6E4
340
6E6
340
6E8
340
6EA
340
6EC
340
6EE
340
6F0
340
6F2
340
6F4
  0
GROUP
  5
606
102
{ACAD_REACTORS
330
D
102
}
330
D
100
AcDbGroup
300
group from kcad family
 70
     1
 71
     1
340
607
340
609
340
60B
340
60D
340
60F
340
611
  0
GROUP
  5
613
102
{ACAD_REACTORS
330
D
102
}
330
D
100
AcDbGroup
300
group from kcad family
 70
     1
 71
     1
340
614
340
616
340
618
340
61A
340
61C
340
61E
340
620
340
622
340
624
340
626
340
628
340
62A
  0
GROUP
  5
645
102
{ACAD_REACTORS
330
D
102
}
330
D
100
AcDbGroup
300
group from kcad family
 70
     1
 71
     1
340
646
340
648
340
64A
340
64C
340
64E
340
650
340
652
340
654
340
656
340
658
340
65A
340
65C
  0
GROUP
  5
4B0
102
{ACAD_REACTORS
330
D
102
}
330
D
100
AcDbGroup
300
group from kcad family
 70
     1
 71
     1
340
4B1
340
4B3
340
4B5
340
4B7
340
4B9
340
4BB
  0
GROUP
  5
65E
102
{ACAD_REACTORS
330
D
102
}
330
D
100
AcDbGroup
300
group from kcad family
 70
     1
 71
     1
340
65F
340
661
340
663
340
665
340
667
340
669
340
66B
340
66D
340
66F
340
671
340
673
  0
GROUP
  5
675
102
{ACAD_REACTORS
330
D
102
}
330
D
100
AcDbGroup
300
group from kcad family
 70
     1
 71
     1
340
676
340
678
340
67A
340
67C
340
67E
340
680
340
682
340
684
340
686
340
688
340
68A
340
68C
340
68E
340
690
  0
GROUP
  5
692
102
{ACAD_REACTORS
330
D
102
}
330
D
100
AcDbGroup
300
group from kcad family
 70
     1
 71
     1
340
693
340
695
340
697
340
699
340
69B
340
69D
340
69F
340
6A1
340
6A3
340
6A5
340
6A7
340
6A9
  0
GROUP
  5
516
102
{ACAD_REACTORS
330
D
102
}
330
D
100
AcDbGroup
300
group from kcad family
 70
     1
 71
     1
340
517
340
519
340
51B
340
51D
340
51F
340
521
340
523
340
525
340
527
340
529
340
52B
340
52D
340
52F
  0
GROUP
  5
6AB
102
{ACAD_REACTORS
330
D
102
}
330
D
100
AcDbGroup
300
group from kcad family
 70
     1
 71
     1
340
6AC
340
6AE
340
6B0
340
6B2
340
6B4
340
6B6
340
6B8
340
6BA
340
6BC
340
6BE
340
6C0
  0
GROUP
  5
6C2
102
{ACAD_REACTORS
330
D
102
}
330
D
100
AcDbGroup
300
group from kcad family
 70
     1
 71
     1
340
6C3
340
6C5
340
6C7
340
6C9
340
6CB
340
6CD
340
6CF
340
6D1
340
6D3
340
6D5
340
6D7
340
6D9
340
6DB
  0
GROUP
  5
6F6
102
{ACAD_REACTORS
330
D
102
}
330
D
100
AcDbGroup
300
group from kcad family
 70
     1
 71
     1
340
6F7
340
6F9
340
6FB
340
6FD
340
6FF
340
701
340
703
340
705
340
707
340
709
340
70B
340
70D
  0
GROUP
  5
572
102
{ACAD_REACTORS
330
D
102
}
330
D
100
AcDbGroup
300
group from kcad family
 70
     1
 71
     1
340
573
340
575
340
577
340
579
340
57B
340
57D
340
57F
340
581
340
583
340
585
340
587
340
589
340
58B
  0
GROUP
  5
70F
102
{ACAD_REACTORS
330
D
102
}
330
D
100
AcDbGroup
300
group from kcad family
 70
     1
 71
     1
340
710
340
712
340
714
340
716
340
718
340
71A
340
71C
340
71E
340
720
340
722
340
724
340
726
  0
GROUP
  5
728
102
{ACAD_REACTORS
330
D
102
}
330
D
100
AcDbGroup
300
group from kcad family
 70
     1
 71
     1
340
729
340
72B
340
72D
340
72F
340
731
340
733
340
735
340
737
340
739
340
73B
340
73D
340
73F
  0
GROUP
  5
4BD
102
{ACAD_REACTORS
330
D
102
}
330
D
100
AcDbGroup
300
group from kcad family
 70
     1
 71
     1
340
4BE
340
4C0
340
4C2
340
4C4
340
4C6
340
4C8
340
4CA
340
4CC
340
4CE
340
4D0
340
4D2
340
4D4
340
4D6
340
4D8
340
4DA
  0
GROUP
  5
4DC
102
{ACAD_REACTORS
330
D
102
}
330
D
100
AcDbGroup
300
group from kcad family
 70
     1
 71
     1
340
4DD
340
4DF
340
4E1
340
4E3
340
4E5
340
4E7
340
4E9
340
4EB
340
4ED
340
4EF
340
4F1
340
4F3
340
4F5
  0
GROUP
  5
4F7
102
{ACAD_REACTORS
330
D
102
}
330
D
100
AcDbGroup
300
group from kcad family
 70
     1
 71
     1
340
4F8
340
4FA
340
4FC
340
4FE
340
500
340
502
340
504
340
506
340
508
340
50A
340
50C
340
50E
340
510
340
512
340
514
  0
GROUP
  5
531
102
{ACAD_REACTORS
330
D
102
}
330
D
100
AcDbGroup
300
group from kcad family
 70
     1
 71
     1
340
532
340
534
340
536
340
538
340
53A
340
53C
340
53E
340
540
340
542
340
544
340
546
340
548
  0
GROUP
  5
62C
102
{ACAD_REACTORS
330
D
102
}
330
D
100
AcDbGroup
300
group from kcad family
 70
     1
 71
     1
340
62D
340
62F
340
631
340
633
340
635
340
637
340
639
340
63B
340
63D
340
63F
340
641
340
643
  0
GROUP
  5
54A
102
{ACAD_REACTORS
330
D
102
}
330
D
100
AcDbGroup
300
group from kcad family
 70
     1
 71
     1
340
54B
340
54D
340
54F
340
551
340
553
340
555
340
557
340
559
340
55B
340
55D
340
55F
340
561
340
563
  0
GROUP
  5
565
102
{ACAD_REACTORS
330
D
102
}
330
D
100
AcDbGroup
300
group from kcad family
 70
     1
 71
     1
340
566
340
568
340
56A
340
56C
340
56E
340
570
  0
GROUP
  5
58D
102
{ACAD_REACTORS
330
D
102
}
330
D
100
AcDbGroup
300
group from kcad family
 70
     1
 71
     1
340
58E
340
590
340
592
340
594
340
596
340
598
340
59A
340
59C
340
59E
340
5A0
340
5A2
340
5A4
340
5A6
340
5A8
340
5AA
  0
GROUP
  5
5AC
102
{ACAD_REACTORS
330
D
102
}
330
D
100
AcDbGroup
300
group from kcad family
 70
     1
 71
     1
340
5AD
340
5AF
340
5B1
340
5B3
340
5B5
340
5B7
340
5B9
340
5BB
340
5BD
340
5BF
  0
GROUP
  5
5C1
102
{ACAD_REACTORS
330
D
102
}
330
D
100
AcDbGroup
300
group from kcad family
 70
     1
 71
     1
340
5C2
340
5C4
340
5C6
340
5C8
340
5CA
340
5CC
340
5CE
340
5D0
340
5D2
340
5D4
340
5D6
340
5D8
  0
LAYOUT
  5
22
102
{ACAD_REACTORS
330
1A
102
}
330
1A
100
AcDbPlotSettings
  1

  2
DWF ePlot.pc3
  4
ISO_A3_(297.00_x_420.00_MM)
  6

 40
5.793749809265136
 41
17.79375076293945
 42
5.79376220703125
 43
17.79376220703125
 44
297.0
 45
420.0
 46
0.0
 47
0.0
 48
-295.8009
 49
208.6405
140
-2.1637
141
0.4441000000000001
142
0.0
143
0.0
 70
 11952
 72
     1
 73
     0
 74
     4
  7

 75
     0
147
1.0
148
0.0
149
0.0
100
AcDbLayout
  1
Model
 70
     1
 71
     0
 10
-354.629
 20
-43.78333689299999
 11
65.37099999999998
 21
253.2166631069999
 12
0.0
 22
0.0
 32
0.0
 14
-297.0
 24
-0.283333331347
 34
0.0
 15
8.102596369743466
 25
209.7166595458999
 35
0.0
146
0.0
 13
0.0
 23
0.0
 33
0.0
 16
1.0
 26
0.0
 36
0.0
 17
0.0
 27
1.0
 37
0.0
 76
     0
330
1F
  0
LAYOUT
  5
22F
102
{ACAD_REACTORS
330
1A
102
}
330
1A
100
AcDbPlotSettings
  1

  2
D:\ACAD2000\plotters\HP DesignJet 700(System).pc3
  4

  6

 40
0.0
 41
0.0
 42
0.0
 43
0.0
 44
0.0
 45
0.0
 46
0.0
 47
0.0
 48
0.0
 49
0.0
140
0.0
141
0.0
142
1.0
143
1.0
 70
   688
 72
     0
 73
     0
 74
     5
  7
monochrome.ctb
 75
    16
147
1.0
148
0.0
149
0.0
100
AcDbLayout
  1
ﾚｲｱｳﾄ1
 70
     1
 71
     1
 10
0.0
 20
0.0
 11
12.0
 21
9.0
 12
0.0
 22
0.0
 32
0.0
 14
0.0
 24
0.0
 34
0.0
 15
0.0
 25
0.0
 35
0.0
146
0.0
 13
0.0
 23
0.0
 33
0.0
 16
1.0
 26
0.0
 36
0.0
 17
0.0
 27
1.0
 37
0.0
 76
     0
330
73
  0
MLINESTYLE
  5
18
102
{ACAD_REACTORS
330
17
102
}
330
17
100
AcDbMlineStyle
  2
Standard
 70
     0
  3

 62
   256
 51
90.0
 52
90.0
 71
     2
 49
0.5
 62
   256
  6
BYLAYER
 49
-0.5
 62
   256
  6
BYLAYER
  0
ACDBPLACEHOLDER
  5
F
102
{ACAD_REACTORS
330
E
102
}
330
E
  0
XRECORD
  5
855
102
{ACAD_REACTORS
330
854
102
}
330
854
100
AcDbXrecord
280
     1
340
6C
  0
XRECORD
  5
856
102
{ACAD_REACTORS
330
854
102
}
330
854
100
AcDbXrecord
280
     1
340
6B
  0
DICTIONARYVAR
  5
853
102
{ACAD_REACTORS
330
59
102
}
330
59
100
DictionaryVariables
280
     0
  1
1
  0
ENDSEC
  0
EOF
