  0
SECTION
  2
HEADER
  9
$ACADVER
  1
AC1015
  9
$ACADMAINTVER
 70
     6
  9
$DWGCODEPAGE
  3
ANSI_932
  9
$INSBASE
 10
0.0
 20
0.0
 30
0.0
  9
$EXTMIN
 10
-282.0
 20
7.777080253824909
 30
0.0
  9
$EXTMAX
 10
-15.0
 20
194.7166595459
 30
0.0
  9
$LIMMIN
 10
-354.629
 20
-43.78333689299999
  9
$LIMMAX
 10
65.37099999999998
 20
253.2166631069999
  9
$ORTHOMODE
 70
     0
  9
$REGENMODE
 70
     1
  9
$FILLMODE
 70
     1
  9
$QTEXTMODE
 70
     0
  9
$MIRRTEXT
 70
     1
  9
$LTSCALE
 40
0.2
  9
$ATTMODE
 70
     1
  9
$TEXTSIZE
 40
3.2
  9
$TRACEWID
 40
1.0
  9
$TEXTSTYLE
  7
KCADTEXTSTANDARD
  9
$CLAYER
  8
0
  9
$CELTYPE
  6
Continuous
  9
$CECOLOR
 62
   134
  9
$CELTSCALE
 40
1.0
  9
$DISPSILH
 70
     0
  9
$DIMSCALE
 40
1.0
  9
$DIMASZ
 40
3.0
  9
$DIMEXO
 40
1.0
  9
$DIMDLI
 40
8.0
  9
$DIMRND
 40
0.0
  9
$DIMDLE
 40
0.0
  9
$DIMEXE
 40
1.0
  9
$DIMTP
 40
0.0
  9
$DIMTM
 40
0.0
  9
$DIMTXT
 40
3.2
  9
$DIMCEN
 40
2.5
  9
$DIMTSZ
 40
0.0
  9
$DIMTOL
 70
     0
  9
$DIMLIM
 70
     0
  9
$DIMTIH
 70
     0
  9
$DIMTOH
 70
     0
  9
$DIMSE1
 70
     0
  9
$DIMSE2
 70
     0
  9
$DIMTAD
 70
     1
  9
$DIMZIN
 70
     8
  9
$DIMBLK
  1

  9
$DIMASO
 70
     1
  9
$DIMSHO
 70
     1
  9
$DIMPOST
  1

  9
$DIMAPOST
  1

  9
$DIMALT
 70
     0
  9
$DIMALTD
 70
     2
  9
$DIMALTF
 40
25.4
  9
$DIMLFAC
 40
1.0
  9
$DIMTOFL
 70
     1
  9
$DIMTVP
 40
0.0
  9
$DIMTIX
 70
     0
  9
$DIMSOXD
 70
     0
  9
$DIMSAH
 70
     1
  9
$DIMBLK1
  1
KCAD_OPEN30
  9
$DIMBLK2
  1
KCAD_OPEN30
  9
$DIMSTYLE
  2
Standard
  9
$DIMCLRD
 70
     0
  9
$DIMCLRE
 70
     0
  9
$DIMCLRT
 70
     0
  9
$DIMTFAC
 40
0.667
  9
$DIMGAP
 40
0.5333000000000001
  9
$DIMJUST
 70
     0
  9
$DIMSD1
 70
     0
  9
$DIMSD2
 70
     0
  9
$DIMTOLJ
 70
     1
  9
$DIMTZIN
 70
     8
  9
$DIMALTZ
 70
     0
  9
$DIMALTTZ
 70
     0
  9
$DIMUPT
 70
     0
  9
$DIMDEC
 70
     3
  9
$DIMTDEC
 70
     3
  9
$DIMALTU
 70
     2
  9
$DIMALTTD
 70
     2
  9
$DIMTXSTY
  7
KCADDIMSTANDARD
  9
$DIMAUNIT
 70
     0
  9
$DIMADEC
 70
     3
  9
$DIMALTRND
 40
0.0
  9
$DIMAZIN
 70
     2
  9
$DIMDSEP
 70
    46
  9
$DIMATFIT
 70
     3
  9
$DIMFRAC
 70
     0
  9
$DIMLDRBLK
  1
KCAD_OPEN
  9
$DIMLUNIT
 70
     2
  9
$DIMLWD
 70
    -2
  9
$DIMLWE
 70
    -2
  9
$DIMTMOVE
 70
     0
  9
$LUNITS
 70
     2
  9
$LUPREC
 70
     4
  9
$SKETCHINC
 40
1.0
  9
$FILLETRAD
 40
5.0
  9
$AUNITS
 70
     0
  9
$AUPREC
 70
     0
  9
$MENU
  1
.
  9
$ELEVATION
 40
0.0
  9
$PELEVATION
 40
0.0
  9
$THICKNESS
 40
0.0
  9
$LIMCHECK
 70
     0
  9
$CHAMFERA
 40
5.0
  9
$CHAMFERB
 40
5.0
  9
$CHAMFERC
 40
5.0
  9
$CHAMFERD
 40
0.7853981633974483
  9
$SKPOLY
 70
     0
  9
$TDCREATE
 40
2453354.092125822
  9
$TDUCREATE
 40
2453353.717125822
  9
$TDUPDATE
 40
2453295.453134537
  9
$TDUUPDATE
 40
2453295.078134537
  9
$TDINDWG
 40
0.0928449653
  9
$TDUSRTIMER
 40
0.0927984028
  9
$USRTIMER
 70
     1
  9
$ANGBASE
 50
0.0
  9
$ANGDIR
 70
     0
  9
$PDMODE
 70
     0
  9
$PDSIZE
 40
0.0
  9
$PLINEWID
 40
0.0
  9
$SPLFRAME
 70
     0
  9
$SPLINETYPE
 70
     6
  9
$SPLINESEGS
 70
     8
  9
$HANDSEED
  5
7C2
  9
$SURFTAB1
 70
     6
  9
$SURFTAB2
 70
     6
  9
$SURFTYPE
 70
     6
  9
$SURFU
 70
     6
  9
$SURFV
 70
     6
  9
$UCSBASE
  2

  9
$UCSNAME
  2

  9
$UCSORG
 10
0.0
 20
0.0
 30
0.0
  9
$UCSXDIR
 10
1.0
 20
0.0
 30
0.0
  9
$UCSYDIR
 10
0.0
 20
1.0
 30
0.0
  9
$UCSORTHOREF
  2

  9
$UCSORTHOVIEW
 70
     0
  9
$UCSORGTOP
 10
0.0
 20
0.0
 30
0.0
  9
$UCSORGBOTTOM
 10
0.0
 20
0.0
 30
0.0
  9
$UCSORGLEFT
 10
0.0
 20
0.0
 30
0.0
  9
$UCSORGRIGHT
 10
0.0
 20
0.0
 30
0.0
  9
$UCSORGFRONT
 10
0.0
 20
0.0
 30
0.0
  9
$UCSORGBACK
 10
0.0
 20
0.0
 30
0.0
  9
$PUCSBASE
  2

  9
$PUCSNAME
  2

  9
$PUCSORG
 10
0.0
 20
0.0
 30
0.0
  9
$PUCSXDIR
 10
1.0
 20
0.0
 30
0.0
  9
$PUCSYDIR
 10
0.0
 20
1.0
 30
0.0
  9
$PUCSORTHOREF
  2

  9
$PUCSORTHOVIEW
 70
     0
  9
$PUCSORGTOP
 10
0.0
 20
0.0
 30
0.0
  9
$PUCSORGBOTTOM
 10
0.0
 20
0.0
 30
0.0
  9
$PUCSORGLEFT
 10
0.0
 20
0.0
 30
0.0
  9
$PUCSORGRIGHT
 10
0.0
 20
0.0
 30
0.0
  9
$PUCSORGFRONT
 10
0.0
 20
0.0
 30
0.0
  9
$PUCSORGBACK
 10
0.0
 20
0.0
 30
0.0
  9
$USERI1
 70
     0
  9
$USERI2
 70
     0
  9
$USERI3
 70
     0
  9
$USERI4
 70
   257
  9
$USERI5
 70
     0
  9
$USERR1
 40
0.0
  9
$USERR2
 40
0.0
  9
$USERR3
 40
0.0
  9
$USERR4
 40
0.0
  9
$USERR5
 40
0.0
  9
$WORLDVIEW
 70
     1
  9
$SHADEDGE
 70
     3
  9
$SHADEDIF
 70
    70
  9
$TILEMODE
 70
     1
  9
$MAXACTVP
 70
    48
  9
$PINSBASE
 10
0.0
 20
0.0
 30
0.0
  9
$PLIMCHECK
 70
     0
  9
$PEXTMIN
 10
0.0
 20
0.0
 30
0.0
  9
$PEXTMAX
 10
0.0
 20
0.0
 30
0.0
  9
$PLIMMIN
 10
0.0
 20
0.0
  9
$PLIMMAX
 10
12.0
 20
9.0
  9
$UNITMODE
 70
     0
  9
$VISRETAIN
 70
     1
  9
$PLINEGEN
 70
     0
  9
$PSLTSCALE
 70
     1
  9
$TREEDEPTH
 70
  3020
  9
$CMLSTYLE
  2
Standard
  9
$CMLJUST
 70
     0
  9
$CMLSCALE
 40
20.0
  9
$PROXYGRAPHICS
 70
     1
  9
$MEASUREMENT
 70
     1
  9
$CELWEIGHT
370
    15
  9
$ENDCAPS
280
     0
  9
$JOINSTYLE
280
     0
  9
$LWDISPLAY
290
     0
  9
$INSUNITS
 70
     0
  9
$HYPERLINKBASE
  1

  9
$STYLESHEET
  1

  9
$XEDIT
290
     0
  9
$CEPSNTYPE
380
     0
  9
$PSTYLEMODE
290
     1
  9
$FINGERPRINTGUID
  2
{1989D620-E742-11D2-9219-00105A146177}
  9
$VERSIONGUID
  2
{CF081299-7521-4566-A644-54D4D170AC98}
  9
$EXTNAMES
290
     1
  9
$PSVPSCALE
 40
0.0
  9
$OLESTARTUP
290
     0
  0
ENDSEC
  0
SECTION
  2
CLASSES
  0
CLASS
  1
ACDBDICTIONARYWDFLT
  2
AcDbDictionaryWithDefault
  3
ObjectDBX Classes
 90
        0
280
     0
281
     0
  0
CLASS
  1
ACDBPLACEHOLDER
  2
AcDbPlaceHolder
  3
ObjectDBX Classes
 90
        0
280
     0
281
     0
  0
CLASS
  1
LAYOUT
  2
AcDbLayout
  3
ObjectDBX Classes
 90
        0
280
     0
281
     0
  0
CLASS
  1
DICTIONARYVAR
  2
AcDbDictionaryVar
  3
ObjectDBX Classes
 90
        0
280
     0
281
     0
  0
CLASS
  1
TABLESTYLE
  2
AcDbTableStyle
  3
ObjectDBX Classes
 90
     2047
280
     0
281
     0
  0
ENDSEC
  0
SECTION
  2
TABLES
  0
TABLE
  2
VPORT
  5
8
330
0
100
AcDbSymbolTable
 70
     2
  0
VPORT
  5
97
330
8
100
AcDbSymbolTableRecord
100
AcDbViewportTableRecord
  2
*Active
 70
     0
 10
0.0
 20
0.0
 11
1.0
 21
1.0
 12
-148.5
 22
101.2468698998625
 13
0.0
 23
0.0
 14
10.0
 24
10.0
 15
10.0
 25
10.0
 16
0.0
 26
0.0
 36
1.0
 17
0.0
 27
0.0
 37
0.0
 40
216.9884992378452
 41
2.203935599284436
 42
50.0
 43
0.0
 44
0.0
 50
0.0
 51
0.0
 71
    16
 72
 20000
 73
     1
 74
     1
 75
     0
 76
     0
 77
     0
 78
     0
281
     0
 65
     0
110
0.0
120
0.0
130
0.0
111
1.0
121
0.0
131
0.0
112
0.0
122
1.0
132
0.0
 79
     0
146
0.0
  0
ENDTAB
  0
TABLE
  2
LTYPE
  5
5
330
0
100
AcDbSymbolTable
 70
     6
  0
LTYPE
  5
14
330
5
100
AcDbSymbolTableRecord
100
AcDbLinetypeTableRecord
  2
ByBlock
 70
     0
  3

 72
    65
 73
     0
 40
0.0
  0
LTYPE
  5
15
330
5
100
AcDbSymbolTableRecord
100
AcDbLinetypeTableRecord
  2
ByLayer
 70
     0
  3

 72
    65
 73
     0
 40
0.0
  0
LTYPE
  5
16
330
5
100
AcDbSymbolTableRecord
100
AcDbLinetypeTableRecord
  2
Continuous
 70
     0
  3
Solid line
 72
    65
 73
     0
 40
0.0
  0
LTYPE
  5
782
330
5
100
AcDbSymbolTableRecord
100
AcDbLinetypeTableRecord
  2
CENTER
 70
     0
  3
Center ____ _ ____ _ ____ _ ____ _ ____ _ ____
 72
    65
 73
     4
 40
50.8
 49
31.75
 74
     4
 75
     0
340
0
 46
1.0
 50
0.0
 44
0.0
 45
0.0
 49
-6.349999999999999
 74
     4
 75
     0
340
0
 46
1.0
 50
0.0
 44
0.0
 45
0.0
 49
6.349999999999999
 74
     4
 75
     0
340
0
 46
1.0
 50
0.0
 44
0.0
 45
0.0
 49
-6.349999999999999
 74
     4
 75
     0
340
0
 46
1.0
 50
0.0
 44
0.0
 45
0.0
  0
LTYPE
  5
783
330
5
100
AcDbSymbolTableRecord
100
AcDbLinetypeTableRecord
  2
DASHED
 70
     0
  3
Dashed __ __ __ __ __ __ __ __ __ __ __ __ __ _
 72
    65
 73
     2
 40
19.05
 49
12.7
 74
     4
 75
     0
340
0
 46
1.0
 50
0.0
 44
0.0
 45
0.0
 49
-6.349999999999999
 74
     4
 75
     0
340
0
 46
1.0
 50
0.0
 44
0.0
 45
0.0
  0
LTYPE
  5
784
330
5
100
AcDbSymbolTableRecord
100
AcDbLinetypeTableRecord
  2
HIDDEN
 70
     0
  3
Hidden __ __ __ __ __ __ __ __ __ __ __ __ __ _
 72
    65
 73
     2
 40
9.524999999999999
 49
6.349999999999999
 74
     4
 75
     0
340
0
 46
1.0
 50
0.0
 44
0.0
 45
0.0
 49
-3.174999999999999
 74
     4
 75
     0
340
0
 46
1.0
 50
0.0
 44
0.0
 45
0.0
  0
LTYPE
  5
785
330
5
100
AcDbSymbolTableRecord
100
AcDbLinetypeTableRecord
  2
PHANTOM
 70
     0
  3
Phantom ______  __  __  ______  __  __  ______
 72
    65
 73
     6
 40
63.50000000000001
 49
31.75
 74
     4
 75
     0
340
0
 46
1.0
 50
0.0
 44
0.0
 45
0.0
 49
-6.349999999999999
 74
     4
 75
     0
340
0
 46
1.0
 50
0.0
 44
0.0
 45
0.0
 49
6.349999999999999
 74
     4
 75
     0
340
0
 46
1.0
 50
0.0
 44
0.0
 45
0.0
 49
-6.349999999999999
 74
     4
 75
     0
340
0
 46
1.0
 50
0.0
 44
0.0
 45
0.0
 49
6.349999999999999
 74
     4
 75
     0
340
0
 46
1.0
 50
0.0
 44
0.0
 45
0.0
 49
-6.349999999999999
 74
     4
 75
     0
340
0
 46
1.0
 50
0.0
 44
0.0
 45
0.0
  0
LTYPE
  5
786
330
5
100
AcDbSymbolTableRecord
100
AcDbLinetypeTableRecord
  2
RUPTURE
 70
     0
  3
Rupture line
 72
    65
 73
     4
 40
45.72
 49
25.4
 74
     4
 75
     0
340
0
 46
1.0
 50
0.0
 44
0.0
 45
0.0
 49
-5.08
 74
     4
 75
   131
340
11
 46
5.08
 50
0.0
 44
-5.08
 45
0.0
 49
-10.16
 74
     4
 75
   131
340
11
 46
5.08
 50
180.0
 44
5.08
 45
0.0
 49
-5.08
 74
     4
 75
     0
340
0
 46
1.0
 50
0.0
 44
0.0
 45
0.0
  0
ENDTAB
  0
TABLE
  2
LAYER
  5
2
330
0
100
AcDbSymbolTable
 70
    15
  0
LAYER
  5
10
330
2
100
AcDbSymbolTableRecord
100
AcDbLayerTableRecord
  2
0
 70
     0
 62
     7
  6
Continuous
370
    -3
390
F
  0
LAYER
  5
676
330
2
100
AcDbSymbolTableRecord
100
AcDbLayerTableRecord
  2
KCAD_DIMS
 70
     0
 62
   134
  6
Continuous
370
    15
390
F
  0
LAYER
  5
4F
330
2
100
AcDbSymbolTableRecord
100
AcDbLayerTableRecord
  2
DEFPOINTS
 70
     0
 62
     7
  6
Continuous
290
     0
370
    -3
390
F
  0
LAYER
  5
20B
330
2
100
AcDbSymbolTableRecord
100
AcDbLayerTableRecord
  2
KCAD_ASST
 70
     0
 62
   134
  6
Continuous
370
    15
390
F
  0
LAYER
  5
20C
330
2
100
AcDbSymbolTableRecord
100
AcDbLayerTableRecord
  2
KCAD_RASTER
 70
     0
 62
     7
  6
Continuous
370
    30
390
F
  0
LAYER
  5
20D
330
2
100
AcDbSymbolTableRecord
100
AcDbLayerTableRecord
  2
SYBCENTER
 70
     0
 62
   134
  6
CENTER
370
    15
390
F
  0
LAYER
  5
20E
330
2
100
AcDbSymbolTableRecord
100
AcDbLayerTableRecord
  2
SYBHIDE
 70
     0
 62
   134
  6
HIDDEN
370
    15
390
F
  0
LAYER
  5
20F
330
2
100
AcDbSymbolTableRecord
100
AcDbLayerTableRecord
  2
SYBOUTLINE
 70
     0
 62
     7
  6
Continuous
370
    30
390
F
  0
LAYER
  5
210
330
2
100
AcDbSymbolTableRecord
100
AcDbLayerTableRecord
  2
SYBTHREAD
 70
     0
 62
   134
  6
Continuous
370
    15
390
F
  0
LAYER
  5
211
330
2
100
AcDbSymbolTableRecord
100
AcDbLayerTableRecord
  2
SYBTHRHID
 70
     0
 62
   134
  6
HIDDEN
370
    15
390
F
  0
LAYER
  5
282
330
2
100
AcDbSymbolTableRecord
100
AcDbLayerTableRecord
  2
KCAD_UIR_TMP_LAYER_
 70
     0
 62
     7
  6
Continuous
370
    -3
390
F
  0
LAYER
  5
2A8
330
2
100
AcDbSymbolTableRecord
100
AcDbLayerTableRecord
  2
KCAD_CPM_MAX_LAYER
 70
     3
 62
     7
  6
Continuous
370
    -3
390
F
  0
LAYER
  5
2F1
330
2
100
AcDbSymbolTableRecord
100
AcDbLayerTableRecord
  2
1
 70
     0
 62
     7
  6
Continuous
370
    -3
390
F
  0
LAYER
  5
306
330
2
100
AcDbSymbolTableRecord
100
AcDbLayerTableRecord
  2
99
 70
     0
 62
     7
  6
Continuous
370
    -3
390
F
  0
LAYER
  5
38F
330
2
100
AcDbSymbolTableRecord
100
AcDbLayerTableRecord
  2
2
 70
     0
 62
     7
  6
Continuous
370
    -3
390
F
  0
ENDTAB
  0
TABLE
  2
STYLE
  5
3
330
0
100
AcDbSymbolTable
 70
     5
  0
STYLE
  5
11
330
3
100
AcDbSymbolTableRecord
100
AcDbTextStyleTableRecord
  2
Standard
 70
     0
 40
0.0
 41
1.0
 50
0.0
 71
     0
 42
3.2
  3
txt.shx
  4
bigfont.shx
  0
STYLE
  5
17F
330
3
100
AcDbSymbolTableRecord
100
AcDbTextStyleTableRecord
  2

 70
     1
 40
0.0
 41
1.0
 50
0.0
 71
     0
 42
3.2
  3
ltypeshp.shx
  4

  0
STYLE
  5
189
330
3
100
AcDbSymbolTableRecord
100
AcDbTextStyleTableRecord
  2
KCADDIMSTANDARD
 70
     0
 40
0.0
 41
1.0
 50
0.0
 71
     0
 42
3.2
  3
txt.shx
  4
bigfont.shx
  0
STYLE
  5
18A
330
3
100
AcDbSymbolTableRecord
100
AcDbTextStyleTableRecord
  2
KCADTEXTSTANDARD
 70
     0
 40
0.0
 41
1.0
 50
0.0
 71
     0
 42
3.2
  3
txt.shx
  4
bigfont.shx
  0
STYLE
  5
1AD
330
3
100
AcDbSymbolTableRecord
100
AcDbTextStyleTableRecord
  2
KCADTEXT2
 70
     0
 40
0.0
 41
1.0
 50
0.0
 71
     0
 42
3.2
  3
txt.shx
  4
extfont.shx
  0
ENDTAB
  0
TABLE
  2
VIEW
  5
6
330
0
100
AcDbSymbolTable
 70
     0
  0
ENDTAB
  0
TABLE
  2
UCS
  5
7
330
0
100
AcDbSymbolTable
 70
     0
  0
ENDTAB
  0
TABLE
  2
APPID
  5
9
330
0
100
AcDbSymbolTable
 70
     2
  0
APPID
  5
12
330
9
100
AcDbSymbolTableRecord
100
AcDbRegAppTableRecord
  2
ACAD
 70
     0
  0
APPID
  5
781
330
9
100
AcDbSymbolTableRecord
100
AcDbRegAppTableRecord
  2
Sigma
 70
     0
  0
ENDTAB
  0
TABLE
  2
DIMSTYLE
  5
A
330
0
100
AcDbSymbolTable
 70
     1
100
AcDbDimStyleTable
  0
DIMSTYLE
105
27
330
A
100
AcDbSymbolTableRecord
100
AcDbDimStyleTableRecord
  2
Standard
 70
     0
340
11
  0
ENDTAB
  0
TABLE
  2
BLOCK_RECORD
  5
1
330
0
100
AcDbSymbolTable
 70
    27
  0
BLOCK_RECORD
  5
1F
330
1
100
AcDbSymbolTableRecord
100
AcDbBlockTableRecord
  2
*Model_Space
340
22
  0
BLOCK_RECORD
  5
73
330
1
100
AcDbSymbolTableRecord
100
AcDbBlockTableRecord
  2
*Paper_Space
340
22F
  0
BLOCK_RECORD
  5
677
330
1
100
AcDbSymbolTableRecord
100
AcDbBlockTableRecord
  2
KCAD_OPEN
340
0
  0
BLOCK_RECORD
  5
3C
330
1
100
AcDbSymbolTableRecord
100
AcDbBlockTableRecord
  2
KCAD_DOTSMALL
340
0
  0
BLOCK_RECORD
  5
44
330
1
100
AcDbSymbolTableRecord
100
AcDbBlockTableRecord
  2
KCAD_NONE
340
0
  0
BLOCK_RECORD
  5
FC
330
1
100
AcDbSymbolTableRecord
100
AcDbBlockTableRecord
  2
_CLOSED
340
0
  0
BLOCK_RECORD
  5
103
330
1
100
AcDbSymbolTableRecord
100
AcDbBlockTableRecord
  2
_DOT
340
0
  0
BLOCK_RECORD
  5
10B
330
1
100
AcDbSymbolTableRecord
100
AcDbBlockTableRecord
  2
_CLOSEDBLANK
340
0
  0
BLOCK_RECORD
  5
111
330
1
100
AcDbSymbolTableRecord
100
AcDbBlockTableRecord
  2
_OBLIQUE
340
0
  0
BLOCK_RECORD
  5
115
330
1
100
AcDbSymbolTableRecord
100
AcDbBlockTableRecord
  2
_ARCHTICK
340
0
  0
BLOCK_RECORD
  5
11C
330
1
100
AcDbSymbolTableRecord
100
AcDbBlockTableRecord
  2
_OPEN
340
0
  0
BLOCK_RECORD
  5
122
330
1
100
AcDbSymbolTableRecord
100
AcDbBlockTableRecord
  2
_ORIGIN
340
0
  0
BLOCK_RECORD
  5
127
330
1
100
AcDbSymbolTableRecord
100
AcDbBlockTableRecord
  2
_OPEN90
340
0
  0
BLOCK_RECORD
  5
12D
330
1
100
AcDbSymbolTableRecord
100
AcDbBlockTableRecord
  2
_OPEN30
340
0
  0
BLOCK_RECORD
  5
133
330
1
100
AcDbSymbolTableRecord
100
AcDbBlockTableRecord
  2
_DOTBLANK
340
0
  0
BLOCK_RECORD
  5
138
330
1
100
AcDbSymbolTableRecord
100
AcDbBlockTableRecord
  2
_DOTSMALL
340
0
  0
BLOCK_RECORD
  5
13F
330
1
100
AcDbSymbolTableRecord
100
AcDbBlockTableRecord
  2
_BOXFILLED
340
0
  0
BLOCK_RECORD
  5
144
330
1
100
AcDbSymbolTableRecord
100
AcDbBlockTableRecord
  2
_BOXBLANK
340
0
  0
BLOCK_RECORD
  5
14C
330
1
100
AcDbSymbolTableRecord
100
AcDbBlockTableRecord
  2
_DATUMFILLED
340
0
  0
BLOCK_RECORD
  5
150
330
1
100
AcDbSymbolTableRecord
100
AcDbBlockTableRecord
  2
_DATUMBLANK
340
0
  0
BLOCK_RECORD
  5
156
330
1
100
AcDbSymbolTableRecord
100
AcDbBlockTableRecord
  2
_INTEGRAL
340
0
  0
BLOCK_RECORD
  5
1F1
330
1
100
AcDbSymbolTableRecord
100
AcDbBlockTableRecord
  2
_Origin2
340
0
  0
BLOCK_RECORD
  5
1F7
330
1
100
AcDbSymbolTableRecord
100
AcDbBlockTableRecord
  2
KCAD_OPEN30
340
0
  0
BLOCK_RECORD
  5
222
330
1
100
AcDbSymbolTableRecord
100
AcDbBlockTableRecord
  2
_None
340
0
  0
BLOCK_RECORD
  5
283
330
1
100
AcDbSymbolTableRecord
100
AcDbBlockTableRecord
  2
_Small
340
0
  0
BLOCK_RECORD
  5
287
330
1
100
AcDbSymbolTableRecord
100
AcDbBlockTableRecord
  2
KCAD_OPEN_2
340
0
  0
BLOCK_RECORD
  5
28E
330
1
100
AcDbSymbolTableRecord
100
AcDbBlockTableRecord
  2
KCAD_OPEN30_2
340
0
  0
BLOCK_RECORD
  5
2AD
330
1
100
AcDbSymbolTableRecord
100
AcDbBlockTableRecord
  2
KCAD_OPEN30ANG
340
0
  0
BLOCK_RECORD
  5
2B6
330
1
100
AcDbSymbolTableRecord
100
AcDbBlockTableRecord
  2
KCAD_DOTANG
340
0
  0
ENDTAB
  0
ENDSEC
  0
SECTION
  2
BLOCKS
  0
BLOCK
  5
20
330
1F
100
AcDbEntity
  8
0
100
AcDbBlockBegin
  2
*Model_Space
 70
     0
 71
     0
 10
0.0
 20
0.0
 30
0.0
  3
*Model_Space
  1

  0
ENDBLK
  5
21
330
1F
100
AcDbEntity
  8
0
100
AcDbBlockEnd
  0
BLOCK
  5
75
330
73
100
AcDbEntity
 67
     1
  8
0
100
AcDbBlockBegin
  2
*Paper_Space
 70
     0
 71
     0
 10
0.0
 20
0.0
 30
0.0
  3
*Paper_Space
  1

  0
ENDBLK
  5
76
330
73
100
AcDbEntity
 67
     1
  8
0
100
AcDbBlockEnd
  0
BLOCK
  5
787
330
677
100
AcDbEntity
  8
KCAD_DIMS
100
AcDbBlockBegin
  2
KCAD_OPEN
 70
     0
 71
     0
 10
0.0
 20
0.0
 30
0.0
  3
KCAD_OPEN
  1

  0
LINE
  5
6AE
330
677
100
AcDbEntity
  8
0
  6
Continuous
 62
     0
370
    -2
100
AcDbLine
 10
0.0
 20
0.0
 30
0.0
 11
-1.0
 21
0.0
 31
0.0
  0
LINE
  5
23
330
677
100
AcDbEntity
  8
0
  6
Continuous
 62
     0
370
    -2
100
AcDbLine
 10
0.0
 20
0.0
 30
0.0
 11
-1.0
 21
0.158384
 31
0.0
  0
LINE
  5
24
330
677
100
AcDbEntity
  8
0
  6
Continuous
 62
     0
370
    -2
100
AcDbLine
 10
0.0
 20
0.0
 30
0.0
 11
-1.0
 21
-0.158384
 31
0.0
  0
ENDBLK
  5
788
330
677
100
AcDbEntity
  8
KCAD_DIMS
100
AcDbBlockEnd
  0
BLOCK
  5
789
330
3C
100
AcDbEntity
  8
KCAD_DIMS
100
AcDbBlockBegin
  2
KCAD_DOTSMALL
 70
     0
 71
     0
 10
0.0
 20
0.0
 30
0.0
  3
KCAD_DOTSMALL
  1

  0
LWPOLYLINE
  5
3D
330
3C
100
AcDbEntity
  8
KCAD_DIMS
 62
     0
100
AcDbPolyline
 90
        2
 70
     1
 43
0.5
 10
0.06252
 20
0.0
 42
1.0
 10
-0.06262
 20
0.0
 42
1.0
  0
LINE
  5
41
330
3C
100
AcDbEntity
  8
0
  6
Continuous
 62
     0
370
    -2
100
AcDbLine
 10
0.0
 20
0.0
 30
0.0
 11
-1.0
 21
0.0
 31
0.0
  0
ENDBLK
  5
78A
330
3C
100
AcDbEntity
  8
0
100
AcDbBlockEnd
  0
BLOCK
  5
78B
330
44
100
AcDbEntity
  8
KCAD_DIMS
100
AcDbBlockBegin
  2
KCAD_NONE
 70
     0
 71
     0
 10
0.0
 20
0.0
 30
0.0
  3
KCAD_NONE
  1

  0
LINE
  5
45
330
44
100
AcDbEntity
  8
0
  6
Continuous
 62
     0
370
    -2
100
AcDbLine
 10
0.0
 20
0.0
 30
0.0
 11
-1.0
 21
0.0
 31
0.0
  0
ENDBLK
  5
78C
330
44
100
AcDbEntity
  8
0
100
AcDbBlockEnd
  0
BLOCK
  5
78D
330
FC
100
AcDbEntity
  8
0
100
AcDbBlockBegin
  2
_CLOSED
 70
     0
 71
     0
 10
0.0
 20
0.0
 30
0.0
  3
_CLOSED
  1

  0
LINE
  5
FE
330
FC
100
AcDbEntity
  8
0
  6
Continuous
 62
     0
370
    -2
100
AcDbLine
 10
-1.0
 20
0.166667
 30
0.0
 11
0.0
 21
0.0
 31
0.0
  0
LINE
  5
FF
330
FC
100
AcDbEntity
  8
0
  6
Continuous
 62
     0
370
    -2
100
AcDbLine
 10
0.0
 20
0.0
 30
0.0
 11
-1.0
 21
-0.166667
 31
0.0
  0
LINE
  5
100
330
FC
100
AcDbEntity
  8
0
  6
Continuous
 62
     0
370
    -2
100
AcDbLine
 10
-1.0
 20
0.166667
 30
0.0
 11
-1.0
 21
-0.166667
 31
0.0
  0
LINE
  5
101
330
FC
100
AcDbEntity
  8
0
  6
Continuous
 62
     0
370
    -2
100
AcDbLine
 10
0.0
 20
0.0
 30
0.0
 11
-1.0
 21
0.0
 31
0.0
  0
ENDBLK
  5
78E
330
FC
100
AcDbEntity
  8
0
100
AcDbBlockEnd
  0
BLOCK
  5
78F
330
103
100
AcDbEntity
  8
0
100
AcDbBlockBegin
  2
_DOT
 70
     0
 71
     0
 10
0.0
 20
0.0
 30
0.0
  3
_DOT
  1

  0
LWPOLYLINE
  5
105
330
103
100
AcDbEntity
  8
0
  6
ByBlock
 62
     0
100
AcDbPolyline
 90
        2
 70
     1
 43
0.5
 10
-0.25
 20
0.0
 42
1.0
 10
0.25
 20
0.0
 42
1.0
  0
LINE
  5
109
330
103
100
AcDbEntity
  8
0
  6
Continuous
 62
     0
370
    -2
100
AcDbLine
 10
-0.5
 20
0.0
 30
0.0
 11
-1.0
 21
0.0
 31
0.0
  0
ENDBLK
  5
790
330
103
100
AcDbEntity
  8
0
100
AcDbBlockEnd
  0
BLOCK
  5
791
330
10B
100
AcDbEntity
  8
0
100
AcDbBlockBegin
  2
_CLOSEDBLANK
 70
     0
 71
     0
 10
0.0
 20
0.0
 30
0.0
  3
_CLOSEDBLANK
  1

  0
LINE
  5
10D
330
10B
100
AcDbEntity
  8
0
  6
Continuous
 62
     0
370
    -2
100
AcDbLine
 10
-1.0
 20
0.166667
 30
0.0
 11
0.0
 21
0.0
 31
0.0
  0
LINE
  5
10E
330
10B
100
AcDbEntity
  8
0
  6
Continuous
 62
     0
370
    -2
100
AcDbLine
 10
0.0
 20
0.0
 30
0.0
 11
-1.0
 21
-0.166667
 31
0.0
  0
LINE
  5
10F
330
10B
100
AcDbEntity
  8
0
  6
Continuous
 62
     0
370
    -2
100
AcDbLine
 10
-1.0
 20
0.166667
 30
0.0
 11
-1.0
 21
-0.166667
 31
0.0
  0
ENDBLK
  5
792
330
10B
100
AcDbEntity
  8
0
100
AcDbBlockEnd
  0
BLOCK
  5
793
330
111
100
AcDbEntity
  8
0
100
AcDbBlockBegin
  2
_OBLIQUE
 70
     0
 71
     0
 10
0.0
 20
0.0
 30
0.0
  3
_OBLIQUE
  1

  0
LINE
  5
113
330
111
100
AcDbEntity
  8
0
  6
Continuous
 62
     0
370
    -2
100
AcDbLine
 10
-0.5
 20
-0.5
 30
0.0
 11
0.5
 21
0.5
 31
0.0
  0
ENDBLK
  5
794
330
111
100
AcDbEntity
  8
0
100
AcDbBlockEnd
  0
BLOCK
  5
795
330
115
100
AcDbEntity
  8
0
100
AcDbBlockBegin
  2
_ARCHTICK
 70
     0
 71
     0
 10
0.0
 20
0.0
 30
0.0
  3
_ARCHTICK
  1

  0
LWPOLYLINE
  5
117
330
115
100
AcDbEntity
  8
0
  6
ByBlock
 62
     0
100
AcDbPolyline
 90
        2
 70
     0
 43
0.15
 10
-0.5
 20
-0.5
 10
0.5
 20
0.5
  0
ENDBLK
  5
796
330
115
100
AcDbEntity
  8
0
100
AcDbBlockEnd
  0
BLOCK
  5
797
330
11C
100
AcDbEntity
  8
0
100
AcDbBlockBegin
  2
_OPEN
 70
     0
 71
     0
 10
0.0
 20
0.0
 30
0.0
  3
_OPEN
  1

  0
LINE
  5
11E
330
11C
100
AcDbEntity
  8
0
  6
Continuous
 62
     0
370
    -2
100
AcDbLine
 10
-1.0
 20
0.166667
 30
0.0
 11
0.0
 21
0.0
 31
0.0
  0
LINE
  5
11F
330
11C
100
AcDbEntity
  8
0
  6
Continuous
 62
     0
370
    -2
100
AcDbLine
 10
0.0
 20
0.0
 30
0.0
 11
-1.0
 21
-0.166667
 31
0.0
  0
LINE
  5
120
330
11C
100
AcDbEntity
  8
0
  6
Continuous
 62
     0
370
    -2
100
AcDbLine
 10
0.0
 20
0.0
 30
0.0
 11
-1.0
 21
0.0
 31
0.0
  0
ENDBLK
  5
798
330
11C
100
AcDbEntity
  8
0
100
AcDbBlockEnd
  0
BLOCK
  5
799
330
122
100
AcDbEntity
  8
0
100
AcDbBlockBegin
  2
_ORIGIN
 70
     0
 71
     0
 10
0.0
 20
0.0
 30
0.0
  3
_ORIGIN
  1

  0
CIRCLE
  5
124
330
122
100
AcDbEntity
  8
0
  6
ByBlock
 62
     0
100
AcDbCircle
 10
0.0
 20
0.0
 30
0.0
 40
0.5
  0
LINE
  5
125
330
122
100
AcDbEntity
  8
0
  6
Continuous
 62
     0
370
    -2
100
AcDbLine
 10
0.0
 20
0.0
 30
0.0
 11
-1.0
 21
0.0
 31
0.0
  0
ENDBLK
  5
79A
330
122
100
AcDbEntity
  8
0
100
AcDbBlockEnd
  0
BLOCK
  5
79B
330
127
100
AcDbEntity
  8
0
100
AcDbBlockBegin
  2
_OPEN90
 70
     0
 71
     0
 10
0.0
 20
0.0
 30
0.0
  3
_OPEN90
  1

  0
LINE
  5
129
330
127
100
AcDbEntity
  8
0
  6
Continuous
 62
     0
370
    -2
100
AcDbLine
 10
-0.5
 20
0.5
 30
0.0
 11
0.0
 21
0.0
 31
0.0
  0
LINE
  5
12A
330
127
100
AcDbEntity
  8
0
  6
Continuous
 62
     0
370
    -2
100
AcDbLine
 10
0.0
 20
0.0
 30
0.0
 11
-0.5
 21
-0.5
 31
0.0
  0
LINE
  5
12B
330
127
100
AcDbEntity
  8
0
  6
Continuous
 62
     0
370
    -2
100
AcDbLine
 10
0.0
 20
0.0
 30
0.0
 11
-1.0
 21
0.0
 31
0.0
  0
ENDBLK
  5
79C
330
127
100
AcDbEntity
  8
0
100
AcDbBlockEnd
  0
BLOCK
  5
79D
330
12D
100
AcDbEntity
  8
0
100
AcDbBlockBegin
  2
_OPEN30
 70
     0
 71
     0
 10
0.0
 20
0.0
 30
0.0
  3
_OPEN30
  1

  0
LINE
  5
12F
330
12D
100
AcDbEntity
  8
0
  6
Continuous
 62
     0
370
    -2
100
AcDbLine
 10
-1.0
 20
0.267949
 30
0.0
 11
0.0
 21
0.0
 31
0.0
  0
LINE
  5
130
330
12D
100
AcDbEntity
  8
0
  6
Continuous
 62
     0
370
    -2
100
AcDbLine
 10
0.0
 20
0.0
 30
0.0
 11
-1.0
 21
-0.267949
 31
0.0
  0
LINE
  5
131
330
12D
100
AcDbEntity
  8
0
  6
Continuous
 62
     0
370
    -2
100
AcDbLine
 10
0.0
 20
0.0
 30
0.0
 11
-1.0
 21
0.0
 31
0.0
  0
ENDBLK
  5
79E
330
12D
100
AcDbEntity
  8
0
100
AcDbBlockEnd
  0
BLOCK
  5
79F
330
133
100
AcDbEntity
  8
0
100
AcDbBlockBegin
  2
_DOTBLANK
 70
     0
 71
     0
 10
0.0
 20
0.0
 30
0.0
  3
_DOTBLANK
  1

  0
CIRCLE
  5
135
330
133
100
AcDbEntity
  8
0
  6
ByBlock
 62
     0
100
AcDbCircle
 10
0.0
 20
0.0
 30
0.0
 40
0.5
  0
LINE
  5
136
330
133
100
AcDbEntity
  8
0
  6
Continuous
 62
     0
370
    -2
100
AcDbLine
 10
-0.5
 20
0.0
 30
0.0
 11
-1.0
 21
0.0
 31
0.0
  0
ENDBLK
  5
7A0
330
133
100
AcDbEntity
  8
0
100
AcDbBlockEnd
  0
BLOCK
  5
7A1
330
138
100
AcDbEntity
  8
0
100
AcDbBlockBegin
  2
_DOTSMALL
 70
     0
 71
     0
 10
0.0
 20
0.0
 30
0.0
  3
_DOTSMALL
  1

  0
LWPOLYLINE
  5
13A
330
138
100
AcDbEntity
  8
0
  6
ByBlock
 62
     0
100
AcDbPolyline
 90
        2
 70
     1
 43
0.5
 10
-0.0625
 20
0.0
 42
1.0
 10
0.0625
 20
0.0
 42
1.0
  0
ENDBLK
  5
7A2
330
138
100
AcDbEntity
  8
0
100
AcDbBlockEnd
  0
BLOCK
  5
7A3
330
13F
100
AcDbEntity
  8
0
100
AcDbBlockBegin
  2
_BOXFILLED
 70
     0
 71
     0
 10
0.0
 20
0.0
 30
0.0
  3
_BOXFILLED
  1

  0
SOLID
  5
141
330
13F
100
AcDbEntity
  8
0
  6
ByBlock
 62
     0
100
AcDbTrace
 10
-0.5
 20
0.5
 30
0.0
 11
0.5
 21
0.5
 31
0.0
 12
-0.5
 22
-0.5
 32
0.0
 13
0.5
 23
-0.5
 33
0.0
  0
LINE
  5
142
330
13F
100
AcDbEntity
  8
0
  6
Continuous
 62
     0
370
    -2
100
AcDbLine
 10
-0.5
 20
0.0
 30
0.0
 11
-1.0
 21
0.0
 31
0.0
  0
ENDBLK
  5
7A4
330
13F
100
AcDbEntity
  8
0
100
AcDbBlockEnd
  0
BLOCK
  5
7A5
330
144
100
AcDbEntity
  8
0
100
AcDbBlockBegin
  2
_BOXBLANK
 70
     0
 71
     0
 10
0.0
 20
0.0
 30
0.0
  3
_BOXBLANK
  1

  0
LINE
  5
146
330
144
100
AcDbEntity
  8
0
  6
Continuous
 62
     0
370
    -2
100
AcDbLine
 10
-0.5
 20
-0.5
 30
0.0
 11
0.5
 21
-0.5
 31
0.0
  0
LINE
  5
147
330
144
100
AcDbEntity
  8
0
  6
Continuous
 62
     0
370
    -2
100
AcDbLine
 10
0.5
 20
-0.5
 30
0.0
 11
0.5
 21
0.5
 31
0.0
  0
LINE
  5
148
330
144
100
AcDbEntity
  8
0
  6
Continuous
 62
     0
370
    -2
100
AcDbLine
 10
0.5
 20
0.5
 30
0.0
 11
-0.5
 21
0.5
 31
0.0
  0
LINE
  5
149
330
144
100
AcDbEntity
  8
0
  6
Continuous
 62
     0
370
    -2
100
AcDbLine
 10
-0.5
 20
0.5
 30
0.0
 11
-0.5
 21
-0.5
 31
0.0
  0
LINE
  5
14A
330
144
100
AcDbEntity
  8
0
  6
Continuous
 62
     0
370
    -2
100
AcDbLine
 10
-0.5
 20
0.0
 30
0.0
 11
-1.0
 21
0.0
 31
0.0
  0
ENDBLK
  5
7A6
330
144
100
AcDbEntity
  8
0
100
AcDbBlockEnd
  0
BLOCK
  5
7A7
330
14C
100
AcDbEntity
  8
0
100
AcDbBlockBegin
  2
_DATUMFILLED
 70
     0
 71
     0
 10
0.0
 20
0.0
 30
0.0
  3
_DATUMFILLED
  1

  0
SOLID
  5
14E
330
14C
100
AcDbEntity
  8
0
  6
ByBlock
 62
     0
100
AcDbTrace
 10
0.0
 20
0.5773500000000001
 30
0.0
 11
-1.0
 21
0.0
 31
0.0
 12
0.0
 22
-0.5773500000000001
 32
0.0
 13
0.0
 23
-0.5773500000000001
 33
0.0
  0
ENDBLK
  5
7A8
330
14C
100
AcDbEntity
  8
0
100
AcDbBlockEnd
  0
BLOCK
  5
7A9
330
150
100
AcDbEntity
  8
0
100
AcDbBlockBegin
  2
_DATUMBLANK
 70
     0
 71
     0
 10
0.0
 20
0.0
 30
0.0
  3
_DATUMBLANK
  1

  0
LINE
  5
152
330
150
100
AcDbEntity
  8
0
  6
Continuous
 62
     0
370
    -2
100
AcDbLine
 10
0.0
 20
0.5773500000000001
 30
0.0
 11
-1.0
 21
0.0
 31
0.0
  0
LINE
  5
153
330
150
100
AcDbEntity
  8
0
  6
Continuous
 62
     0
370
    -2
100
AcDbLine
 10
-1.0
 20
0.0
 30
0.0
 11
0.0
 21
-0.5773500000000001
 31
0.0
  0
LINE
  5
154
330
150
100
AcDbEntity
  8
0
  6
Continuous
 62
     0
370
    -2
100
AcDbLine
 10
0.0
 20
-0.5773500000000001
 30
0.0
 11
0.0
 21
0.5773500000000001
 31
0.0
  0
ENDBLK
  5
7AA
330
150
100
AcDbEntity
  8
0
100
AcDbBlockEnd
  0
BLOCK
  5
7AB
330
156
100
AcDbEntity
  8
0
100
AcDbBlockBegin
  2
_INTEGRAL
 70
     0
 71
     0
 10
0.0
 20
0.0
 30
0.0
  3
_INTEGRAL
  1

  0
ARC
  5
158
330
156
100
AcDbEntity
  8
0
  6
ByBlock
 62
     0
100
AcDbCircle
 10
0.444888
 20
-0.091335
 30
0.0
 40
0.454167
100
AcDbArc
 50
102.0
 51
168.0
  0
ARC
  5
159
330
156
100
AcDbEntity
  8
0
  6
ByBlock
 62
     0
100
AcDbCircle
 10
-0.444888
 20
0.091335
 30
0.0
 40
0.454167
100
AcDbArc
 50
282.0
 51
348.0
  0
ENDBLK
  5
7AC
330
156
100
AcDbEntity
  8
0
100
AcDbBlockEnd
  0
BLOCK
  5
7AD
330
1F1
100
AcDbEntity
  8
0
100
AcDbBlockBegin
  2
_Origin2
 70
     0
 71
     0
 10
0.0
 20
0.0
 30
0.0
  3
_Origin2
  1

  0
CIRCLE
  5
1F2
330
1F1
100
AcDbEntity
  8
0
  6
Continuous
 62
     0
370
    -2
100
AcDbCircle
 10
0.0
 20
0.0
 30
0.0
 40
0.5
  0
CIRCLE
  5
1F3
330
1F1
100
AcDbEntity
  8
0
  6
Continuous
 62
     0
370
    -2
100
AcDbCircle
 10
0.0
 20
0.0
 30
0.0
 40
0.25
  0
LINE
  5
1F4
330
1F1
100
AcDbEntity
  8
0
  6
Continuous
 62
     0
370
    -2
100
AcDbLine
 10
-0.5
 20
0.0
 30
0.0
 11
-1.0
 21
0.0
 31
0.0
  0
ENDBLK
  5
7AE
330
1F1
100
AcDbEntity
  8
0
100
AcDbBlockEnd
  0
BLOCK
  5
7AF
330
1F7
100
AcDbEntity
  8
0
100
AcDbBlockBegin
  2
KCAD_OPEN30
 70
     0
 71
     0
 10
0.0
 20
0.0
 30
0.0
  3
KCAD_OPEN30
  1

  0
LINE
  5
1F8
330
1F7
100
AcDbEntity
  8
0
  6
Continuous
 62
     0
370
    -2
100
AcDbLine
 10
0.0
 20
0.0
 30
0.0
 11
-1.0
 21
0.0
 31
0.0
  0
LINE
  5
1F9
330
1F7
100
AcDbEntity
  8
0
  6
Continuous
 62
     0
370
    -2
100
AcDbLine
 10
0.0
 20
0.0
 30
0.0
 11
-1.0
 21
0.2679491924311227
 31
0.0
  0
LINE
  5
1FA
330
1F7
100
AcDbEntity
  8
0
  6
Continuous
 62
     0
370
    -2
100
AcDbLine
 10
0.0
 20
0.0
 30
0.0
 11
-1.0
 21
-0.2679491924311227
 31
0.0
  0
ENDBLK
  5
7B0
330
1F7
100
AcDbEntity
  8
0
100
AcDbBlockEnd
  0
BLOCK
  5
7B1
330
222
100
AcDbEntity
  8
0
100
AcDbBlockBegin
  2
_None
 70
     0
 71
     0
 10
0.0
 20
0.0
 30
0.0
  3
_None
  1

  0
ENDBLK
  5
7B2
330
222
100
AcDbEntity
  8
0
100
AcDbBlockEnd
  0
BLOCK
  5
7B3
330
283
100
AcDbEntity
  8
0
100
AcDbBlockBegin
  2
_Small
 70
     0
 71
     0
 10
0.0
 20
0.0
 30
0.0
  3
_Small
  1

  0
CIRCLE
  5
284
330
283
100
AcDbEntity
  8
0
  6
ByBlock
 62
     0
370
    -2
100
AcDbCircle
 10
0.0
 20
0.0
 30
0.0
 40
0.25
  0
ENDBLK
  5
7B4
330
283
100
AcDbEntity
  8
0
100
AcDbBlockEnd
  0
BLOCK
  5
7B5
330
287
100
AcDbEntity
  8
0
100
AcDbBlockBegin
  2
KCAD_OPEN_2
 70
     0
 71
     0
 10
0.0
 20
0.0
 30
0.0
  3
KCAD_OPEN_2
  1

  0
LINE
  5
288
330
287
100
AcDbEntity
  8
0
  6
Continuous
 62
     0
370
    -2
100
AcDbLine
 10
0.0
 20
0.0
 30
0.0
 11
-2.0
 21
0.0
 31
0.0
  0
LINE
  5
289
330
287
100
AcDbEntity
  8
0
  6
Continuous
 62
     0
370
    -2
100
AcDbLine
 10
0.0
 20
0.0
 30
0.0
 11
-2.0
 21
0.3167688806490725
 31
0.0
  0
LINE
  5
28A
330
287
100
AcDbEntity
  8
0
  6
Continuous
 62
     0
370
    -2
100
AcDbLine
 10
0.0
 20
0.0
 30
0.0
 11
-2.0
 21
-0.3167688806490725
 31
0.0
  0
LINE
  5
28B
330
287
100
AcDbEntity
  8
0
  6
Continuous
 62
     0
370
    -2
100
AcDbLine
 10
-2.0
 20
0.0
 30
0.0
 11
-4.0
 21
0.0
 31
0.0
  0
ENDBLK
  5
7B6
330
287
100
AcDbEntity
  8
0
100
AcDbBlockEnd
  0
BLOCK
  5
7B7
330
28E
100
AcDbEntity
  8
0
100
AcDbBlockBegin
  2
KCAD_OPEN30_2
 70
     0
 71
     0
 10
0.0
 20
0.0
 30
0.0
  3
KCAD_OPEN30_2
  1

  0
LINE
  5
28F
330
28E
100
AcDbEntity
  8
0
  6
Continuous
 62
     0
370
    -2
100
AcDbLine
 10
0.0
 20
0.0
 30
0.0
 11
-2.0
 21
0.0
 31
0.0
  0
LINE
  5
290
330
28E
100
AcDbEntity
  8
0
  6
Continuous
 62
     0
370
    -2
100
AcDbLine
 10
0.0
 20
0.0
 30
0.0
 11
-2.0
 21
0.5358983848622455
 31
0.0
  0
LINE
  5
291
330
28E
100
AcDbEntity
  8
0
  6
Continuous
 62
     0
370
    -2
100
AcDbLine
 10
0.0
 20
0.0
 30
0.0
 11
-2.0
 21
-0.5358983848622455
 31
0.0
  0
LINE
  5
292
330
28E
100
AcDbEntity
  8
0
  6
Continuous
 62
     0
370
    -2
100
AcDbLine
 10
-2.0
 20
0.0
 30
0.0
 11
-4.0
 21
0.0
 31
0.0
  0
ENDBLK
  5
7B8
330
28E
100
AcDbEntity
  8
0
100
AcDbBlockEnd
  0
BLOCK
  5
7B9
330
2AD
100
AcDbEntity
  8
0
100
AcDbBlockBegin
  2
KCAD_OPEN30ANG
 70
     0
 71
     0
 10
0.0
 20
0.0
 30
0.0
  3
KCAD_OPEN30ANG
  1

  0
LINE
  5
2D7
330
2AD
100
AcDbEntity
  8
0
  6
Continuous
 62
     0
370
    -2
100
AcDbLine
 10
0.0
 20
0.0
 30
0.0
 11
-1.0
 21
-0.267949
 31
0.0
  0
LINE
  5
2D8
330
2AD
100
AcDbEntity
  8
0
  6
Continuous
 62
     0
370
    -2
100
AcDbLine
 10
-1.0
 20
0.267949
 30
0.0
 11
0.0
 21
0.0
 31
0.0
  0
ENDBLK
  5
7BA
330
2AD
100
AcDbEntity
  8
0
100
AcDbBlockEnd
  0
BLOCK
  5
7BB
330
2B6
100
AcDbEntity
  8
0
100
AcDbBlockBegin
  2
KCAD_DOTANG
 70
     0
 71
     0
 10
0.0
 20
0.0
 30
0.0
  3
KCAD_DOTANG
  1

  0
LWPOLYLINE
  5
2DD
330
2B6
100
AcDbEntity
  8
0
  6
ByBlock
 62
     0
100
AcDbPolyline
 90
        2
 70
     1
 43
0.5
 10
-0.25
 20
0.0
 42
1.0
 10
0.25
 20
0.0
 42
1.0
  0
ENDBLK
  5
7BC
330
2B6
100
AcDbEntity
  8
0
100
AcDbBlockEnd
  0
ENDSEC
  0
SECTION
  2
ENTITIES
  0
LINE
  5
2FE
330
1F
100
AcDbEntity
  8
1
  6
Continuous
 62
     7
370
    30
100
AcDbLine
 10
-15.0
 20
194.7166595459
 30
0.0
 11
-15.0
 21
14.716666221619
 31
0.0
1001
Sigma
1000

  0
LINE
  5
300
330
1F
100
AcDbEntity
  8
1
  6
Continuous
 62
     7
370
    30
100
AcDbLine
 10
-282.0
 20
194.7166595459
 30
0.0
 11
-282.0
 21
14.716666221619
 31
0.0
1001
Sigma
1000

  0
LINE
  5
302
330
1F
100
AcDbEntity
  8
1
  6
Continuous
 62
     7
370
    30
100
AcDbLine
 10
-282.0
 20
14.716666221619
 30
0.0
 11
-15.0
 21
14.716666221619
 31
0.0
1001
Sigma
1000

  0
LINE
  5
304
330
1F
100
AcDbEntity
  8
1
  6
Continuous
 62
     7
370
    30
100
AcDbLine
 10
-15.0
 20
194.7166595459
 30
0.0
 11
-282.0
 21
194.7166595459
 31
0.0
1001
Sigma
1000

  0
LINE
  5
307
330
1F
100
AcDbEntity
  8
99
  6
Continuous
 62
     7
370
    30
100
AcDbLine
 10
-205.0
 20
62.216666221619
 30
0.0
 11
-15.0
 21
62.216666221619
 31
0.0
1001
Sigma
1000

  0
LINE
  5
309
330
1F
100
AcDbEntity
  8
99
  6
Continuous
 62
     7
370
    30
100
AcDbLine
 10
-76.0
 20
14.716666221619
 30
0.0
 11
-76.0
 21
62.216666221619
 31
0.0
1001
Sigma
1000

  0
LINE
  5
30B
330
1F
100
AcDbEntity
  8
99
  6
Continuous
 62
     7
370
    30
100
AcDbLine
 10
-136.0
 20
34.716666221619
 30
0.0
 11
-15.0
 21
34.716666221619
 31
0.0
1001
Sigma
1000

  0
LINE
  5
30D
330
1F
100
AcDbEntity
  8
99
  6
Continuous
 62
     7
370
    30
100
AcDbLine
 10
-91.0
 20
14.716666221619
 30
0.0
 11
-91.0
 21
34.716666221619
 31
0.0
1001
Sigma
1000

  0
LINE
  5
30F
330
1F
100
AcDbEntity
  8
99
  6
Continuous
 62
     7
370
    30
100
AcDbLine
 10
-106.0
 20
14.716666221619
 30
0.0
 11
-106.0
 21
34.716666221619
 31
0.0
1001
Sigma
1000

  0
LINE
  5
311
330
1F
100
AcDbEntity
  8
99
  6
Continuous
 62
     7
370
    30
100
AcDbLine
 10
-121.0
 20
14.716666221619
 30
0.0
 11
-121.0
 21
62.216666221619
 31
0.0
1001
Sigma
1000

  0
LINE
  5
313
330
1F
100
AcDbEntity
  8
99
  6
Continuous
 62
     7
370
    30
100
AcDbLine
 10
-136.0
 20
14.716666221619
 30
0.0
 11
-136.0
 21
62.216666221619
 31
0.0
1001
Sigma
1000

  0
LINE
  5
315
330
1F
100
AcDbEntity
  8
99
  6
Continuous
 62
     7
370
    15
100
AcDbLine
 10
-205.0
 20
19.716666221619
 30
0.0
 11
-136.0
 21
19.716666221619
 31
0.0
1001
Sigma
1000

  0
LINE
  5
317
330
1F
100
AcDbEntity
  8
99
  6
Continuous
 62
     7
370
    15
100
AcDbLine
 10
-205.0
 20
24.716666221619
 30
0.0
 11
-136.0
 21
24.716666221619
 31
0.0
1001
Sigma
1000

  0
LINE
  5
319
330
1F
100
AcDbEntity
  8
99
  6
Continuous
 62
     7
370
    15
100
AcDbLine
 10
-205.0
 20
29.716666221619
 30
0.0
 11
-76.0
 21
29.716666221619
 31
0.0
1001
Sigma
1000

  0
LINE
  5
31B
330
1F
100
AcDbEntity
  8
99
  6
Continuous
 62
     7
370
    15
100
AcDbLine
 10
-205.0
 20
34.716666221619
 30
0.0
 11
-136.0
 21
34.716666221619
 31
0.0
1001
Sigma
1000

  0
LINE
  5
31D
330
1F
100
AcDbEntity
  8
99
  6
Continuous
 62
     7
370
    15
100
AcDbLine
 10
-205.0
 20
39.716666221619
 30
0.0
 11
-136.0
 21
39.716666221619
 31
0.0
1001
Sigma
1000

  0
LINE
  5
31F
330
1F
100
AcDbEntity
  8
99
  6
Continuous
 62
     7
370
    15
100
AcDbLine
 10
-184.0
 20
14.716666221619
 30
0.0
 11
-184.0
 21
49.716666221619
 31
0.0
1001
Sigma
1000

  0
LINE
  5
321
330
1F
100
AcDbEntity
  8
99
  6
Continuous
 62
     7
370
    15
100
AcDbLine
 10
-173.0
 20
14.716666221619
 30
0.0
 11
-173.0
 21
49.716666221619
 31
0.0
1001
Sigma
1000

  0
LINE
  5
323
330
1F
100
AcDbEntity
  8
99
  6
Continuous
 62
     7
370
    15
100
AcDbLine
 10
-71.0
 20
14.716666221619
 30
0.0
 11
-71.0
 21
49.716666221619
 31
0.0
1001
Sigma
1000

  0
LINE
  5
325
330
1F
100
AcDbEntity
  8
99
  6
Continuous
 62
     7
370
    30
100
AcDbLine
 10
-76.0
 20
24.716666221619
 30
0.0
 11
-15.0
 21
24.716666221619
 31
0.0
1001
Sigma
1000

  0
TEXT
  5
327
330
1F
100
AcDbEntity
  8
99
  6
Continuous
 62
     7
370
    30
100
AcDbText
 10
-75.27008573849
 20
31.60221805921899
 30
0.0
 40
2.7
  1
製
 41
1.266666666666666
  7
KCADTEXTSTANDARD
100
AcDbText
1001
Sigma
1000

  0
TEXT
  5
329
330
1F
100
AcDbEntity
  8
99
  6
Continuous
 62
     7
370
    30
100
AcDbText
 10
-121.775
 20
43.941666221619
 30
0.0
 40
4.049999999999999
  1
 三角法
 41
0.7916666674531168
  7
KCADTEXTSTANDARD
100
AcDbText
1001
Sigma
1000

  0
TEXT
  5
32B
330
1F
100
AcDbEntity
  8
99
  6
Continuous
 62
     7
370
    30
100
AcDbText
 10
-75.27008573849
 20
28.50221805921899
 30
0.0
 40
2.7
  1
品
 41
1.266666666666666
  7
KCADTEXTSTANDARD
100
AcDbText
1001
Sigma
1000

  0
LINE
  5
32D
330
1F
100
AcDbEntity
  8
99
  6
Continuous
 62
     7
370
    15
100
AcDbLine
 10
-200.8678058472999
 20
20.41713907611899
 30
0.0
 11
-204.0678058472999
 21
20.41713907611899
 31
0.0
1001
Sigma
1000

  0
TEXT
  5
32F
330
1F
100
AcDbEntity
  8
99
  6
Continuous
 62
     7
370
    30
100
AcDbText
 10
-75.27008573849
 20
25.402218059219
 30
0.0
 40
2.7
  1
名
 41
1.266666666666666
  7
KCADTEXTSTANDARD
100
AcDbText
1001
Sigma
1000

  0
TEXT
  5
331
330
1F
100
AcDbEntity
  8
99
  6
Continuous
 62
     7
370
    30
100
AcDbText
 10
-136.1521317828999
 20
30.517732464819
 30
0.0
 40
3.6
  1
 設計  製図  検図  承認
 41
1.147916666666666
  7
KCADTEXTSTANDARD
100
AcDbText
1001
Sigma
1000

  0
TEXT
  5
333
330
1F
100
AcDbEntity
  8
99
  6
Continuous
 62
     7
370
    30
100
AcDbText
 10
-200.4927110779
 20
15.520021661919
 30
0.0
 40
3.6
  1
 年月日   担当      訂 正 記 事
 41
0.8102941176470586
  7
KCADTEXTSTANDARD
100
AcDbText
1001
Sigma
1000

  0
TEXT
  5
335
330
1F
100
AcDbEntity
  8
99
  6
Continuous
 62
     7
370
    30
100
AcDbText
 10
-204.29609375
 20
15.686421658819
 30
0.0
 40
3.6
  1
符号
 41
0.4987500003539026
  7
KCADTEXTSTANDARD
100
AcDbText
1001
Sigma
1000

  0
LINE
  5
337
330
1F
100
AcDbEntity
  8
99
  6
Continuous
 62
     7
370
    15
100
AcDbLine
 10
-200.8678058472999
 20
40.41713907611899
 30
0.0
 11
-204.0678058472999
 21
40.41713907611899
 31
0.0
1001
Sigma
1000

  0
LINE
  5
339
330
1F
100
AcDbEntity
  8
99
  6
Continuous
 62
     7
370
    15
100
AcDbLine
 10
-202.4678058472999
 20
43.881240691319
 30
0.0
 11
-200.8678058472999
 21
40.41713907611899
 31
0.0
1001
Sigma
1000

  0
TEXT
  5
33B
330
1F
100
AcDbEntity
  8
99
  6
Continuous
 62
     7
370
    15
100
AcDbText
 10
-202.8658964625725
 20
41.00344399634615
 30
0.0
 40
2.082815953445434
  1
5
 41
0.577433628318584
  7
KCADTEXTSTANDARD
100
AcDbText
1001
Sigma
1000

  0
LINE
  5
33D
330
1F
100
AcDbEntity
  8
99
  6
Continuous
 62
     7
370
    15
100
AcDbLine
 10
-204.0678058472999
 20
40.41713907611899
 30
0.0
 11
-202.4678058472999
 21
43.881240691319
 31
0.0
1001
Sigma
1000

  0
LINE
  5
33F
330
1F
100
AcDbEntity
  8
99
  6
Continuous
 62
     7
370
    15
100
AcDbLine
 10
-200.8678058472999
 20
35.41713907611899
 30
0.0
 11
-204.0678058472999
 21
35.41713907611899
 31
0.0
1001
Sigma
1000

  0
LINE
  5
341
330
1F
100
AcDbEntity
  8
99
  6
Continuous
 62
     7
370
    15
100
AcDbLine
 10
-202.4678058472999
 20
38.881240691319
 30
0.0
 11
-200.8678058472999
 21
35.41713907611899
 31
0.0
1001
Sigma
1000

  0
TEXT
  5
343
330
1F
100
AcDbEntity
  8
99
  6
Continuous
 62
     7
370
    15
100
AcDbText
 10
-202.8658964625725
 20
36.00344399634615
 30
0.0
 40
2.082815953445434
  1
4
 41
0.577433628318584
  7
KCADTEXTSTANDARD
100
AcDbText
1001
Sigma
1000

  0
LINE
  5
345
330
1F
100
AcDbEntity
  8
99
  6
Continuous
 62
     7
370
    15
100
AcDbLine
 10
-204.0678058472999
 20
35.41713907611899
 30
0.0
 11
-202.4678058472999
 21
38.881240691319
 31
0.0
1001
Sigma
1000

  0
LINE
  5
347
330
1F
100
AcDbEntity
  8
99
  6
Continuous
 62
     7
370
    15
100
AcDbLine
 10
-200.8678058472999
 20
30.41713907611899
 30
0.0
 11
-204.0678058472999
 21
30.41713907611899
 31
0.0
1001
Sigma
1000

  0
LINE
  5
349
330
1F
100
AcDbEntity
  8
99
  6
Continuous
 62
     7
370
    15
100
AcDbLine
 10
-202.4678058472999
 20
33.881240691319
 30
0.0
 11
-200.8678058472999
 21
30.41713907611899
 31
0.0
1001
Sigma
1000

  0
TEXT
  5
34B
330
1F
100
AcDbEntity
  8
99
  6
Continuous
 62
     7
370
    15
100
AcDbText
 10
-202.8658964625725
 20
31.00344399634616
 30
0.0
 40
2.082815953445434
  1
3
 41
0.577433628318584
  7
KCADTEXTSTANDARD
100
AcDbText
1001
Sigma
1000

  0
LINE
  5
34D
330
1F
100
AcDbEntity
  8
99
  6
Continuous
 62
     7
370
    15
100
AcDbLine
 10
-202.4678058472999
 20
23.881240691319
 30
0.0
 11
-200.8678058472999
 21
20.41713907611899
 31
0.0
1001
Sigma
1000

  0
LINE
  5
34F
330
1F
100
AcDbEntity
  8
99
  6
Continuous
 62
     7
370
    15
100
AcDbLine
 10
-204.0678058472999
 20
20.41713907611899
 30
0.0
 11
-202.4678058472999
 21
23.881240691319
 31
0.0
1001
Sigma
1000

  0
LINE
  5
351
330
1F
100
AcDbEntity
  8
99
  6
Continuous
 62
     7
370
    15
100
AcDbLine
 10
-204.0678058472999
 20
30.41713907611899
 30
0.0
 11
-202.4678058472999
 21
33.881240691319
 31
0.0
1001
Sigma
1000

  0
TEXT
  5
353
330
1F
100
AcDbEntity
  8
99
  6
Continuous
 62
     7
370
    15
100
AcDbText
 10
-202.8658964625725
 20
26.00344399634616
 30
0.0
 40
2.082815953445434
  1
2
 41
0.577433628318584
  7
KCADTEXTSTANDARD
100
AcDbText
1001
Sigma
1000

  0
LINE
  5
355
330
1F
100
AcDbEntity
  8
99
  6
Continuous
 62
     7
370
    15
100
AcDbLine
 10
-200.8678058472999
 20
25.41713907611899
 30
0.0
 11
-204.0678058472999
 21
25.41713907611899
 31
0.0
1001
Sigma
1000

  0
LINE
  5
357
330
1F
100
AcDbEntity
  8
99
  6
Continuous
 62
     7
370
    15
100
AcDbLine
 10
-202.4678058472999
 20
28.881240691319
 30
0.0
 11
-200.8678058472999
 21
25.41713907611899
 31
0.0
1001
Sigma
1000

  0
LINE
  5
359
330
1F
100
AcDbEntity
  8
99
  6
Continuous
 62
     7
370
    15
100
AcDbLine
 10
-204.0678058472999
 20
25.41713907611899
 30
0.0
 11
-202.4678058472999
 21
28.881240691319
 31
0.0
1001
Sigma
1000

  0
TEXT
  5
35B
330
1F
100
AcDbEntity
  8
99
  6
Continuous
 62
     7
370
    15
100
AcDbText
 10
-202.8658964625725
 20
21.00344399634616
 30
0.0
 40
2.082815953445434
  1
1
 41
0.577433628318584
  7
KCADTEXTSTANDARD
100
AcDbText
1001
Sigma
1000

  0
TEXT
  5
35D
330
1F
100
AcDbEntity
  8
99
  6
Continuous
 62
     7
370
    30
100
AcDbText
 10
-75.28208594037
 20
35.47853668441899
 30
0.0
 40
2.7
  1
差
 41
1.266666666666666
  7
KCADTEXTSTANDARD
100
AcDbText
1001
Sigma
1000

  0
TEXT
  5
35F
330
1F
100
AcDbEntity
  8
99
  6
Continuous
 62
     7
370
    30
100
AcDbText
 10
-75.28208594037
 20
38.978536684419
 30
0.0
 40
2.7
  1
公
 41
1.266666666666666
  7
KCADTEXTSTANDARD
100
AcDbText
1001
Sigma
1000

  0
TEXT
  5
361
330
1F
100
AcDbEntity
  8
99
  6
Continuous
 62
     7
370
    30
100
AcDbText
 10
-105.1820859165581
 20
46.47853668441899
 30
0.0
 40
2.7
  1
面
 41
1.203333318233489
  7
KCADTEXTSTANDARD
100
AcDbText
1001
Sigma
1000

  0
TEXT
  5
363
330
1F
100
AcDbEntity
  8
99
  6
Continuous
 62
     7
370
    30
100
AcDbText
 10
-75.28208594037
 20
42.97853668441899
 30
0.0
 40
2.7
  1
上
 41
1.266666666666666
  7
KCADTEXTSTANDARD
100
AcDbText
1001
Sigma
1000

  0
TEXT
  5
365
330
1F
100
AcDbEntity
  8
99
  6
Continuous
 62
     7
370
    30
100
AcDbText
 10
-75.28208594037
 20
46.47853668441899
 30
0.0
 40
2.7
  1
仕
 41
1.266666666666666
  7
KCADTEXTSTANDARD
100
AcDbText
1001
Sigma
1000

  0
LINE
  5
367
330
1F
100
AcDbEntity
  8
99
  6
Continuous
 62
     7
370
    30
100
AcDbLine
 10
-184.0
 20
49.716666221619
 30
0.0
 11
-184.0
 21
62.216666221619
 31
0.0
1001
Sigma
1000

  0
TEXT
  5
369
330
1F
100
AcDbEntity
  8
99
  6
Continuous
 62
     7
370
    30
100
AcDbText
 10
-75.35
 20
20.86666622161899
 30
0.0
 40
2.7
  1
図
 41
1.266666666666666
  7
KCADTEXTSTANDARD
100
AcDbText
1001
Sigma
1000

  0
TEXT
  5
36B
330
1F
100
AcDbEntity
  8
99
  6
Continuous
 62
     7
370
    30
100
AcDbText
 10
-75.35
 20
16.36666622161899
 30
0.0
 40
2.7
  1
番
 41
1.266666666666666
  7
KCADTEXTSTANDARD
100
AcDbText
1001
Sigma
1000

  0
LINE
  5
36D
330
1F
100
AcDbEntity
  8
99
  6
Continuous
 62
     7
370
    15
100
AcDbLine
 10
-205.0
 20
54.716666221619
 30
0.0
 11
-15.0
 21
54.716666221619
 31
0.0
1001
Sigma
1000

  0
LINE
  5
36F
330
1F
100
AcDbEntity
  8
99
  6
Continuous
 62
     7
370
    15
100
AcDbLine
 10
-101.0
 20
49.716666221619
 30
0.0
 11
-101.0
 21
42.216666221619
 31
0.0
1001
Sigma
1000

  0
TEXT
  5
371
330
1F
100
AcDbEntity
  8
99
  6
Continuous
 62
     7
370
    30
100
AcDbText
 10
-133.6081081080999
 20
45.618798708019
 30
0.0
 40
3.6
  1
尺度
 41
1.1875
  7
KCADTEXTSTANDARD
100
AcDbText
1001
Sigma
1000

  0
LINE
  5
373
330
1F
100
AcDbEntity
  8
99
  6
Continuous
 62
     7
370
    15
100
AcDbLine
 10
-204.0678058472999
 20
45.41713907611899
 30
0.0
 11
-202.4678058472999
 21
48.881240691289
 31
0.0
1001
Sigma
1000

  0
TEXT
  5
375
330
1F
100
AcDbEntity
  8
99
  6
Continuous
 62
     7
370
    15
100
AcDbText
 10
-202.8658964625725
 20
46.00344399634615
 30
0.0
 40
2.082815953445434
  1
6
 41
0.577433628318584
  7
KCADTEXTSTANDARD
100
AcDbText
1001
Sigma
1000

  0
LINE
  5
377
330
1F
100
AcDbEntity
  8
99
  6
Continuous
 62
     7
370
    15
100
AcDbLine
 10
-202.4678058472999
 20
48.881240691289
 30
0.0
 11
-200.8678058472999
 21
45.41713907611899
 31
0.0
1001
Sigma
1000

  0
LINE
  5
379
330
1F
100
AcDbEntity
  8
99
  6
Continuous
 62
     7
370
    15
100
AcDbLine
 10
-200.8678058472999
 20
45.41713907611899
 30
0.0
 11
-204.0678058472999
 21
45.41713907611899
 31
0.0
1001
Sigma
1000

  0
LINE
  5
37B
330
1F
100
AcDbEntity
  8
99
  6
Continuous
 62
     7
370
    30
100
AcDbLine
 10
-106.0
 20
42.216666221619
 30
0.0
 11
-106.0
 21
49.716666221619
 31
0.0
1001
Sigma
1000

  0
LINE
  5
37D
330
1F
100
AcDbEntity
  8
99
  6
Continuous
 62
     7
370
    30
100
AcDbLine
 10
-205.0
 20
49.716666221619
 30
0.0
 11
-15.0
 21
49.716666221619
 31
0.0
1001
Sigma
1000

  0
LINE
  5
37F
330
1F
100
AcDbEntity
  8
99
  6
Continuous
 62
     7
370
    15
100
AcDbLine
 10
-205.0
 20
44.716666221619
 30
0.0
 11
-121.0
 21
44.716666221619
 31
0.0
1001
Sigma
1000

  0
LINE
  5
381
330
1F
100
AcDbEntity
  8
99
  6
Continuous
 62
     7
370
    15
100
AcDbLine
 10
-200.0
 20
14.716666221619
 30
0.0
 11
-200.0
 21
49.716666221619
 31
0.0
1001
Sigma
1000

  0
TEXT
  5
383
330
1F
100
AcDbEntity
  8
99
  6
Continuous
 62
     7
370
    30
100
AcDbText
 10
-203.1653020558
 20
50.421401326519
 30
0.0
 40
3.6
  1
部品番号     部   品   名
 41
0.7659374981911647
  7
KCADTEXTSTANDARD
100
AcDbText
1001
Sigma
1000

  0
TEXT
  5
385
330
1F
100
AcDbEntity
  8
99
  6
Continuous
 62
     7
370
    30
100
AcDbText
 10
-133.6081081080999
 20
50.718798708009
 30
0.0
 40
3.6
  1
個数
 41
1.1875
  7
KCADTEXTSTANDARD
100
AcDbText
1001
Sigma
1000

  0
TEXT
  5
387
330
1F
100
AcDbEntity
  8
99
  6
Continuous
 62
     7
370
    30
100
AcDbText
 10
-112.1521317828999
 20
50.717732464809
 30
0.0
 40
3.6
  1
材       質                表  面  処  理
 41
0.6678663776994779
  7
KCADTEXTSTANDARD
100
AcDbText
1001
Sigma
1000

  0
LINE
  5
389
330
1F
100
AcDbEntity
  8
99
  6
Continuous
 62
     7
370
    30
100
AcDbLine
 10
-205.0
 20
62.216666221619
 30
0.0
 11
-205.0
 21
14.716666221619
 31
0.0
1001
Sigma
1000

  0
TEXT
  5
38B
330
1F
100
AcDbEntity
  8
99
  6
Continuous
 62
     7
370
    30
100
AcDbText
 10
-133.3655760645
 20
37.986448023019
 30
0.0
 40
4.067999999999999
  1
1/1
 41
1.222959685349064
  7
KCADTEXTSTANDARD
100
AcDbText
1001
Sigma
1000

  0
TEXT
  5
38D
330
1F
100
AcDbEntity
  8
99
  6
Continuous
 62
     7
370
    30
100
AcDbText
 10
-62.65426971142
 20
16.706267477219
 30
0.0
 40
5.695199999999999
  1
TSTM-104
 41
0.8686740987625945
  7
KCADTEXTSTANDARD
100
AcDbText
1001
Sigma
1000

  0
TEXT
  5
390
330
1F
100
AcDbEntity
  8
2
  6
Continuous
 62
     7
370
    30
100
AcDbText
 10
-166.7067561390423
 20
56.92863863166967
 30
0.0
 40
3.307499957084655
  1
組立図
 41
0.9771428572895999
  7
KCADTEXTSTANDARD
100
AcDbText
1001
Sigma
1000

  0
TEXT
  5
392
330
1F
100
AcDbEntity
  8
2
  6
Continuous
 62
     7
370
    30
100
AcDbText
 10
-199.1131169717
 20
57.435557675046
 30
0.0
 40
2.3625
  1
１００
 41
1.007904760610489
  7
KCADTEXTSTANDARD
100
AcDbText
1001
Sigma
1000

  0
TEXT
  5
394
330
1F
100
AcDbEntity
  8
99
  6
Continuous
 62
     7
370
    30
100
AcDbText
 10
-57.90426971142
 20
26.706267477219
 30
0.0
 40
5.695199999999999
  1
KCM-ZS
 41
0.8298009469274434
  7
KCADTEXTSTANDARD
100
AcDbText
1001
Sigma
1000

  0
TEXT
  5
396
330
1F
100
AcDbEntity
  8
99
  6
Continuous
 62
     7
370
    30
100
AcDbText
 10
-59.02459426456999
 20
55.749164937239
 30
0.0
 40
4.5
  1
梨地黒アルマイト
 41
0.653125
  7
KCADTEXTSTANDARD
100
AcDbText
1001
Sigma
1000

  0
LINE
  5
398
330
1F
100
AcDbEntity
  8
99
  6
Continuous
 62
     7
370
    30
100
AcDbLine
 10
-121.0
 20
42.216666221619
 30
0.0
 11
-15.0
 21
42.216666221619
 31
0.0
1001
Sigma
1000

  0
TEXT
  5
39A
330
1F
100
AcDbEntity
  8
1
  6
Continuous
 62
     7
370
    30
100
AcDbText
 10
-117.4617236061846
 20
36.99777818025034
 30
0.0
 40
3.239999914169311
  1
２００１年８月７日
 41
0.9558641977735955
  7
KCADTEXTSTANDARD
100
AcDbText
1001
Sigma
1000

  0
POINT
  5
39C
330
1F
100
AcDbEntity
  8
0
  6
Continuous
 62
     7
370
    15
100
AcDbPoint
 10
-60.68786854316
 20
129.0026481273399
 30
0.0
1001
Sigma
1000

  0
POINT
  5
39E
330
1F
100
AcDbEntity
  8
0
  6
Continuous
 62
     7
370
    15
100
AcDbPoint
 10
-221.7478737311
 20
129.0026481273399
 30
0.0
1001
Sigma
1000

  0
POINT
  5
3A0
330
1F
100
AcDbEntity
  8
0
  6
Continuous
 62
     7
370
    15
100
AcDbPoint
 10
-60.68786854316
 20
129.0026481273399
 30
0.0
1001
Sigma
1000

  0
LINE
  5
3A2
330
1F
100
AcDbEntity
  8
0
  6
CENTER
 62
     7
370
    15
100
AcDbLine
 10
-60.68786854316
 20
130.90271831777
 30
0.0
 11
-60.68786854316
 21
127.68669964101
 31
0.0
1001
Sigma
1000

  0
LINE
  5
3A4
330
1F
100
AcDbEntity
  8
0
  6
CENTER
 62
     7
370
    15
100
AcDbLine
 10
-88.62787098457
 20
129.0026481273399
 30
0.0
 11
-57.24360766762
 21
129.0026481273399
 31
0.0
1001
Sigma
1000

  0
LINE
  5
3A6
330
1F
100
AcDbEntity
  8
0
  6
Continuous
 62
     7
370
    30
100
AcDbLine
 10
-165.1278786139999
 20
119.5026481273399
 30
0.0
 11
-131.1278709846
 21
119.5026481273399
 31
0.0
1001
Sigma
1000

  0
LINE
  5
3A8
330
1F
100
AcDbEntity
  8
0
  6
Continuous
 62
     7
370
    30
100
AcDbLine
 10
-123.6278709845999
 20
140.00264812734
 30
0.0
 11
-123.6278709845999
 21
118.00264812734
 31
0.0
1001
Sigma
1000

  0
LINE
  5
3AA
330
1F
100
AcDbEntity
  8
0
  6
Continuous
 62
     7
370
    30
100
AcDbLine
 10
-130.6278709846
 20
140.00264812734
 30
0.0
 11
-88.62787098457
 21
140.00264812734
 31
0.0
1001
Sigma
1000

  0
LINE
  5
3AC
330
1F
100
AcDbEntity
  8
0
  6
Continuous
 62
     7
370
    30
100
AcDbLine
 10
-78.21787495185
 20
142.5026481273399
 30
0.0
 11
-78.21787495185
 21
115.5026481273399
 31
0.0
1001
Sigma
1000

  0
LINE
  5
3AE
330
1F
100
AcDbEntity
  8
0
  6
Continuous
 62
     7
370
    30
100
AcDbLine
 10
-77.71787495185
 20
141.7026450755799
 30
0.0
 11
-74.71787495185998
 21
141.7026450755799
 31
0.0
1001
Sigma
1000

  0
LINE
  5
3B0
330
1F
100
AcDbEntity
  8
0
  6
Continuous
 62
     7
370
    30
100
AcDbLine
 10
-99.62787098457
 20
140.00264812734
 30
0.0
 11
-99.62787098457
 21
118.00264812734
 31
0.0
1001
Sigma
1000

  0
LINE
  5
3B2
330
1F
100
AcDbEntity
  8
0
  6
Continuous
 62
     7
370
    30
100
AcDbLine
 10
-127.7528709845999
 20
140.00264812734
 30
0.0
 11
-127.7528709845999
 21
118.00264812734
 31
0.0
1001
Sigma
1000

  0
LINE
  5
3B4
330
1F
100
AcDbEntity
  8
0
  6
Continuous
 62
     7
370
    30
100
AcDbLine
 10
-88.6278693185
 20
117.0026426339999
 30
0.0
 11
-88.12787954767
 21
116.50265290531
 31
0.0
1001
Sigma
1000

  0
LINE
  5
3B6
330
1F
100
AcDbEntity
  8
0
  6
Continuous
 62
     7
370
    30
100
AcDbLine
 10
-129.1278709846
 20
118.6276481273399
 30
0.0
 11
-118.1278709846
 21
118.6276481273399
 31
0.0
1001
Sigma
1000

  0
LINE
  5
3B8
330
1F
100
AcDbEntity
  8
0
  6
Continuous
 62
     7
370
    30
100
AcDbLine
 10
-185.627878614
 20
137.5026481273399
 30
0.0
 11
-185.627878614
 21
120.5026481273399
 31
0.0
1001
Sigma
1000

  0
LINE
  5
3BA
330
1F
100
AcDbEntity
  8
0
  6
Continuous
 62
     7
370
    30
100
AcDbLine
 10
-77.71787495185
 20
116.3026511790999
 30
0.0
 11
-74.71787495185998
 21
116.3026511790999
 31
0.0
1001
Sigma
1000

  0
LINE
  5
3BC
330
1F
100
AcDbEntity
  8
0
  6
Continuous
 62
     7
370
    30
100
AcDbLine
 10
-74.21787495185998
 20
141.2026450755799
 30
0.0
 11
-74.21787495185998
 21
116.8026511791
 31
0.0
1001
Sigma
1000

  0
LINE
  5
3BE
330
1F
100
AcDbEntity
  8
0
  6
Continuous
 62
     7
370
    30
100
AcDbLine
 10
-78.21787495185
 20
141.2026450755799
 30
0.0
 11
-77.71787495185
 21
141.2026450755799
 31
0.0
1001
Sigma
1000

  0
LINE
  5
3C0
330
1F
100
AcDbEntity
  8
0
  6
Continuous
 62
     7
370
    30
100
AcDbLine
 10
-99.62787098457
 20
129.0026481273399
 30
0.0
 11
-95.62787098457
 21
129.0026481273399
 31
0.0
1001
Sigma
1000

  0
LINE
  5
3C2
330
1F
100
AcDbEntity
  8
0
  6
CENTER
 62
     7
370
    15
100
AcDbLine
 10
-188.9583185432
 20
129.0026481273399
 30
0.0
 11
-131.1278709846
 21
129.0026481273399
 31
0.0
1001
Sigma
1000

  0
LINE
  5
3C4
330
1F
100
AcDbEntity
  8
0
  6
Continuous
 62
     7
370
    30
100
AcDbLine
 10
-78.21787495185
 20
116.8026511791
 30
0.0
 11
-77.71787495185
 21
116.8026511791
 31
0.0
1001
Sigma
1000

  0
LINE
  5
3C6
330
1F
100
AcDbEntity
  8
0
  6
Continuous
 62
     7
370
    30
100
AcDbLine
 10
-74.71787495185998
 20
141.7026450755799
 30
0.0
 11
-74.71787495185998
 21
116.3026511790999
 31
0.0
1001
Sigma
1000

  0
LINE
  5
3C8
330
1F
100
AcDbEntity
  8
0
  6
Continuous
 62
     7
370
    30
100
AcDbLine
 10
-77.71787495185
 20
141.2026450755799
 30
0.0
 11
-74.71787495185998
 21
141.2026450755799
 31
0.0
1001
Sigma
1000

  0
LINE
  5
3CA
330
1F
100
AcDbEntity
  8
0
  6
Continuous
 62
     7
370
    30
100
AcDbLine
 10
-129.1278709846
 20
122.5026481273399
 30
0.0
 11
-118.1278709846
 21
122.5026481273399
 31
0.0
1001
Sigma
1000

  0
LINE
  5
3CC
330
1F
100
AcDbEntity
  8
0
  6
Continuous
 62
     7
370
    30
100
AcDbLine
 10
-78.71787495185
 20
143.00264812734
 30
0.0
 11
-78.71787495185
 21
115.00264812734
 31
0.0
1001
Sigma
1000

  0
LINE
  5
3CE
330
1F
100
AcDbEntity
  8
0
  6
Continuous
 62
     7
370
    30
100
AcDbLine
 10
-74.71786786479
 20
141.70264456201
 30
0.0
 11
-74.21786734651
 21
141.20264400158
 31
0.0
1001
Sigma
1000

  0
LINE
  5
3D0
330
1F
100
AcDbEntity
  8
0
  6
Continuous
 62
     7
370
    30
100
AcDbLine
 10
-74.71786636858
 20
116.30264138621
 30
0.0
 11
-74.2178685477
 21
116.80263924923
 31
0.0
1001
Sigma
1000

  0
LINE
  5
3D2
330
1F
100
AcDbEntity
  8
0
  6
CENTER
 62
     7
370
    15
100
AcDbLine
 10
-60.68786854316
 20
130.5659568431599
 30
0.0
 11
-60.68786854316
 21
127.2932365062499
 31
0.0
1001
Sigma
1000

  0
LINE
  5
3D4
330
1F
100
AcDbEntity
  8
0
  6
Continuous
 62
     7
370
    30
100
AcDbLine
 10
-77.71787495185
 20
141.7026450755799
 30
0.0
 11
-77.71787495185
 21
116.3026511790999
 31
0.0
1001
Sigma
1000

  0
LINE
  5
3D6
330
1F
100
AcDbEntity
  8
0
  6
Continuous
 62
     7
370
    30
100
AcDbLine
 10
-77.71787495185
 20
116.8026511791
 30
0.0
 11
-74.71787495185998
 21
116.8026511791
 31
0.0
1001
Sigma
1000

  0
LINE
  5
3D8
330
1F
100
AcDbEntity
  8
0
  6
Continuous
 62
     7
370
    30
100
AcDbLine
 10
-165.1278786139999
 20
138.5026481273399
 30
0.0
 11
-131.1278709846
 21
138.5026481273399
 31
0.0
1001
Sigma
1000

  0
LINE
  5
3DA
330
1F
100
AcDbEntity
  8
0
  6
Continuous
 62
     7
370
    30
100
AcDbLine
 10
-86.06787776893
 20
115.50265056473
 30
0.0
 11
-85.5678772085
 21
115.00265004645
 31
0.0
1001
Sigma
1000

  0
LINE
  5
3DC
330
1F
100
AcDbEntity
  8
0
  6
Continuous
 62
     7
370
    30
100
AcDbLine
 10
-129.1278709846
 20
127.7526481273399
 30
0.0
 11
-118.1278709846
 21
127.7526481273399
 31
0.0
1001
Sigma
1000

  0
LINE
  5
3DE
330
1F
100
AcDbEntity
  8
0
  6
Continuous
 62
     7
370
    30
100
AcDbLine
 10
-130.6278709846
 20
118.00264812734
 30
0.0
 11
-88.62787098457
 21
118.00264812734
 31
0.0
1001
Sigma
1000

  0
LINE
  5
3E0
330
1F
100
AcDbEntity
  8
0
  6
Continuous
 62
     7
370
    30
100
AcDbLine
 10
-85.56787342598
 20
143.00264812734
 30
0.0
 11
-78.71787495185
 21
143.00264812734
 31
0.0
1001
Sigma
1000

  0
LINE
  5
3E2
330
1F
100
AcDbEntity
  8
0
  6
Continuous
 62
     7
370
    30
100
AcDbLine
 10
-85.56787342598
 20
115.00264812734
 30
0.0
 11
-78.71787495185
 21
115.00264812734
 31
0.0
1001
Sigma
1000

  0
LINE
  5
3E4
330
1F
100
AcDbEntity
  8
0
  6
Continuous
 62
     7
370
    30
100
AcDbLine
 10
-129.1278709846
 20
140.00264812734
 30
0.0
 11
-129.1278709846
 21
118.00264812734
 31
0.0
1001
Sigma
1000

  0
LINE
  5
3E6
330
1F
100
AcDbEntity
  8
0
  6
Continuous
 62
     7
370
    30
100
AcDbLine
 10
-129.1278709846
 20
120.5026481273399
 30
0.0
 11
-118.1278709846
 21
120.5026481273399
 31
0.0
1001
Sigma
1000

  0
LINE
  5
3E8
330
1F
100
AcDbEntity
  8
0
  6
Continuous
 62
     7
370
    30
100
AcDbLine
 10
-131.1278709846
 20
139.5026481273399
 30
0.0
 11
-131.1278709846
 21
118.5026481273399
 31
0.0
1001
Sigma
1000

  0
LINE
  5
3EA
330
1F
100
AcDbEntity
  8
0
  6
Continuous
 62
     7
370
    30
100
AcDbLine
 10
-129.1278709846
 20
126.50264812734
 30
0.0
 11
-118.1278709846
 21
126.50264812734
 31
0.0
1001
Sigma
1000

  0
LINE
  5
3EC
330
1F
100
AcDbEntity
  8
0
  6
Continuous
 62
     7
370
    30
100
AcDbLine
 10
-126.3778709846
 20
140.00264812734
 30
0.0
 11
-126.3778709846
 21
118.00264812734
 31
0.0
1001
Sigma
1000

  0
LINE
  5
3EE
330
1F
100
AcDbEntity
  8
0
  6
Continuous
 62
     7
370
    30
100
AcDbLine
 10
-120.8778709845999
 20
140.00264812734
 30
0.0
 11
-120.8778709845999
 21
118.00264812734
 31
0.0
1001
Sigma
1000

  0
LINE
  5
3F0
330
1F
100
AcDbEntity
  8
0
  6
Continuous
 62
     7
370
    30
100
AcDbLine
 10
-86.06788600863
 20
142.50265831137
 30
0.0
 11
-85.56788544821
 21
143.00265882965
 31
0.0
1001
Sigma
1000

  0
LINE
  5
3F2
330
1F
100
AcDbEntity
  8
0
  6
Continuous
 62
     7
370
    30
100
AcDbLine
 10
-78.7178719773
 20
115.00264494036
 30
0.0
 11
-78.21787280771998
 21
115.5026441520899
 31
0.0
1001
Sigma
1000

  0
LINE
  5
3F4
330
1F
100
AcDbEntity
  8
0
  6
Continuous
 62
     7
370
    30
100
AcDbLine
 10
-165.6278786139999
 20
138.0026481273399
 30
0.0
 11
-165.6278786139999
 21
120.00264812734
 31
0.0
1001
Sigma
1000

  0
LINE
  5
3F6
330
1F
100
AcDbEntity
  8
0
  6
Continuous
 62
     7
370
    30
100
AcDbLine
 10
-129.1278709846
 20
119.2526481273399
 30
0.0
 11
-118.1278709846
 21
119.2526481273399
 31
0.0
1001
Sigma
1000

  0
LINE
  5
3F8
330
1F
100
AcDbEntity
  8
0
  6
Continuous
 62
     7
370
    30
100
AcDbLine
 10
-88.62787098457
 20
141.00264812734
 30
0.0
 11
-88.62787098457
 21
117.00264812734
 31
0.0
1001
Sigma
1000

  0
LINE
  5
3FA
330
1F
100
AcDbEntity
  8
0
  6
Continuous
 62
     7
370
    30
100
AcDbLine
 10
-78.71788021701
 20
143.00265314615
 30
0.0
 11
-78.21787969873
 21
142.50265258572
 31
0.0
1001
Sigma
1000

  0
LINE
  5
3FC
330
1F
100
AcDbEntity
  8
0
  6
Continuous
 62
     7
370
    30
100
AcDbLine
 10
-88.62786946602
 20
141.00264466292
 30
0.0
 11
-88.12786890559
 21
141.5026451811999
 31
0.0
1001
Sigma
1000

  0
LINE
  5
3FE
330
1F
100
AcDbEntity
  8
0
  6
Continuous
 62
     7
370
    30
100
AcDbLine
 10
-129.1278709846
 20
135.50264812734
 30
0.0
 11
-118.1278709846
 21
135.50264812734
 31
0.0
1001
Sigma
1000

  0
LINE
  5
400
330
1F
100
AcDbEntity
  8
0
  6
Continuous
 62
     7
370
    30
100
AcDbLine
 10
-129.1278709846
 20
137.5026481273399
 30
0.0
 11
-118.1278709846
 21
137.5026481273399
 31
0.0
1001
Sigma
1000

  0
LINE
  5
402
330
1F
100
AcDbEntity
  8
0
  6
Continuous
 62
     7
370
    30
100
AcDbLine
 10
-129.1278709846
 20
133.50264812734
 30
0.0
 11
-118.1278709846
 21
133.50264812734
 31
0.0
1001
Sigma
1000

  0
LINE
  5
404
330
1F
100
AcDbEntity
  8
0
  6
Continuous
 62
     7
370
    30
100
AcDbLine
 10
-129.1278709846
 20
123.5026481273399
 30
0.0
 11
-118.1278709846
 21
123.5026481273399
 31
0.0
1001
Sigma
1000

  0
LINE
  5
406
330
1F
100
AcDbEntity
  8
0
  6
Continuous
 62
     7
370
    30
100
AcDbLine
 10
-129.1278709846
 20
131.50264812734
 30
0.0
 11
-118.1278709846
 21
131.50264812734
 31
0.0
1001
Sigma
1000

  0
LINE
  5
408
330
1F
100
AcDbEntity
  8
0
  6
Continuous
 62
     7
370
    30
100
AcDbLine
 10
-129.1278709846
 20
125.5026481273399
 30
0.0
 11
-118.1278709846
 21
125.5026481273399
 31
0.0
1001
Sigma
1000

  0
LINE
  5
40A
330
1F
100
AcDbEntity
  8
0
  6
Continuous
 62
     7
370
    30
100
AcDbLine
 10
-85.56787342598
 20
143.00264812734
 30
0.0
 11
-85.56787342598
 21
115.00264812734
 31
0.0
1001
Sigma
1000

  0
LINE
  5
40C
330
1F
100
AcDbEntity
  8
0
  6
Continuous
 62
     7
370
    30
100
AcDbLine
 10
-185.1278786139999
 20
138.0026481273399
 30
0.0
 11
-165.6278786139999
 21
138.0026481273399
 31
0.0
1001
Sigma
1000

  0
LINE
  5
40E
330
1F
100
AcDbEntity
  8
0
  6
Continuous
 62
     7
370
    30
100
AcDbLine
 10
-130.6278709846
 20
140.00264812734
 30
0.0
 11
-130.6278709846
 21
118.00264812734
 31
0.0
1001
Sigma
1000

  0
LINE
  5
410
330
1F
100
AcDbEntity
  8
0
  6
Continuous
 62
     7
370
    30
100
AcDbLine
 10
-86.06787342598
 20
142.5026481273399
 30
0.0
 11
-86.06787342598
 21
115.5026481273399
 31
0.0
1001
Sigma
1000

  0
LINE
  5
412
330
1F
100
AcDbEntity
  8
0
  6
Continuous
 62
     7
370
    30
100
AcDbLine
 10
-118.1278709846
 20
140.00264812734
 30
0.0
 11
-118.1278709846
 21
118.00264812734
 31
0.0
1001
Sigma
1000

  0
LINE
  5
414
330
1F
100
AcDbEntity
  8
0
  6
Continuous
 62
     7
370
    30
100
AcDbLine
 10
-131.1278707195999
 20
118.50264380951
 30
0.0
 11
-130.6278701591
 21
118.00264329123
 31
0.0
1001
Sigma
1000

  0
LINE
  5
416
330
1F
100
AcDbEntity
  8
0
  6
Continuous
 62
     7
370
    30
100
AcDbLine
 10
-129.1278709846
 20
119.87764812734
 30
0.0
 11
-118.1278709846
 21
119.87764812734
 31
0.0
1001
Sigma
1000

  0
LINE
  5
418
330
1F
100
AcDbEntity
  8
0
  6
Continuous
 62
     7
370
    30
100
AcDbLine
 10
-185.1278786139999
 20
120.00264812734
 30
0.0
 11
-165.6278786139999
 21
120.00264812734
 31
0.0
1001
Sigma
1000

  0
LINE
  5
41A
330
1F
100
AcDbEntity
  8
0
  6
Continuous
 62
     7
370
    30
100
AcDbLine
 10
-129.1278709846
 20
121.5026481273399
 30
0.0
 11
-118.1278709846
 21
121.5026481273399
 31
0.0
1001
Sigma
1000

  0
LINE
  5
41C
330
1F
100
AcDbEntity
  8
0
  6
Continuous
 62
     7
370
    30
100
AcDbLine
 10
-129.1278709846
 20
129.0026481273399
 30
0.0
 11
-118.1278709846
 21
129.0026481273399
 31
0.0
1001
Sigma
1000

  0
LINE
  5
41E
330
1F
100
AcDbEntity
  8
0
  6
Continuous
 62
     7
370
    30
100
AcDbLine
 10
-88.12787098457
 20
141.5026481273399
 30
0.0
 11
-86.06787342598
 21
141.5026481273399
 31
0.0
1001
Sigma
1000

  0
LINE
  5
420
330
1F
100
AcDbEntity
  8
0
  6
Continuous
 62
     7
370
    30
100
AcDbLine
 10
-88.12787098457
 20
116.5026481273399
 30
0.0
 11
-86.06787342598
 21
116.5026481273399
 31
0.0
1001
Sigma
1000

  0
LINE
  5
422
330
1F
100
AcDbEntity
  8
0
  6
CENTER
 62
     7
370
    15
100
AcDbLine
 10
-221.7478737311
 20
131.2735984447199
 30
0.0
 11
-221.7478737311
 21
126.60378338125
 31
0.0
1001
Sigma
1000

  0
LINE
  5
424
330
1F
100
AcDbEntity
  8
0
  6
Continuous
 62
     7
370
    30
100
AcDbLine
 10
-129.1278709846
 20
138.75264812734
 30
0.0
 11
-118.1278709846
 21
138.75264812734
 31
0.0
1001
Sigma
1000

  0
LINE
  5
426
330
1F
100
AcDbEntity
  8
0
  6
Continuous
 62
     7
370
    30
100
AcDbLine
 10
-129.1278709846
 20
124.5026481273399
 30
0.0
 11
-118.1278709846
 21
124.5026481273399
 31
0.0
1001
Sigma
1000

  0
LINE
  5
428
330
1F
100
AcDbEntity
  8
0
  6
Continuous
 62
     7
370
    30
100
AcDbLine
 10
-131.1278705299
 20
139.50264652198
 30
0.0
 11
-130.6278706438
 21
140.00264636591
 31
0.0
1001
Sigma
1000

  0
LINE
  5
42A
330
1F
100
AcDbEntity
  8
0
  6
Continuous
 62
     7
370
    30
100
AcDbLine
 10
-88.12787098457
 20
141.5026481273399
 30
0.0
 11
-88.12787098457
 21
116.5026481273399
 31
0.0
1001
Sigma
1000

  0
LINE
  5
42C
330
1F
100
AcDbEntity
  8
0
  6
Continuous
 62
     7
370
    30
100
AcDbLine
 10
-125.0028709845999
 20
140.00264812734
 30
0.0
 11
-125.0028709845999
 21
118.00264812734
 31
0.0
1001
Sigma
1000

  0
LINE
  5
42E
330
1F
100
AcDbEntity
  8
0
  6
Continuous
 62
     7
370
    30
100
AcDbLine
 10
-129.1278709846
 20
134.50264812734
 30
0.0
 11
-118.1278709846
 21
134.50264812734
 31
0.0
1001
Sigma
1000

  0
LINE
  5
430
330
1F
100
AcDbEntity
  8
0
  6
Continuous
 62
     7
370
    30
100
AcDbLine
 10
-122.2528709846
 20
140.00264812734
 30
0.0
 11
-122.2528709846
 21
118.00264812734
 31
0.0
1001
Sigma
1000

  0
LINE
  5
432
330
1F
100
AcDbEntity
  8
0
  6
Continuous
 62
     7
370
    30
100
AcDbLine
 10
-129.1278709846
 20
139.3776481273399
 30
0.0
 11
-118.1278709846
 21
139.3776481273399
 31
0.0
1001
Sigma
1000

  0
LINE
  5
434
330
1F
100
AcDbEntity
  8
0
  6
Continuous
 62
     7
370
    30
100
AcDbLine
 10
-129.1278709846
 20
132.50264812734
 30
0.0
 11
-118.1278709846
 21
132.50264812734
 31
0.0
1001
Sigma
1000

  0
LINE
  5
436
330
1F
100
AcDbEntity
  8
0
  6
Continuous
 62
     7
370
    30
100
AcDbLine
 10
-129.1278709846
 20
130.2526481273399
 30
0.0
 11
-118.1278709846
 21
130.2526481273399
 31
0.0
1001
Sigma
1000

  0
LINE
  5
438
330
1F
100
AcDbEntity
  8
0
  6
Continuous
 62
     7
370
    30
100
AcDbLine
 10
-129.1278709846
 20
136.5026481273399
 30
0.0
 11
-118.1278709846
 21
136.5026481273399
 31
0.0
1001
Sigma
1000

  0
LINE
  5
43A
330
1F
100
AcDbEntity
  8
0
  6
Continuous
 62
     7
370
    30
100
AcDbLine
 10
-129.1278709846
 20
138.1276481273399
 30
0.0
 11
-118.1278709846
 21
138.1276481273399
 31
0.0
1001
Sigma
1000

  0
LINE
  5
43C
330
1F
100
AcDbEntity
  8
0
  6
CENTER
 62
     7
370
    15
100
AcDbLine
 10
-224.4979195074999
 20
129.0026481273399
 30
0.0
 11
-217.7049852097999
 21
129.0026481273399
 31
0.0
1001
Sigma
1000

  0
LINE
  5
43E
330
1F
100
AcDbEntity
  8
0
  6
Continuous
 62
     7
370
    30
100
AcDbLine
 10
-119.5028709845999
 20
140.00264812734
 30
0.0
 11
-119.5028709845999
 21
118.00264812734
 31
0.0
1001
Sigma
1000

  0
LINE
  5
440
330
1F
100
AcDbEntity
  8
0
  6
Continuous
 62
     7
370
    30
100
AcDbLine
 10
-165.1278786139999
 20
138.5026481273399
 30
0.0
 11
-165.1278786139999
 21
119.5026481273399
 31
0.0
1001
Sigma
1000

  0
LINE
  5
442
330
1F
100
AcDbEntity
  8
0
  6
Continuous
 62
     7
370
    30
100
AcDbLine
 10
-185.1278786139999
 20
138.0026481273399
 30
0.0
 11
-185.1278786139999
 21
120.00264812734
 31
0.0
1001
Sigma
1000

  0
LINE
  5
444
330
1F
100
AcDbEntity
  8
0
  6
Continuous
 62
     7
370
    30
100
AcDbLine
 10
-185.6278757928
 20
137.5026463243999
 30
0.0
 11
-185.1278752323
 21
138.00264684268
 31
0.0
1001
Sigma
1000

  0
LINE
  5
446
330
1F
100
AcDbEntity
  8
0
  6
Continuous
 62
     7
370
    30
100
AcDbLine
 10
-165.6278811715999
 20
138.0026514156099
 30
0.0
 11
-165.1278806112
 21
138.50265193389
 31
0.0
1001
Sigma
1000

  0
LINE
  5
448
330
1F
100
AcDbEntity
  8
0
  6
Continuous
 62
     7
370
    30
100
AcDbLine
 10
-165.6278823727999
 20
120.0026480196
 30
0.0
 11
-165.1278818124
 21
119.50264750132
 31
0.0
1001
Sigma
1000

  0
LINE
  5
44A
330
1F
100
AcDbEntity
  8
0
  6
Continuous
 62
     7
370
    30
100
AcDbLine
 10
-185.6278769939
 20
120.5026423212099
 30
0.0
 11
-185.1278764335
 21
120.00264180294
 31
0.0
1001
Sigma
1000

  0
LINE
  5
44C
330
1F
100
AcDbEntity
  8
0
  6
DASHED
 62
     7
370
    15
100
AcDbLine
 10
-185.627878614
 20
137.0026481273399
 30
0.0
 11
-180.627878614
 21
137.0026481273399
 31
0.0
1001
Sigma
1000

  0
LINE
  5
44E
330
1F
100
AcDbEntity
  8
0
  6
DASHED
 62
     7
370
    15
100
AcDbLine
 10
-185.627878614
 20
121.00264812734
 30
0.0
 11
-180.627878614
 21
121.00264812734
 31
0.0
1001
Sigma
1000

  0
LINE
  5
450
330
1F
100
AcDbEntity
  8
0
  6
DASHED
 62
     7
370
    15
100
AcDbLine
 10
-180.627878614
 20
137.0026481273399
 30
0.0
 11
-180.627878614
 21
121.00264812734
 31
0.0
1001
Sigma
1000

  0
LINE
  5
452
330
1F
100
AcDbEntity
  8
0
  6
DASHED
 62
     7
370
    15
100
AcDbLine
 10
-185.627878614
 20
136.75264812734
 30
0.0
 11
-180.627878614
 21
136.75264812734
 31
0.0
1001
Sigma
1000

  0
LINE
  5
454
330
1F
100
AcDbEntity
  8
0
  6
DASHED
 62
     7
370
    15
100
AcDbLine
 10
-185.627878614
 20
121.25264812734
 30
0.0
 11
-180.627878614
 21
121.25264812734
 31
0.0
1001
Sigma
1000

  0
LINE
  5
456
330
1F
100
AcDbEntity
  8
0
  6
CENTER
 62
     7
370
    15
100
AcDbLine
 10
-88.62787098457
 20
129.0026481273399
 30
0.0
 11
-59.32501835395999
 21
129.0026481273399
 31
0.0
1001
Sigma
1000

  0
LINE
  5
458
330
1F
100
AcDbEntity
  8
0
  6
Continuous
 62
     7
370
    30
100
AcDbLine
 10
-89.62787098457
 20
136.5026481273399
 30
0.0
 11
-89.62787098457
 21
121.5026481273399
 31
0.0
1001
Sigma
1000

  0
LINE
  5
45A
330
1F
100
AcDbEntity
  8
0
  6
Continuous
 62
     7
370
    30
100
AcDbLine
 10
-94.62787098457
 20
136.5026481273399
 30
0.0
 11
-94.62787098457
 21
121.5026481273399
 31
0.0
1001
Sigma
1000

  0
LINE
  5
45C
330
1F
100
AcDbEntity
  8
0
  6
Continuous
 62
     7
370
    30
100
AcDbLine
 10
-94.62787098457
 20
136.5026481273399
 30
0.0
 11
-89.62787098457
 21
136.5026481273399
 31
0.0
1001
Sigma
1000

  0
LINE
  5
45E
330
1F
100
AcDbEntity
  8
0
  6
Continuous
 62
     7
370
    30
100
AcDbLine
 10
-94.62787098457
 20
121.5026481273399
 30
0.0
 11
-89.62787098457
 21
121.5026481273399
 31
0.0
1001
Sigma
1000

  0
CIRCLE
  5
460
330
1F
100
AcDbEntity
  8
0
  6
Continuous
 62
     7
370
    30
100
AcDbCircle
 10
-60.68786854316
 20
129.0026481273399
 30
0.0
 40
0.5
1001
Sigma
1000

  0
CIRCLE
  5
462
330
1F
100
AcDbEntity
  8
0
  6
Continuous
 62
     7
370
    30
100
AcDbCircle
 10
-221.7478737311
 20
129.0026481273399
 30
0.0
 40
1.0
1001
Sigma
1000

  0
CIRCLE
  5
464
330
1F
100
AcDbEntity
  8
0
  6
Continuous
 62
     7
370
    30
100
AcDbCircle
 10
-60.68786854316
 20
129.0026481273399
 30
0.0
 40
1.0
1001
Sigma
1000

  0
CIRCLE
  5
466
330
1F
100
AcDbEntity
  8
0
  6
Continuous
 62
     7
370
    30
100
AcDbCircle
 10
-83.06787342598
 20
129.0026481273399
 30
0.0
 40
1.25
1001
Sigma
1000

  0
CIRCLE
  5
468
330
1F
100
AcDbEntity
  8
0
  6
Continuous
 62
     7
370
    30
100
AcDbCircle
 10
-103.6278709846
 20
123.4780138587999
 30
0.0
 40
1.25
1001
Sigma
1000

  0
CIRCLE
  5
46A
330
1F
100
AcDbEntity
  8
0
  6
Continuous
 62
     7
370
    30
100
AcDbCircle
 10
-103.6278709846
 20
123.4780138587999
 30
0.0
 40
1.5
1001
Sigma
1000

  0
CIRCLE
  5
46C
330
1F
100
AcDbEntity
  8
0
  6
Continuous
 62
     7
370
    30
100
AcDbCircle
 10
-83.06787342598
 20
129.0026481273399
 30
0.0
 40
1.5
1001
Sigma
1000

  0
TEXT
  5
46E
330
1F
100
AcDbEntity
  8
0
  6
Continuous
 62
     7
370
    30
100
AcDbText
 10
-105.5656267362
 20
128.3536185863199
 30
0.0
 40
1.35
  1
４．８×
 41
0.5660948634147644
  7
KCADTEXTSTANDARD
100
AcDbText
1001
Sigma
1000

  0
TEXT
  5
470
330
1F
100
AcDbEntity
  8
0
  6
Continuous
 62
     7
370
    30
100
AcDbText
 10
-102.7166048245999
 20
138.1827582957899
 30
0.0
 40
1.35
  1
２×
 41
0.5748196661472321
  7
KCADTEXTSTANDARD
100
AcDbText
1001
Sigma
1000

  0
TEXT
  5
472
330
1F
100
AcDbEntity
  8
0
  6
Continuous
 62
     7
370
    30
100
AcDbText
 10
-102.8590532499
 20
135.0488319041899
 30
0.0
 40
1.35
  1
３×
 41
0.5748196661472321
  7
KCADTEXTSTANDARD
100
AcDbText
1001
Sigma
1000

  0
TEXT
  5
474
330
1F
100
AcDbEntity
  8
0
  6
Continuous
 62
     7
370
    30
100
AcDbText
 10
-102.8590532499
 20
131.2026481273399
 30
0.0
 40
1.35
  1
４×
 41
0.5748196661472321
  7
KCADTEXTSTANDARD
100
AcDbText
1001
Sigma
1000

  0
LINE
  5
477
102
{ACAD_REACTORS
330
476
102
}
330
1F
100
AcDbEntity
  8
0
  6
Continuous
 62
     7
370
    30
100
AcDbLine
 10
-94.62787098457
 20
134.70984635611
 30
0.0
 11
-92.83507279895
 21
136.5026481273399
 31
0.0
1001
Sigma
1000

  0
LINE
  5
479
102
{ACAD_REACTORS
330
476
102
}
330
1F
100
AcDbEntity
  8
0
  6
Continuous
 62
     7
370
    30
100
AcDbLine
 10
-94.62787098457
 20
130.2197138054399
 30
0.0
 11
-89.62787098457
 21
135.2197238054499
 31
0.0
1001
Sigma
1000

  0
LINE
  5
47B
102
{ACAD_REACTORS
330
476
102
}
330
1F
100
AcDbEntity
  8
0
  6
Continuous
 62
     7
370
    30
100
AcDbLine
 10
-94.62787098457
 20
125.7295812547799
 30
0.0
 11
-89.62787098457
 21
130.7295912547799
 31
0.0
1001
Sigma
1000

  0
LINE
  5
47D
102
{ACAD_REACTORS
330
476
102
}
330
1F
100
AcDbEntity
  8
0
  6
Continuous
 62
     7
370
    30
100
AcDbLine
 10
-94.36467208774
 20
121.5026481273399
 30
0.0
 11
-89.62787098457
 21
126.2394587041199
 31
0.0
1001
Sigma
1000

  0
LINE
  5
47F
102
{ACAD_REACTORS
330
476
102
}
330
1F
100
AcDbEntity
  8
0
  6
Continuous
 62
     7
370
    30
100
AcDbLine
 10
-89.87454851732
 20
121.5026481273399
 30
0.0
 11
-89.62787098457
 21
121.7493261534499
 31
0.0
1001
Sigma
1000

  0
POINT
  5
482
102
{ACAD_REACTORS
330
481
102
}
330
1F
100
AcDbEntity
  8
KCAD_DIMS
  6
Continuous
 62
     7
370
    15
100
AcDbPoint
 10
-221.7478737311
 20
173.8776481273399
 30
0.0
1001
Sigma
1000
DIM_NORM1
  0
POINT
  5
484
102
{ACAD_REACTORS
330
481
102
}
330
1F
100
AcDbEntity
  8
KCAD_DIMS
  6
Continuous
 62
     7
370
    15
100
AcDbPoint
 10
-221.7478737311
 20
131.2735984447199
 30
0.0
1001
Sigma
1000
DIM_NORM1
  0
POINT
  5
486
102
{ACAD_REACTORS
330
481
102
}
330
1F
100
AcDbEntity
  8
KCAD_DIMS
  6
Continuous
 62
     7
370
    15
100
AcDbPoint
 10
-185.627878614
 20
138.0026481273399
 30
0.0
1001
Sigma
1000
DIM_NORM1
  0
TEXT
  5
488
102
{ACAD_REACTORS
330
481
102
}
330
1F
100
AcDbEntity
  8
KCAD_DIMS
  6
Continuous
 62
     7
370
    30
100
AcDbText
 10
-193.5028760103926
 20
176.1176481905162
 30
0.0
 40
1.301760019397735
  1
%%p2
  7
KCADDIMSTANDARD
100
AcDbText
1001
Sigma
1000
DIM_NORM1
  0
TEXT
  5
48A
102
{ACAD_REACTORS
330
481
102
}
330
1F
100
AcDbEntity
  8
KCAD_DIMS
  6
Continuous
 62
     7
370
    30
100
AcDbText
 10
-215.7748763422853
 20
175.1576481464125
 30
0.0
 40
2.603520038795471
  1
WD36.12
  7
KCADDIMSTANDARD
100
AcDbText
1001
Sigma
1000
DIM_NORM1
  0
LINE
  5
48C
102
{ACAD_REACTORS
330
481
102
}
330
1F
100
AcDbEntity
  8
KCAD_DIMS
  6
Continuous
 62
     7
370
    30
100
AcDbLine
 10
-221.7478737311
 20
173.8776481273399
 30
0.0
 11
-218.7478737761999
 21
173.8776481273399
 31
0.0
1001
Sigma
1000
DIM_NORM1
  0
LINE
  5
48E
102
{ACAD_REACTORS
330
481
102
}
330
1F
100
AcDbEntity
  8
KCAD_DIMS
  6
Continuous
 62
     7
370
    30
100
AcDbLine
 10
-221.7478737311
 20
173.8776481273399
 30
0.0
 11
-218.7478737761999
 21
172.87764814235
 31
0.0
1001
Sigma
1000
DIM_NORM1
  0
LINE
  5
490
102
{ACAD_REACTORS
330
481
102
}
330
1F
100
AcDbEntity
  8
KCAD_DIMS
  6
Continuous
 62
     7
370
    30
100
AcDbLine
 10
-221.7478737311
 20
173.8776481273399
 30
0.0
 11
-218.7478737761999
 21
174.87764811232
 31
0.0
1001
Sigma
1000
DIM_NORM1
  0
LINE
  5
492
102
{ACAD_REACTORS
330
481
102
}
330
1F
100
AcDbEntity
  8
KCAD_DIMS
  6
Continuous
 62
     7
370
    30
100
AcDbLine
 10
-185.627878614
 20
173.8776481273399
 30
0.0
 11
-188.6278785688999
 21
173.8776481273399
 31
0.0
1001
Sigma
1000
DIM_NORM1
  0
LINE
  5
494
102
{ACAD_REACTORS
330
481
102
}
330
1F
100
AcDbEntity
  8
KCAD_DIMS
  6
Continuous
 62
     7
370
    30
100
AcDbLine
 10
-185.627878614
 20
173.8776481273399
 30
0.0
 11
-188.6278785688999
 21
174.87764811232
 31
0.0
1001
Sigma
1000
DIM_NORM1
  0
LINE
  5
496
102
{ACAD_REACTORS
330
481
102
}
330
1F
100
AcDbEntity
  8
KCAD_DIMS
  6
Continuous
 62
     7
370
    30
100
AcDbLine
 10
-185.627878614
 20
173.8776481273399
 30
0.0
 11
-188.6278785688999
 21
172.87764814235
 31
0.0
1001
Sigma
1000
DIM_NORM1
  0
LINE
  5
498
102
{ACAD_REACTORS
330
481
102
}
330
1F
100
AcDbEntity
  8
KCAD_DIMS
  6
Continuous
 62
     7
370
    30
100
AcDbLine
 10
-188.6278785688999
 20
173.8776481273399
 30
0.0
 11
-218.7478737761999
 21
173.8776481273399
 31
0.0
1001
Sigma
1000
DIM_NORM1
  0
POINT
  5
49B
102
{ACAD_REACTORS
330
49A
102
}
330
1F
100
AcDbEntity
  8
KCAD_DIMS
  6
Continuous
 62
     7
370
    15
100
AcDbPoint
 10
-51.85654682685999
 20
116.3026511790999
 30
0.0
1001
Sigma
1000
DIM_NORM1
  0
POINT
  5
49D
102
{ACAD_REACTORS
330
49A
102
}
330
1F
100
AcDbEntity
  8
KCAD_DIMS
  6
Continuous
 62
     7
370
    15
100
AcDbPoint
 10
-74.71787495185998
 20
116.3026511790999
 30
0.0
1001
Sigma
1000
DIM_NORM1
  0
POINT
  5
49F
102
{ACAD_REACTORS
330
49A
102
}
330
1F
100
AcDbEntity
  8
KCAD_DIMS
  6
Continuous
 62
     7
370
    15
100
AcDbPoint
 10
-74.71787495185998
 20
141.7026450755799
 30
0.0
1001
Sigma
1000
DIM_NORM1
  0
TEXT
  5
4A1
102
{ACAD_REACTORS
330
49A
102
}
330
1F
100
AcDbEntity
  8
KCAD_DIMS
  6
Continuous
 62
     7
370
    30
100
AcDbText
 10
-52.81654684116419
 20
121.6196480276841
 30
0.0
 40
2.880000042915344
  1
Ｃマウント
 50
90.0
 41
0.5645366077939182
  7
KCADDIMSTANDARD
100
AcDbText
1001
Sigma
1000
DIM_NORM1
  0
LINE
  5
4A3
102
{ACAD_REACTORS
330
49A
102
}
330
1F
100
AcDbEntity
  8
KCAD_DIMS
  6
Continuous
 62
     7
370
    30
100
AcDbLine
 10
-73.71787496687
 20
116.3026511790999
 30
0.0
 11
-50.85654682686
 21
116.3026511790999
 31
0.0
1001
Sigma
1000
DIM_NORM1
  0
LINE
  5
4A5
102
{ACAD_REACTORS
330
49A
102
}
330
1F
100
AcDbEntity
  8
KCAD_DIMS
  6
Continuous
 62
     7
370
    30
100
AcDbLine
 10
-73.71787496687
 20
141.7026450755799
 30
0.0
 11
-50.85654682686
 21
141.7026450755799
 31
0.0
1001
Sigma
1000
DIM_NORM1
  0
LINE
  5
4A7
102
{ACAD_REACTORS
330
49A
102
}
330
1F
100
AcDbEntity
  8
KCAD_DIMS
  6
Continuous
 62
     7
370
    30
100
AcDbLine
 10
-51.85654682685999
 20
116.3026511790999
 30
0.0
 11
-51.85654682685999
 21
119.30265113404
 31
0.0
1001
Sigma
1000
DIM_NORM1
  0
LINE
  5
4A9
102
{ACAD_REACTORS
330
49A
102
}
330
1F
100
AcDbEntity
  8
KCAD_DIMS
  6
Continuous
 62
     7
370
    30
100
AcDbLine
 10
-51.85654682685999
 20
116.3026511790999
 30
0.0
 11
-50.85654684187
 21
119.30265113404
 31
0.0
1001
Sigma
1000
DIM_NORM1
  0
LINE
  5
4AB
102
{ACAD_REACTORS
330
49A
102
}
330
1F
100
AcDbEntity
  8
KCAD_DIMS
  6
Continuous
 62
     7
370
    30
100
AcDbLine
 10
-51.85654682685999
 20
116.3026511790999
 30
0.0
 11
-52.85654681183999
 21
119.30265113404
 31
0.0
1001
Sigma
1000
DIM_NORM1
  0
LINE
  5
4AD
102
{ACAD_REACTORS
330
49A
102
}
330
1F
100
AcDbEntity
  8
KCAD_DIMS
  6
Continuous
 62
     7
370
    30
100
AcDbLine
 10
-51.85654682685999
 20
141.7026450755799
 30
0.0
 11
-51.85654682685999
 21
138.7026451206299
 31
0.0
1001
Sigma
1000
DIM_NORM1
  0
LINE
  5
4AF
102
{ACAD_REACTORS
330
49A
102
}
330
1F
100
AcDbEntity
  8
KCAD_DIMS
  6
Continuous
 62
     7
370
    30
100
AcDbLine
 10
-51.85654682685999
 20
141.7026450755799
 30
0.0
 11
-52.85654681183999
 21
138.7026451206299
 31
0.0
1001
Sigma
1000
DIM_NORM1
  0
LINE
  5
4B1
102
{ACAD_REACTORS
330
49A
102
}
330
1F
100
AcDbEntity
  8
KCAD_DIMS
  6
Continuous
 62
     7
370
    30
100
AcDbLine
 10
-51.85654682685999
 20
141.7026450755799
 30
0.0
 11
-50.85654684187
 21
138.7026451206299
 31
0.0
1001
Sigma
1000
DIM_NORM1
  0
LINE
  5
4B3
102
{ACAD_REACTORS
330
49A
102
}
330
1F
100
AcDbEntity
  8
KCAD_DIMS
  6
Continuous
 62
     7
370
    30
100
AcDbLine
 10
-51.85654682685999
 20
138.7026451206299
 30
0.0
 11
-51.85654682685999
 21
119.30265113404
 31
0.0
1001
Sigma
1000
DIM_NORM1
  0
POINT
  5
4B6
102
{ACAD_REACTORS
330
4B5
102
}
330
1F
100
AcDbEntity
  8
KCAD_DIMS
  6
Continuous
 62
     7
370
    15
100
AcDbPoint
 10
-43.13779682685999
 20
115.00264812734
 30
0.0
1001
Sigma
1000
DIM_NORM1
  0
POINT
  5
4B8
102
{ACAD_REACTORS
330
4B5
102
}
330
1F
100
AcDbEntity
  8
KCAD_DIMS
  6
Continuous
 62
     7
370
    15
100
AcDbPoint
 10
-78.71787495185
 20
115.00264812734
 30
0.0
1001
Sigma
1000
DIM_NORM1
  0
POINT
  5
4BA
102
{ACAD_REACTORS
330
4B5
102
}
330
1F
100
AcDbEntity
  8
KCAD_DIMS
  6
Continuous
 62
     7
370
    15
100
AcDbPoint
 10
-78.71787495185
 20
143.00264812734
 30
0.0
1001
Sigma
1000
DIM_NORM1
  0
TEXT
  5
4BC
102
{ACAD_REACTORS
330
4B5
102
}
330
1F
100
AcDbEntity
  8
KCAD_DIMS
  6
Continuous
 62
     7
370
    30
100
AcDbText
 10
-44.41779684593256
 20
124.9156480767946
 30
0.0
 40
2.603520038795471
  1
%%c28
 50
90.0
  7
KCADDIMSTANDARD
100
AcDbText
1001
Sigma
1000
DIM_NORM1
  0
LINE
  5
4BE
102
{ACAD_REACTORS
330
4B5
102
}
330
1F
100
AcDbEntity
  8
KCAD_DIMS
  6
Continuous
 62
     7
370
    30
100
AcDbLine
 10
-77.71787496687
 20
115.00264812734
 30
0.0
 11
-42.13779682685999
 21
115.00264812734
 31
0.0
1001
Sigma
1000
DIM_NORM1
  0
LINE
  5
4C0
102
{ACAD_REACTORS
330
4B5
102
}
330
1F
100
AcDbEntity
  8
KCAD_DIMS
  6
Continuous
 62
     7
370
    30
100
AcDbLine
 10
-77.71787496687
 20
143.00264812734
 30
0.0
 11
-42.13779682685999
 21
143.00264812734
 31
0.0
1001
Sigma
1000
DIM_NORM1
  0
LINE
  5
4C2
102
{ACAD_REACTORS
330
4B5
102
}
330
1F
100
AcDbEntity
  8
KCAD_DIMS
  6
Continuous
 62
     7
370
    30
100
AcDbLine
 10
-43.13779682685999
 20
115.00264812734
 30
0.0
 11
-43.13779682685999
 21
118.00264808228
 31
0.0
1001
Sigma
1000
DIM_NORM1
  0
LINE
  5
4C4
102
{ACAD_REACTORS
330
4B5
102
}
330
1F
100
AcDbEntity
  8
KCAD_DIMS
  6
Continuous
 62
     7
370
    30
100
AcDbLine
 10
-43.13779682685999
 20
115.00264812734
 30
0.0
 11
-42.13779684187
 21
118.00264808228
 31
0.0
1001
Sigma
1000
DIM_NORM1
  0
LINE
  5
4C6
102
{ACAD_REACTORS
330
4B5
102
}
330
1F
100
AcDbEntity
  8
KCAD_DIMS
  6
Continuous
 62
     7
370
    30
100
AcDbLine
 10
-43.13779682685999
 20
115.00264812734
 30
0.0
 11
-44.13779681183999
 21
118.00264808228
 31
0.0
1001
Sigma
1000
DIM_NORM1
  0
LINE
  5
4C8
102
{ACAD_REACTORS
330
4B5
102
}
330
1F
100
AcDbEntity
  8
KCAD_DIMS
  6
Continuous
 62
     7
370
    30
100
AcDbLine
 10
-43.13779682685999
 20
143.00264812734
 30
0.0
 11
-43.13779682685999
 21
140.00264817239
 31
0.0
1001
Sigma
1000
DIM_NORM1
  0
LINE
  5
4CA
102
{ACAD_REACTORS
330
4B5
102
}
330
1F
100
AcDbEntity
  8
KCAD_DIMS
  6
Continuous
 62
     7
370
    30
100
AcDbLine
 10
-43.13779682685999
 20
143.00264812734
 30
0.0
 11
-44.13779681183999
 21
140.00264817239
 31
0.0
1001
Sigma
1000
DIM_NORM1
  0
LINE
  5
4CC
102
{ACAD_REACTORS
330
4B5
102
}
330
1F
100
AcDbEntity
  8
KCAD_DIMS
  6
Continuous
 62
     7
370
    30
100
AcDbLine
 10
-43.13779682685999
 20
143.00264812734
 30
0.0
 11
-42.13779684187
 21
140.00264817239
 31
0.0
1001
Sigma
1000
DIM_NORM1
  0
LINE
  5
4CE
102
{ACAD_REACTORS
330
4B5
102
}
330
1F
100
AcDbEntity
  8
KCAD_DIMS
  6
Continuous
 62
     7
370
    30
100
AcDbLine
 10
-43.13779682685999
 20
140.00264817239
 30
0.0
 11
-43.13779682685999
 21
118.00264808228
 31
0.0
1001
Sigma
1000
DIM_NORM1
  0
POINT
  5
4D1
102
{ACAD_REACTORS
330
4D0
102
}
330
1F
100
AcDbEntity
  8
KCAD_DIMS
  6
Continuous
 62
     7
370
    15
100
AcDbPoint
 10
-185.627878614
 20
173.8776481273399
 30
0.0
1001
Sigma
1000
DIM_NORM1
  0
POINT
  5
4D3
102
{ACAD_REACTORS
330
4D0
102
}
330
1F
100
AcDbEntity
  8
KCAD_DIMS
  6
Continuous
 62
     7
370
    15
100
AcDbPoint
 10
-185.627878614
 20
138.0026481273399
 30
0.0
1001
Sigma
1000
DIM_NORM1
  0
POINT
  5
4D5
102
{ACAD_REACTORS
330
4D0
102
}
330
1F
100
AcDbEntity
  8
KCAD_DIMS
  6
Continuous
 62
     7
370
    15
100
AcDbPoint
 10
-78.21787495185
 20
142.5026481273399
 30
0.0
1001
Sigma
1000
DIM_NORM1
  0
TEXT
  5
4D7
102
{ACAD_REACTORS
330
4D0
102
}
330
1F
100
AcDbEntity
  8
KCAD_DIMS
  6
Continuous
 62
     7
370
    30
100
AcDbText
 10
-140.8098769049852
 20
175.1576481464125
 30
0.0
 40
2.603520038795471
  1
107.41
  7
KCADDIMSTANDARD
100
AcDbText
1001
Sigma
1000
DIM_NORM1
  0
LINE
  5
4D9
102
{ACAD_REACTORS
330
4D0
102
}
330
1F
100
AcDbEntity
  8
KCAD_DIMS
  6
Continuous
 62
     7
370
    30
100
AcDbLine
 10
-185.627878614
 20
139.00264811232
 30
0.0
 11
-185.627878614
 21
174.8776481273399
 31
0.0
1001
Sigma
1000
DIM_NORM1
  0
LINE
  5
4DB
102
{ACAD_REACTORS
330
4D0
102
}
330
1F
100
AcDbEntity
  8
KCAD_DIMS
  6
Continuous
 62
     7
370
    30
100
AcDbLine
 10
-185.627878614
 20
173.8776481273399
 30
0.0
 11
-182.627878659
 21
173.8776481273399
 31
0.0
1001
Sigma
1000
DIM_NORM1
  0
LINE
  5
4DD
102
{ACAD_REACTORS
330
4D0
102
}
330
1F
100
AcDbEntity
  8
KCAD_DIMS
  6
Continuous
 62
     7
370
    30
100
AcDbLine
 10
-185.627878614
 20
173.8776481273399
 30
0.0
 11
-182.627878659
 21
172.87764814235
 31
0.0
1001
Sigma
1000
DIM_NORM1
  0
LINE
  5
4DF
102
{ACAD_REACTORS
330
4D0
102
}
330
1F
100
AcDbEntity
  8
KCAD_DIMS
  6
Continuous
 62
     7
370
    30
100
AcDbLine
 10
-185.627878614
 20
173.8776481273399
 30
0.0
 11
-182.627878659
 21
174.87764811232
 31
0.0
1001
Sigma
1000
DIM_NORM1
  0
LINE
  5
4E1
102
{ACAD_REACTORS
330
4D0
102
}
330
1F
100
AcDbEntity
  8
KCAD_DIMS
  6
Continuous
 62
     7
370
    30
100
AcDbLine
 10
-78.21787495185
 20
173.8776481273399
 30
0.0
 11
-81.2178749068
 21
173.8776481273399
 31
0.0
1001
Sigma
1000
DIM_NORM1
  0
LINE
  5
4E3
102
{ACAD_REACTORS
330
4D0
102
}
330
1F
100
AcDbEntity
  8
KCAD_DIMS
  6
Continuous
 62
     7
370
    30
100
AcDbLine
 10
-78.21787495185
 20
173.8776481273399
 30
0.0
 11
-81.2178749068
 21
174.87764811232
 31
0.0
1001
Sigma
1000
DIM_NORM1
  0
LINE
  5
4E5
102
{ACAD_REACTORS
330
4D0
102
}
330
1F
100
AcDbEntity
  8
KCAD_DIMS
  6
Continuous
 62
     7
370
    30
100
AcDbLine
 10
-78.21787495185
 20
173.8776481273399
 30
0.0
 11
-81.2178749068
 21
172.87764814235
 31
0.0
1001
Sigma
1000
DIM_NORM1
  0
LINE
  5
4E7
102
{ACAD_REACTORS
330
4D0
102
}
330
1F
100
AcDbEntity
  8
KCAD_DIMS
  6
Continuous
 62
     7
370
    30
100
AcDbLine
 10
-81.2178749068
 20
173.8776481273399
 30
0.0
 11
-182.627878659
 21
173.8776481273399
 31
0.0
1001
Sigma
1000
DIM_NORM1
  0
POINT
  5
4EA
102
{ACAD_REACTORS
330
4E9
102
}
330
1F
100
AcDbEntity
  8
KCAD_DIMS
  6
Continuous
 62
     7
370
    15
100
AcDbPoint
 10
-78.21787495185
 20
173.8776481273399
 30
0.0
1001
Sigma
1000
DIM_NORM1
  0
POINT
  5
4EC
102
{ACAD_REACTORS
330
4E9
102
}
330
1F
100
AcDbEntity
  8
KCAD_DIMS
  6
Continuous
 62
     7
370
    15
100
AcDbPoint
 10
-78.21787495185
 20
142.5026481273399
 30
0.0
1001
Sigma
1000
DIM_NORM1
  0
POINT
  5
4EE
102
{ACAD_REACTORS
330
4E9
102
}
330
1F
100
AcDbEntity
  8
KCAD_DIMS
  6
Continuous
 62
     7
370
    15
100
AcDbPoint
 10
-60.68786854316
 20
130.5659568431599
 30
0.0
1001
Sigma
1000
DIM_NORM1
  0
TEXT
  5
4F0
102
{ACAD_REACTORS
330
4E9
102
}
330
1F
100
AcDbEntity
  8
KCAD_DIMS
  6
Continuous
 62
     7
370
    30
100
AcDbText
 10
-76.7398756604353
 20
175.1576481464125
 30
0.0
 40
2.603520038795471
  1
17.53
  7
KCADDIMSTANDARD
100
AcDbText
1001
Sigma
1000
DIM_NORM1
  0
LINE
  5
4F2
102
{ACAD_REACTORS
330
4E9
102
}
330
1F
100
AcDbEntity
  8
KCAD_DIMS
  6
Continuous
 62
     7
370
    30
100
AcDbLine
 10
-78.21787495185
 20
143.50264811232
 30
0.0
 11
-78.21787495185
 21
174.8776481273399
 31
0.0
1001
Sigma
1000
DIM_NORM1
  0
LINE
  5
4F4
102
{ACAD_REACTORS
330
4E9
102
}
330
1F
100
AcDbEntity
  8
KCAD_DIMS
  6
Continuous
 62
     7
370
    30
100
AcDbLine
 10
-78.21787495185
 20
173.8776481273399
 30
0.0
 11
-75.21787499691
 21
173.8776481273399
 31
0.0
1001
Sigma
1000
DIM_NORM1
  0
LINE
  5
4F6
102
{ACAD_REACTORS
330
4E9
102
}
330
1F
100
AcDbEntity
  8
KCAD_DIMS
  6
Continuous
 62
     7
370
    30
100
AcDbLine
 10
-78.21787495185
 20
173.8776481273399
 30
0.0
 11
-75.21787499691
 21
172.87764814235
 31
0.0
1001
Sigma
1000
DIM_NORM1
  0
LINE
  5
4F8
102
{ACAD_REACTORS
330
4E9
102
}
330
1F
100
AcDbEntity
  8
KCAD_DIMS
  6
Continuous
 62
     7
370
    30
100
AcDbLine
 10
-78.21787495185
 20
173.8776481273399
 30
0.0
 11
-75.21787499691
 21
174.87764811232
 31
0.0
1001
Sigma
1000
DIM_NORM1
  0
LINE
  5
4FA
102
{ACAD_REACTORS
330
4E9
102
}
330
1F
100
AcDbEntity
  8
KCAD_DIMS
  6
Continuous
 62
     7
370
    30
100
AcDbLine
 10
-60.68786854316
 20
173.8776481273399
 30
0.0
 11
-63.68786849811
 21
173.8776481273399
 31
0.0
1001
Sigma
1000
DIM_NORM1
  0
LINE
  5
4FC
102
{ACAD_REACTORS
330
4E9
102
}
330
1F
100
AcDbEntity
  8
KCAD_DIMS
  6
Continuous
 62
     7
370
    30
100
AcDbLine
 10
-60.68786854316
 20
173.8776481273399
 30
0.0
 11
-63.68786849811
 21
174.87764811232
 31
0.0
1001
Sigma
1000
DIM_NORM1
  0
LINE
  5
4FE
102
{ACAD_REACTORS
330
4E9
102
}
330
1F
100
AcDbEntity
  8
KCAD_DIMS
  6
Continuous
 62
     7
370
    30
100
AcDbLine
 10
-60.68786854316
 20
173.8776481273399
 30
0.0
 11
-63.68786849811
 21
172.87764814235
 31
0.0
1001
Sigma
1000
DIM_NORM1
  0
LINE
  5
500
102
{ACAD_REACTORS
330
4E9
102
}
330
1F
100
AcDbEntity
  8
KCAD_DIMS
  6
Continuous
 62
     7
370
    30
100
AcDbLine
 10
-63.68786849811
 20
173.8776481273399
 30
0.0
 11
-75.21787499691
 21
173.8776481273399
 31
0.0
1001
Sigma
1000
DIM_NORM1
  0
POINT
  5
503
102
{ACAD_REACTORS
330
502
102
}
330
1F
100
AcDbEntity
  8
KCAD_DIMS
  6
Continuous
 62
     7
370
    15
100
AcDbPoint
 10
-60.68786854316
 20
181.37764812734
 30
0.0
1001
Sigma
1000
DIM_NORM1
  0
POINT
  5
505
102
{ACAD_REACTORS
330
502
102
}
330
1F
100
AcDbEntity
  8
KCAD_DIMS
  6
Continuous
 62
     7
370
    15
100
AcDbPoint
 10
-60.68786854316
 20
130.5659568431599
 30
0.0
1001
Sigma
1000
DIM_NORM1
  0
POINT
  5
507
102
{ACAD_REACTORS
330
502
102
}
330
1F
100
AcDbEntity
  8
KCAD_DIMS
  6
Continuous
 62
     7
370
    15
100
AcDbPoint
 10
-221.7478737311
 20
131.2735984447199
 30
0.0
1001
Sigma
1000
DIM_NORM1
  0
TEXT
  5
509
102
{ACAD_REACTORS
330
502
102
}
330
1F
100
AcDbEntity
  8
KCAD_DIMS
  6
Continuous
 62
     7
370
    30
100
AcDbText
 10
-153.3048751215853
 20
182.6576481464125
 30
0.0
 40
2.603520038795471
  1
(161.06)
  7
KCADDIMSTANDARD
100
AcDbText
1001
Sigma
1000
DIM_NORM1
  0
LINE
  5
50B
102
{ACAD_REACTORS
330
502
102
}
330
1F
100
AcDbEntity
  8
KCAD_DIMS
  6
Continuous
 62
     7
370
    30
100
AcDbLine
 10
-60.68786854316
 20
131.56595682814
 30
0.0
 11
-60.68786854316
 21
182.37764812734
 31
0.0
1001
Sigma
1000
DIM_NORM1
  0
LINE
  5
50D
102
{ACAD_REACTORS
330
502
102
}
330
1F
100
AcDbEntity
  8
KCAD_DIMS
  6
Continuous
 62
     7
370
    30
100
AcDbLine
 10
-221.7478737311
 20
132.2735984297
 30
0.0
 11
-221.7478737311
 21
182.37764812734
 31
0.0
1001
Sigma
1000
DIM_NORM1
  0
LINE
  5
50F
102
{ACAD_REACTORS
330
502
102
}
330
1F
100
AcDbEntity
  8
KCAD_DIMS
  6
Continuous
 62
     7
370
    30
100
AcDbLine
 10
-60.68786854316
 20
181.37764812734
 30
0.0
 11
-63.68786849811
 21
181.37764812734
 31
0.0
1001
Sigma
1000
DIM_NORM1
  0
LINE
  5
511
102
{ACAD_REACTORS
330
502
102
}
330
1F
100
AcDbEntity
  8
KCAD_DIMS
  6
Continuous
 62
     7
370
    30
100
AcDbLine
 10
-60.68786854316
 20
181.37764812734
 30
0.0
 11
-63.68786849811
 21
182.37764811232
 31
0.0
1001
Sigma
1000
DIM_NORM1
  0
LINE
  5
513
102
{ACAD_REACTORS
330
502
102
}
330
1F
100
AcDbEntity
  8
KCAD_DIMS
  6
Continuous
 62
     7
370
    30
100
AcDbLine
 10
-60.68786854316
 20
181.37764812734
 30
0.0
 11
-63.68786849811
 21
180.37764814235
 31
0.0
1001
Sigma
1000
DIM_NORM1
  0
LINE
  5
515
102
{ACAD_REACTORS
330
502
102
}
330
1F
100
AcDbEntity
  8
KCAD_DIMS
  6
Continuous
 62
     7
370
    30
100
AcDbLine
 10
-221.7478737311
 20
181.37764812734
 30
0.0
 11
-218.7478737761999
 21
181.37764812734
 31
0.0
1001
Sigma
1000
DIM_NORM1
  0
LINE
  5
517
102
{ACAD_REACTORS
330
502
102
}
330
1F
100
AcDbEntity
  8
KCAD_DIMS
  6
Continuous
 62
     7
370
    30
100
AcDbLine
 10
-221.7478737311
 20
181.37764812734
 30
0.0
 11
-218.7478737761999
 21
180.37764814235
 31
0.0
1001
Sigma
1000
DIM_NORM1
  0
LINE
  5
519
102
{ACAD_REACTORS
330
502
102
}
330
1F
100
AcDbEntity
  8
KCAD_DIMS
  6
Continuous
 62
     7
370
    30
100
AcDbLine
 10
-221.7478737311
 20
181.37764812734
 30
0.0
 11
-218.7478737761999
 21
182.37764811232
 31
0.0
1001
Sigma
1000
DIM_NORM1
  0
LINE
  5
51B
102
{ACAD_REACTORS
330
502
102
}
330
1F
100
AcDbEntity
  8
KCAD_DIMS
  6
Continuous
 62
     7
370
    30
100
AcDbLine
 10
-218.7478737761999
 20
181.37764812734
 30
0.0
 11
-63.68786849811
 21
181.37764812734
 31
0.0
1001
Sigma
1000
DIM_NORM1
  0
POINT
  5
51E
102
{ACAD_REACTORS
330
51D
102
}
330
1F
100
AcDbEntity
  8
KCAD_DIMS
  6
Continuous
 62
     7
370
    15
100
AcDbPoint
 10
-165.6278786139999
 20
106.37764812734
 30
0.0
1001
Sigma
1000
DIM_NORM1
  0
POINT
  5
520
102
{ACAD_REACTORS
330
51D
102
}
330
1F
100
AcDbEntity
  8
KCAD_DIMS
  6
Continuous
 62
     7
370
    15
100
AcDbPoint
 10
-165.6278786139999
 20
119.5026481273399
 30
0.0
1001
Sigma
1000
DIM_NORM1
  0
POINT
  5
522
102
{ACAD_REACTORS
330
51D
102
}
330
1F
100
AcDbEntity
  8
KCAD_DIMS
  6
Continuous
 62
     7
370
    15
100
AcDbPoint
 10
-185.627878614
 20
120.00264812734
 30
0.0
1001
Sigma
1000
DIM_NORM1
  0
TEXT
  5
524
102
{ACAD_REACTORS
330
51D
102
}
330
1F
100
AcDbEntity
  8
KCAD_DIMS
  6
Continuous
 62
     7
370
    30
100
AcDbText
 10
-178.1148786406853
 20
107.6576481464125
 30
0.0
 40
2.603520038795471
  1
20
  7
KCADDIMSTANDARD
100
AcDbText
1001
Sigma
1000
DIM_NORM1
  0
LINE
  5
526
102
{ACAD_REACTORS
330
51D
102
}
330
1F
100
AcDbEntity
  8
KCAD_DIMS
  6
Continuous
 62
     7
370
    30
100
AcDbLine
 10
-165.6278786139999
 20
118.50264814236
 30
0.0
 11
-165.6278786139999
 21
105.37764812734
 31
0.0
1001
Sigma
1000
DIM_NORM1
  0
LINE
  5
528
102
{ACAD_REACTORS
330
51D
102
}
330
1F
100
AcDbEntity
  8
KCAD_DIMS
  6
Continuous
 62
     7
370
    30
100
AcDbLine
 10
-185.627878614
 20
119.00264814236
 30
0.0
 11
-185.627878614
 21
105.37764812734
 31
0.0
1001
Sigma
1000
DIM_NORM1
  0
LINE
  5
52A
102
{ACAD_REACTORS
330
51D
102
}
330
1F
100
AcDbEntity
  8
KCAD_DIMS
  6
Continuous
 62
     7
370
    30
100
AcDbLine
 10
-165.6278786139999
 20
106.37764812734
 30
0.0
 11
-168.6278785688999
 21
106.37764812734
 31
0.0
1001
Sigma
1000
DIM_NORM1
  0
LINE
  5
52C
102
{ACAD_REACTORS
330
51D
102
}
330
1F
100
AcDbEntity
  8
KCAD_DIMS
  6
Continuous
 62
     7
370
    30
100
AcDbLine
 10
-165.6278786139999
 20
106.37764812734
 30
0.0
 11
-168.6278785688999
 21
107.37764811232
 31
0.0
1001
Sigma
1000
DIM_NORM1
  0
LINE
  5
52E
102
{ACAD_REACTORS
330
51D
102
}
330
1F
100
AcDbEntity
  8
KCAD_DIMS
  6
Continuous
 62
     7
370
    30
100
AcDbLine
 10
-165.6278786139999
 20
106.37764812734
 30
0.0
 11
-168.6278785688999
 21
105.37764814236
 31
0.0
1001
Sigma
1000
DIM_NORM1
  0
LINE
  5
530
102
{ACAD_REACTORS
330
51D
102
}
330
1F
100
AcDbEntity
  8
KCAD_DIMS
  6
Continuous
 62
     7
370
    30
100
AcDbLine
 10
-185.627878614
 20
106.37764812734
 30
0.0
 11
-182.627878659
 21
106.37764812734
 31
0.0
1001
Sigma
1000
DIM_NORM1
  0
LINE
  5
532
102
{ACAD_REACTORS
330
51D
102
}
330
1F
100
AcDbEntity
  8
KCAD_DIMS
  6
Continuous
 62
     7
370
    30
100
AcDbLine
 10
-185.627878614
 20
106.37764812734
 30
0.0
 11
-182.627878659
 21
105.37764814236
 31
0.0
1001
Sigma
1000
DIM_NORM1
  0
LINE
  5
534
102
{ACAD_REACTORS
330
51D
102
}
330
1F
100
AcDbEntity
  8
KCAD_DIMS
  6
Continuous
 62
     7
370
    30
100
AcDbLine
 10
-185.627878614
 20
106.37764812734
 30
0.0
 11
-182.627878659
 21
107.37764811232
 31
0.0
1001
Sigma
1000
DIM_NORM1
  0
LINE
  5
536
102
{ACAD_REACTORS
330
51D
102
}
330
1F
100
AcDbEntity
  8
KCAD_DIMS
  6
Continuous
 62
     7
370
    30
100
AcDbLine
 10
-182.627878659
 20
106.37764812734
 30
0.0
 11
-168.6278785688999
 21
106.37764812734
 31
0.0
1001
Sigma
1000
DIM_NORM1
  0
POINT
  5
539
102
{ACAD_REACTORS
330
538
102
}
330
1F
100
AcDbEntity
  8
KCAD_DIMS
  6
Continuous
 62
     7
370
    15
100
AcDbPoint
 10
-86.06787342598
 20
160.1955497386599
 30
0.0
1001
Sigma
1000
DIM_NORM1
  0
POINT
  5
53B
102
{ACAD_REACTORS
330
538
102
}
330
1F
100
AcDbEntity
  8
KCAD_DIMS
  6
Continuous
 62
     7
370
    15
100
AcDbPoint
 10
-86.06787342598
 20
142.5026481273399
 30
0.0
1001
Sigma
1000
DIM_NORM1
  0
POINT
  5
53D
102
{ACAD_REACTORS
330
538
102
}
330
1F
100
AcDbEntity
  8
KCAD_DIMS
  6
Continuous
 62
     7
370
    15
100
AcDbPoint
 10
-78.21787495185
 20
142.5026481273399
 30
0.0
1001
Sigma
1000
DIM_NORM1
  0
TEXT
  5
53F
102
{ACAD_REACTORS
330
538
102
}
330
1F
100
AcDbEntity
  8
KCAD_DIMS
  6
Continuous
 62
     7
370
    30
100
AcDbText
 10
-87.8298780779953
 20
161.4755497577325
 30
0.0
 40
2.603520038795471
  1
7.85
  7
KCADDIMSTANDARD
100
AcDbText
1001
Sigma
1000
DIM_NORM1
  0
LINE
  5
541
102
{ACAD_REACTORS
330
538
102
}
330
1F
100
AcDbEntity
  8
KCAD_DIMS
  6
Continuous
 62
     7
370
    30
100
AcDbLine
 10
-86.06787342598
 20
143.50264811232
 30
0.0
 11
-86.06787342598
 21
161.1955497386599
 31
0.0
1001
Sigma
1000
DIM_NORM1
  0
LINE
  5
543
102
{ACAD_REACTORS
330
538
102
}
330
1F
100
AcDbEntity
  8
KCAD_DIMS
  6
Continuous
 62
     7
370
    30
100
AcDbLine
 10
-86.06787342598
 20
160.1955497386599
 30
0.0
 11
-83.06787347103
 21
160.1955497386599
 31
0.0
1001
Sigma
1000
DIM_NORM1
  0
LINE
  5
545
102
{ACAD_REACTORS
330
538
102
}
330
1F
100
AcDbEntity
  8
KCAD_DIMS
  6
Continuous
 62
     7
370
    30
100
AcDbLine
 10
-86.06787342598
 20
160.1955497386599
 30
0.0
 11
-83.06787347103
 21
159.19554975368
 31
0.0
1001
Sigma
1000
DIM_NORM1
  0
LINE
  5
547
102
{ACAD_REACTORS
330
538
102
}
330
1F
100
AcDbEntity
  8
KCAD_DIMS
  6
Continuous
 62
     7
370
    30
100
AcDbLine
 10
-86.06787342598
 20
160.1955497386599
 30
0.0
 11
-83.06787347103
 21
161.19554972365
 31
0.0
1001
Sigma
1000
DIM_NORM1
  0
LINE
  5
549
102
{ACAD_REACTORS
330
538
102
}
330
1F
100
AcDbEntity
  8
KCAD_DIMS
  6
Continuous
 62
     7
370
    30
100
AcDbLine
 10
-78.21787495185
 20
160.1955497386599
 30
0.0
 11
-81.2178749068
 21
160.1955497386599
 31
0.0
1001
Sigma
1000
DIM_NORM1
  0
LINE
  5
54B
102
{ACAD_REACTORS
330
538
102
}
330
1F
100
AcDbEntity
  8
KCAD_DIMS
  6
Continuous
 62
     7
370
    30
100
AcDbLine
 10
-78.21787495185
 20
160.1955497386599
 30
0.0
 11
-81.2178749068
 21
161.19554972365
 31
0.0
1001
Sigma
1000
DIM_NORM1
  0
LINE
  5
54D
102
{ACAD_REACTORS
330
538
102
}
330
1F
100
AcDbEntity
  8
KCAD_DIMS
  6
Continuous
 62
     7
370
    30
100
AcDbLine
 10
-78.21787495185
 20
160.1955497386599
 30
0.0
 11
-81.2178749068
 21
159.19554975368
 31
0.0
1001
Sigma
1000
DIM_NORM1
  0
LINE
  5
54F
102
{ACAD_REACTORS
330
538
102
}
330
1F
100
AcDbEntity
  8
KCAD_DIMS
  6
Continuous
 62
     7
370
    30
100
AcDbLine
 10
-81.2178749068
 20
160.1955497386599
 30
0.0
 11
-83.06787347103
 21
160.1955497386599
 31
0.0
1001
Sigma
1000
DIM_NORM1
  0
LINE
  5
551
330
1F
100
AcDbEntity
  8
0
  6
Continuous
 62
     7
370
    30
100
AcDbLine
 10
-87.34787863232
 20
160.1955536773799
 30
0.0
 11
-90.96222041682
 21
166.45577717168
 31
0.0
1001
Sigma
1000

  0
LINE
  5
553
330
1F
100
AcDbEntity
  8
0
  6
Continuous
 62
     7
370
    30
100
AcDbLine
 10
-90.96222041682
 20
166.45577717168
 30
0.0
 11
-104.2038444953
 21
166.4557731273399
 31
0.0
1001
Sigma
1000

  0
TEXT
  5
555
330
1F
100
AcDbEntity
  8
0
  6
Continuous
 62
     7
370
    30
100
AcDbText
 10
-103.9500691348236
 20
167.7258455143092
 30
0.0
 40
2.603520038795471
  1
2.56
 50
0.1000000000000727
 41
1.334296146220605
  7
KCADTEXTSTANDARD
100
AcDbText
1001
Sigma
1000

  0
POINT
  5
558
102
{ACAD_REACTORS
330
557
102
}
330
1F
100
AcDbEntity
  8
KCAD_DIMS
  6
Continuous
 62
     7
370
    15
100
AcDbPoint
 10
-88.62787098457
 20
160.1955497386599
 30
0.0
1001
Sigma
1000
DIM_NORM1
  0
POINT
  5
55A
102
{ACAD_REACTORS
330
557
102
}
330
1F
100
AcDbEntity
  8
KCAD_DIMS
  6
Continuous
 62
     7
370
    15
100
AcDbPoint
 10
-88.62787098457
 20
141.00264812734
 30
0.0
1001
Sigma
1000
DIM_NORM1
  0
POINT
  5
55C
102
{ACAD_REACTORS
330
557
102
}
330
1F
100
AcDbEntity
  8
KCAD_DIMS
  6
Continuous
 62
     7
370
    15
100
AcDbPoint
 10
-86.06787342598
 20
142.5026481273399
 30
0.0
1001
Sigma
1000
DIM_NORM1
  0
LINE
  5
55E
102
{ACAD_REACTORS
330
557
102
}
330
1F
100
AcDbEntity
  8
KCAD_DIMS
  6
Continuous
 62
     7
370
    30
100
AcDbLine
 10
-88.62787098457
 20
142.0026481123199
 30
0.0
 11
-88.62787098457
 21
161.1955497386599
 31
0.0
1001
Sigma
1000
DIM_NORM1
  0
LINE
  5
560
102
{ACAD_REACTORS
330
557
102
}
330
1F
100
AcDbEntity
  8
KCAD_DIMS
  6
Continuous
 62
     7
370
    30
100
AcDbLine
 10
-86.06787342598
 20
160.1955497386599
 30
0.0
 11
-88.62787098457
 21
160.1955497386599
 31
0.0
1001
Sigma
1000
DIM_NORM1
  0
POINT
  5
563
102
{ACAD_REACTORS
330
562
102
}
330
1F
100
AcDbEntity
  8
KCAD_DIMS
  6
Continuous
 62
     7
370
    15
100
AcDbPoint
 10
-185.627878614
 20
160.1955497386599
 30
0.0
1001
Sigma
1000
DIM_NORM1
  0
POINT
  5
565
102
{ACAD_REACTORS
330
562
102
}
330
1F
100
AcDbEntity
  8
KCAD_DIMS
  6
Continuous
 62
     7
370
    15
100
AcDbPoint
 10
-185.627878614
 20
138.0026481273399
 30
0.0
1001
Sigma
1000
DIM_NORM1
  0
POINT
  5
567
102
{ACAD_REACTORS
330
562
102
}
330
1F
100
AcDbEntity
  8
KCAD_DIMS
  6
Continuous
 62
     7
370
    15
100
AcDbPoint
 10
-131.1278709846
 20
139.5026481273399
 30
0.0
1001
Sigma
1000
DIM_NORM1
  0
TEXT
  5
569
102
{ACAD_REACTORS
330
562
102
}
330
1F
100
AcDbEntity
  8
KCAD_DIMS
  6
Continuous
 62
     7
370
    30
100
AcDbText
 10
-164.0648786883853
 20
161.4755497577325
 30
0.0
 40
2.603520038795471
  1
54.5
  7
KCADDIMSTANDARD
100
AcDbText
1001
Sigma
1000
DIM_NORM1
  0
LINE
  5
56B
102
{ACAD_REACTORS
330
562
102
}
330
1F
100
AcDbEntity
  8
KCAD_DIMS
  6
Continuous
 62
     7
370
    30
100
AcDbLine
 10
-185.627878614
 20
160.1955497386599
 30
0.0
 11
-182.627878659
 21
160.1955497386599
 31
0.0
1001
Sigma
1000
DIM_NORM1
  0
LINE
  5
56D
102
{ACAD_REACTORS
330
562
102
}
330
1F
100
AcDbEntity
  8
KCAD_DIMS
  6
Continuous
 62
     7
370
    30
100
AcDbLine
 10
-185.627878614
 20
160.1955497386599
 30
0.0
 11
-182.627878659
 21
159.19554975368
 31
0.0
1001
Sigma
1000
DIM_NORM1
  0
LINE
  5
56F
102
{ACAD_REACTORS
330
562
102
}
330
1F
100
AcDbEntity
  8
KCAD_DIMS
  6
Continuous
 62
     7
370
    30
100
AcDbLine
 10
-185.627878614
 20
160.1955497386599
 30
0.0
 11
-182.627878659
 21
161.19554972365
 31
0.0
1001
Sigma
1000
DIM_NORM1
  0
LINE
  5
571
102
{ACAD_REACTORS
330
562
102
}
330
1F
100
AcDbEntity
  8
KCAD_DIMS
  6
Continuous
 62
     7
370
    30
100
AcDbLine
 10
-131.1278709846
 20
160.1955497386599
 30
0.0
 11
-134.1278709395
 21
160.1955497386599
 31
0.0
1001
Sigma
1000
DIM_NORM1
  0
LINE
  5
573
102
{ACAD_REACTORS
330
562
102
}
330
1F
100
AcDbEntity
  8
KCAD_DIMS
  6
Continuous
 62
     7
370
    30
100
AcDbLine
 10
-131.1278709846
 20
160.1955497386599
 30
0.0
 11
-134.1278709395
 21
161.19554972365
 31
0.0
1001
Sigma
1000
DIM_NORM1
  0
LINE
  5
575
102
{ACAD_REACTORS
330
562
102
}
330
1F
100
AcDbEntity
  8
KCAD_DIMS
  6
Continuous
 62
     7
370
    30
100
AcDbLine
 10
-131.1278709846
 20
160.1955497386599
 30
0.0
 11
-134.1278709395
 21
159.19554975368
 31
0.0
1001
Sigma
1000
DIM_NORM1
  0
LINE
  5
577
102
{ACAD_REACTORS
330
562
102
}
330
1F
100
AcDbEntity
  8
KCAD_DIMS
  6
Continuous
 62
     7
370
    30
100
AcDbLine
 10
-134.1278709395
 20
160.1955497386599
 30
0.0
 11
-182.627878659
 21
160.1955497386599
 31
0.0
1001
Sigma
1000
DIM_NORM1
  0
POINT
  5
57A
102
{ACAD_REACTORS
330
579
102
}
330
1F
100
AcDbEntity
  8
KCAD_DIMS
  6
Continuous
 62
     7
370
    15
100
AcDbPoint
 10
-131.1278709846
 20
160.1955497386599
 30
0.0
1001
Sigma
1000
DIM_NORM1
  0
POINT
  5
57C
102
{ACAD_REACTORS
330
579
102
}
330
1F
100
AcDbEntity
  8
KCAD_DIMS
  6
Continuous
 62
     7
370
    15
100
AcDbPoint
 10
-131.1278709846
 20
139.5026481273399
 30
0.0
1001
Sigma
1000
DIM_NORM1
  0
POINT
  5
57E
102
{ACAD_REACTORS
330
579
102
}
330
1F
100
AcDbEntity
  8
KCAD_DIMS
  6
Continuous
 62
     7
370
    15
100
AcDbPoint
 10
-88.62787098457
 20
141.00264812734
 30
0.0
1001
Sigma
1000
DIM_NORM1
  0
TEXT
  5
580
102
{ACAD_REACTORS
330
579
102
}
330
1F
100
AcDbEntity
  8
KCAD_DIMS
  6
Continuous
 62
     7
370
    30
100
AcDbText
 10
-115.5648710589852
 20
161.4755497577325
 30
0.0
 40
2.603520038795471
  1
42.5
  7
KCADDIMSTANDARD
100
AcDbText
1001
Sigma
1000
DIM_NORM1
  0
LINE
  5
582
102
{ACAD_REACTORS
330
579
102
}
330
1F
100
AcDbEntity
  8
KCAD_DIMS
  6
Continuous
 62
     7
370
    30
100
AcDbLine
 10
-131.1278709846
 20
140.50264811232
 30
0.0
 11
-131.1278709846
 21
161.1955497386599
 31
0.0
1001
Sigma
1000
DIM_NORM1
  0
LINE
  5
584
102
{ACAD_REACTORS
330
579
102
}
330
1F
100
AcDbEntity
  8
KCAD_DIMS
  6
Continuous
 62
     7
370
    30
100
AcDbLine
 10
-131.1278709846
 20
160.1955497386599
 30
0.0
 11
-128.1278710295999
 21
160.1955497386599
 31
0.0
1001
Sigma
1000
DIM_NORM1
  0
LINE
  5
586
102
{ACAD_REACTORS
330
579
102
}
330
1F
100
AcDbEntity
  8
KCAD_DIMS
  6
Continuous
 62
     7
370
    30
100
AcDbLine
 10
-131.1278709846
 20
160.1955497386599
 30
0.0
 11
-128.1278710295999
 21
159.19554975368
 31
0.0
1001
Sigma
1000
DIM_NORM1
  0
LINE
  5
588
102
{ACAD_REACTORS
330
579
102
}
330
1F
100
AcDbEntity
  8
KCAD_DIMS
  6
Continuous
 62
     7
370
    30
100
AcDbLine
 10
-131.1278709846
 20
160.1955497386599
 30
0.0
 11
-128.1278710295999
 21
161.19554972365
 31
0.0
1001
Sigma
1000
DIM_NORM1
  0
LINE
  5
58A
102
{ACAD_REACTORS
330
579
102
}
330
1F
100
AcDbEntity
  8
KCAD_DIMS
  6
Continuous
 62
     7
370
    30
100
AcDbLine
 10
-88.62787098457
 20
160.1955497386599
 30
0.0
 11
-91.62787093951
 21
160.1955497386599
 31
0.0
1001
Sigma
1000
DIM_NORM1
  0
LINE
  5
58C
102
{ACAD_REACTORS
330
579
102
}
330
1F
100
AcDbEntity
  8
KCAD_DIMS
  6
Continuous
 62
     7
370
    30
100
AcDbLine
 10
-88.62787098457
 20
160.1955497386599
 30
0.0
 11
-91.62787093951
 21
161.19554972365
 31
0.0
1001
Sigma
1000
DIM_NORM1
  0
LINE
  5
58E
102
{ACAD_REACTORS
330
579
102
}
330
1F
100
AcDbEntity
  8
KCAD_DIMS
  6
Continuous
 62
     7
370
    30
100
AcDbLine
 10
-88.62787098457
 20
160.1955497386599
 30
0.0
 11
-91.62787093951
 21
159.19554975368
 31
0.0
1001
Sigma
1000
DIM_NORM1
  0
LINE
  5
590
102
{ACAD_REACTORS
330
579
102
}
330
1F
100
AcDbEntity
  8
KCAD_DIMS
  6
Continuous
 62
     7
370
    30
100
AcDbLine
 10
-91.62787093951
 20
160.1955497386599
 30
0.0
 11
-128.1278710295999
 21
160.1955497386599
 31
0.0
1001
Sigma
1000
DIM_NORM1
  0
LINE
  5
593
102
{ACAD_REACTORS
330
592
102
}
330
1F
100
AcDbEntity
  8
0
  6
Continuous
 62
     7
370
    30
100
AcDbLine
 10
-54.49787314876999
 20
160.1276443926799
 30
0.0
 11
-28.3948733287
 21
160.1276443926799
 31
0.0
1001
Sigma
1000

  0
LINE
  5
595
102
{ACAD_REACTORS
330
592
102
}
330
1F
100
AcDbEntity
  8
0
  6
Continuous
 62
     7
370
    30
100
AcDbLine
 10
-60.49281157092
 20
129.9834436683399
 30
0.0
 11
-54.49787314876999
 21
160.1276443926799
 31
0.0
1001
Sigma
1000

  0
TEXT
  5
597
102
{ACAD_REACTORS
330
592
102
}
330
1F
100
AcDbEntity
  8
0
  6
Continuous
 62
     7
370
    30
100
AcDbText
 10
-51.4528736930053
 20
161.4076481464125
 30
0.0
 40
2.603520038795471
  1
1/2"CCD
 41
1.080261851320532
  7
KCADTEXTSTANDARD
100
AcDbText
1001
Sigma
1000

  0
LINE
  5
599
102
{ACAD_REACTORS
330
592
102
}
330
1F
100
AcDbEntity
  8
0
  6
Continuous
 62
     7
370
    30
100
AcDbLine
 10
-60.49281157092
 20
129.9834436683399
 30
0.0
 11
-58.92685317979999
 21
132.73076491219
 31
0.0
1001
Sigma
1000

  0
LINE
  5
59B
102
{ACAD_REACTORS
330
592
102
}
330
1F
100
AcDbEntity
  8
0
  6
Continuous
 62
     7
370
    30
100
AcDbLine
 10
-60.49281157092
 20
129.9834436683399
 30
0.0
 11
-60.88843760433
 21
133.12087569809
 31
0.0
1001
Sigma
1000

  0
LINE
  5
59D
102
{ACAD_REACTORS
330
592
102
}
330
1F
100
AcDbEntity
  8
0
  6
Continuous
 62
     7
370
    30
100
AcDbLine
 10
-60.49281157092
 20
129.9834436683399
 30
0.0
 11
-54.49787314876999
 21
160.1276443926799
 31
0.0
1001
Sigma
1000

  0
POINT
  5
5A0
102
{ACAD_REACTORS
330
59F
102
}
330
1F
100
AcDbEntity
  8
KCAD_DIMS
  6
Continuous
 62
     7
370
    15
100
AcDbPoint
 10
-78.21787495185
 20
160.1955497386599
 30
0.0
1001
Sigma
1000
DIM_NORM1
  0
POINT
  5
5A2
102
{ACAD_REACTORS
330
59F
102
}
330
1F
100
AcDbEntity
  8
KCAD_DIMS
  6
Continuous
 62
     7
370
    15
100
AcDbPoint
 10
-78.21787495185
 20
142.5026481273399
 30
0.0
1001
Sigma
1000
DIM_NORM1
  0
POINT
  5
5A4
102
{ACAD_REACTORS
330
59F
102
}
330
1F
100
AcDbEntity
  8
KCAD_DIMS
  6
Continuous
 62
     7
370
    15
100
AcDbPoint
 10
-74.21787495185998
 20
141.2026450755799
 30
0.0
1001
Sigma
1000
DIM_NORM1
  0
TEXT
  5
5A6
102
{ACAD_REACTORS
330
59F
102
}
330
1F
100
AcDbEntity
  8
KCAD_DIMS
  6
Continuous
 62
     7
370
    30
100
AcDbText
 10
-70.35096870471531
 20
161.4755497577325
 30
0.0
 40
2.603520038795471
  1
4
  7
KCADDIMSTANDARD
100
AcDbText
1001
Sigma
1000
DIM_NORM1
  0
LINE
  5
5A8
102
{ACAD_REACTORS
330
59F
102
}
330
1F
100
AcDbEntity
  8
KCAD_DIMS
  6
Continuous
 62
     7
370
    30
100
AcDbLine
 10
-74.21787495185998
 20
142.2026450605599
 30
0.0
 11
-74.21787495185998
 21
161.1955497386599
 31
0.0
1001
Sigma
1000
DIM_NORM1
  0
LINE
  5
5AA
102
{ACAD_REACTORS
330
59F
102
}
330
1F
100
AcDbEntity
  8
KCAD_DIMS
  6
Continuous
 62
     7
370
    30
100
AcDbLine
 10
-71.21787499691
 20
160.1955497386599
 30
0.0
 11
-67.86787504722
 21
160.1955497386599
 31
0.0
1001
Sigma
1000
DIM_NORM1
  0
LINE
  5
5AC
102
{ACAD_REACTORS
330
59F
102
}
330
1F
100
AcDbEntity
  8
KCAD_DIMS
  6
Continuous
 62
     7
370
    30
100
AcDbLine
 10
-74.21787495185998
 20
160.1955497386599
 30
0.0
 11
-71.21787499691
 21
160.1955497386599
 31
0.0
1001
Sigma
1000
DIM_NORM1
  0
LINE
  5
5AE
102
{ACAD_REACTORS
330
59F
102
}
330
1F
100
AcDbEntity
  8
KCAD_DIMS
  6
Continuous
 62
     7
370
    30
100
AcDbLine
 10
-74.21787495185998
 20
160.1955497386599
 30
0.0
 11
-71.21787499691
 21
159.19554975368
 31
0.0
1001
Sigma
1000
DIM_NORM1
  0
LINE
  5
5B0
102
{ACAD_REACTORS
330
59F
102
}
330
1F
100
AcDbEntity
  8
KCAD_DIMS
  6
Continuous
 62
     7
370
    30
100
AcDbLine
 10
-74.21787495185998
 20
160.1955497386599
 30
0.0
 11
-71.21787499691
 21
161.19554972365
 31
0.0
1001
Sigma
1000
DIM_NORM1
  0
LINE
  5
5B2
102
{ACAD_REACTORS
330
59F
102
}
330
1F
100
AcDbEntity
  8
KCAD_DIMS
  6
Continuous
 62
     7
370
    30
100
AcDbLine
 10
-74.21787495185998
 20
160.1955497386599
 30
0.0
 11
-78.21787495185
 21
160.1955497386599
 31
0.0
1001
Sigma
1000
DIM_NORM1
  0
LINE
  5
5B4
102
{ACAD_REACTORS
330
59F
102
}
330
1F
100
AcDbEntity
  8
KCAD_DIMS
  6
Continuous
 62
     7
370
    30
100
AcDbLine
 10
-74.21787495185998
 20
160.1955497386599
 30
0.0
 11
-68.32097096016
 21
160.1955497386599
 31
0.0
1001
Sigma
1000
DIM_NORM1
  0
LINE
  5
5B7
102
{ACAD_REACTORS
330
5B6
102
}
330
1F
100
AcDbEntity
  8
0
  6
Continuous
 62
     7
370
    30
100
AcDbLine
 10
-231.1228744345999
 20
161.62763856746
 30
0.0
 11
-274.5519751231999
 21
161.62763856746
 31
0.0
1001
Sigma
1000

  0
LINE
  5
5B9
102
{ACAD_REACTORS
330
5B6
102
}
330
1F
100
AcDbEntity
  8
0
  6
Continuous
 62
     7
370
    30
100
AcDbLine
 10
-222.0240544419
 20
129.9637462888499
 30
0.0
 11
-231.1228744345999
 21
161.62763856746
 31
0.0
1001
Sigma
1000

  0
TEXT
  5
5BB
102
{ACAD_REACTORS
330
5B6
102
}
330
1F
100
AcDbEntity
  8
0
  6
Continuous
 62
     7
370
    30
100
AcDbText
 10
-272.9378743486157
 20
162.5876481416441
 30
0.0
 40
2.880000042915344
  1
６×８～１．０２×１．３６
 41
0.5609283941100777
  7
KCADTEXTSTANDARD
100
AcDbText
1001
Sigma
1000

  0
LINE
  5
5BD
102
{ACAD_REACTORS
330
5B6
102
}
330
1F
100
AcDbEntity
  8
0
  6
Continuous
 62
     7
370
    30
100
AcDbLine
 10
-222.0240544419
 20
129.9637462888499
 30
0.0
 11
-221.8914881382
 21
133.1232440139299
 31
0.0
1001
Sigma
1000

  0
LINE
  5
5BF
102
{ACAD_REACTORS
330
5B6
102
}
330
1F
100
AcDbEntity
  8
0
  6
Continuous
 62
     7
370
    30
100
AcDbLine
 10
-222.0240544419
 20
129.9637462888499
 30
0.0
 11
-223.813700034
 21
132.57088425115
 31
0.0
1001
Sigma
1000

  0
LINE
  5
5C1
102
{ACAD_REACTORS
330
5B6
102
}
330
1F
100
AcDbEntity
  8
0
  6
Continuous
 62
     7
370
    30
100
AcDbLine
 10
-222.0240544419
 20
129.9637462888499
 30
0.0
 11
-231.1228744345999
 21
161.62763856746
 31
0.0
1001
Sigma
1000

  0
POINT
  5
5C4
102
{ACAD_REACTORS
330
5C3
102
}
330
1F
100
AcDbEntity
  8
KCAD_DIMS
  6
Continuous
 62
     7
370
    15
100
AcDbPoint
 10
-198.7989185432
 20
120.00264812734
 30
0.0
1001
Sigma
1000
DIM_NORM1
  0
POINT
  5
5C6
102
{ACAD_REACTORS
330
5C3
102
}
330
1F
100
AcDbEntity
  8
KCAD_DIMS
  6
Continuous
 62
     7
370
    15
100
AcDbPoint
 10
-185.1278786139999
 20
120.00264812734
 30
0.0
1001
Sigma
1000
DIM_NORM1
  0
POINT
  5
5C8
102
{ACAD_REACTORS
330
5C3
102
}
330
1F
100
AcDbEntity
  8
KCAD_DIMS
  6
Continuous
 62
     7
370
    15
100
AcDbPoint
 10
-185.1278786139999
 20
138.0026481273399
 30
0.0
1001
Sigma
1000
DIM_NORM1
  0
TEXT
  5
5CA
102
{ACAD_REACTORS
330
5C3
102
}
330
1F
100
AcDbEntity
  8
KCAD_DIMS
  6
Continuous
 62
     7
370
    30
100
AcDbText
 10
-200.0789185622525
 20
124.3625314101246
 30
0.0
 40
2.603520038795471
  1
%%c18
 50
90.0
  7
KCADDIMSTANDARD
100
AcDbText
1001
Sigma
1000
DIM_NORM1
  0
LINE
  5
5CC
102
{ACAD_REACTORS
330
5C3
102
}
330
1F
100
AcDbEntity
  8
KCAD_DIMS
  6
Continuous
 62
     7
370
    30
100
AcDbLine
 10
-186.1278785989
 20
120.00264812734
 30
0.0
 11
-199.7989185431999
 21
120.00264812734
 31
0.0
1001
Sigma
1000
DIM_NORM1
  0
LINE
  5
5CE
102
{ACAD_REACTORS
330
5C3
102
}
330
1F
100
AcDbEntity
  8
KCAD_DIMS
  6
Continuous
 62
     7
370
    30
100
AcDbLine
 10
-186.1278785989
 20
138.0026481273399
 30
0.0
 11
-199.7989185431999
 21
138.0026481273399
 31
0.0
1001
Sigma
1000
DIM_NORM1
  0
LINE
  5
5D0
102
{ACAD_REACTORS
330
5C3
102
}
330
1F
100
AcDbEntity
  8
KCAD_DIMS
  6
Continuous
 62
     7
370
    30
100
AcDbLine
 10
-198.7989185432
 20
120.00264812734
 30
0.0
 11
-198.7989185432
 21
123.00264808228
 31
0.0
1001
Sigma
1000
DIM_NORM1
  0
LINE
  5
5D2
102
{ACAD_REACTORS
330
5C3
102
}
330
1F
100
AcDbEntity
  8
KCAD_DIMS
  6
Continuous
 62
     7
370
    30
100
AcDbLine
 10
-198.7989185432
 20
120.00264812734
 30
0.0
 11
-197.7989185582
 21
123.00264808228
 31
0.0
1001
Sigma
1000
DIM_NORM1
  0
LINE
  5
5D4
102
{ACAD_REACTORS
330
5C3
102
}
330
1F
100
AcDbEntity
  8
KCAD_DIMS
  6
Continuous
 62
     7
370
    30
100
AcDbLine
 10
-198.7989185432
 20
120.00264812734
 30
0.0
 11
-199.7989185280999
 21
123.00264808228
 31
0.0
1001
Sigma
1000
DIM_NORM1
  0
LINE
  5
5D6
102
{ACAD_REACTORS
330
5C3
102
}
330
1F
100
AcDbEntity
  8
KCAD_DIMS
  6
Continuous
 62
     7
370
    30
100
AcDbLine
 10
-198.7989185432
 20
138.0026481273399
 30
0.0
 11
-198.7989185432
 21
135.00264817239
 31
0.0
1001
Sigma
1000
DIM_NORM1
  0
LINE
  5
5D8
102
{ACAD_REACTORS
330
5C3
102
}
330
1F
100
AcDbEntity
  8
KCAD_DIMS
  6
Continuous
 62
     7
370
    30
100
AcDbLine
 10
-198.7989185432
 20
138.0026481273399
 30
0.0
 11
-199.7989185280999
 21
135.00264817239
 31
0.0
1001
Sigma
1000
DIM_NORM1
  0
LINE
  5
5DA
102
{ACAD_REACTORS
330
5C3
102
}
330
1F
100
AcDbEntity
  8
KCAD_DIMS
  6
Continuous
 62
     7
370
    30
100
AcDbLine
 10
-198.7989185432
 20
138.0026481273399
 30
0.0
 11
-197.7989185582
 21
135.00264817239
 31
0.0
1001
Sigma
1000
DIM_NORM1
  0
LINE
  5
5DC
102
{ACAD_REACTORS
330
5C3
102
}
330
1F
100
AcDbEntity
  8
KCAD_DIMS
  6
Continuous
 62
     7
370
    30
100
AcDbLine
 10
-198.7989185432
 20
135.00264817239
 30
0.0
 11
-198.7989185432
 21
123.00264808228
 31
0.0
1001
Sigma
1000
DIM_NORM1
  0
POINT
  5
5DF
102
{ACAD_REACTORS
330
5DE
102
}
330
1F
100
AcDbEntity
  8
KCAD_DIMS
  6
Continuous
 62
     7
370
    15
100
AcDbPoint
 10
-205.3182518764999
 20
119.5026481273399
 30
0.0
1001
Sigma
1000
DIM_NORM1
  0
POINT
  5
5E1
102
{ACAD_REACTORS
330
5DE
102
}
330
1F
100
AcDbEntity
  8
KCAD_DIMS
  6
Continuous
 62
     7
370
    15
100
AcDbPoint
 10
-165.1278786139999
 20
119.5026481273399
 30
0.0
1001
Sigma
1000
DIM_NORM1
  0
POINT
  5
5E3
102
{ACAD_REACTORS
330
5DE
102
}
330
1F
100
AcDbEntity
  8
KCAD_DIMS
  6
Continuous
 62
     7
370
    15
100
AcDbPoint
 10
-165.1278786139999
 20
138.5026481273399
 30
0.0
1001
Sigma
1000
DIM_NORM1
  0
TEXT
  5
5E5
102
{ACAD_REACTORS
330
5DE
102
}
330
1F
100
AcDbEntity
  8
KCAD_DIMS
  6
Continuous
 62
     7
370
    30
100
AcDbText
 10
-206.5982518955525
 20
124.3625314101246
 30
0.0
 40
2.603520038795471
  1
%%c19
 50
90.0
  7
KCADDIMSTANDARD
100
AcDbText
1001
Sigma
1000
DIM_NORM1
  0
LINE
  5
5E7
102
{ACAD_REACTORS
330
5DE
102
}
330
1F
100
AcDbEntity
  8
KCAD_DIMS
  6
Continuous
 62
     7
370
    30
100
AcDbLine
 10
-166.1278785988999
 20
119.5026481273399
 30
0.0
 11
-206.3182518765
 21
119.5026481273399
 31
0.0
1001
Sigma
1000
DIM_NORM1
  0
LINE
  5
5E9
102
{ACAD_REACTORS
330
5DE
102
}
330
1F
100
AcDbEntity
  8
KCAD_DIMS
  6
Continuous
 62
     7
370
    30
100
AcDbLine
 10
-166.1278785988999
 20
138.5026481273399
 30
0.0
 11
-206.3182518765
 21
138.5026481273399
 31
0.0
1001
Sigma
1000
DIM_NORM1
  0
LINE
  5
5EB
102
{ACAD_REACTORS
330
5DE
102
}
330
1F
100
AcDbEntity
  8
KCAD_DIMS
  6
Continuous
 62
     7
370
    30
100
AcDbLine
 10
-205.3182518764999
 20
119.5026481273399
 30
0.0
 11
-205.3182518764999
 21
122.5026480822799
 31
0.0
1001
Sigma
1000
DIM_NORM1
  0
LINE
  5
5ED
102
{ACAD_REACTORS
330
5DE
102
}
330
1F
100
AcDbEntity
  8
KCAD_DIMS
  6
Continuous
 62
     7
370
    30
100
AcDbLine
 10
-205.3182518764999
 20
119.5026481273399
 30
0.0
 11
-204.3182518915
 21
122.5026480822799
 31
0.0
1001
Sigma
1000
DIM_NORM1
  0
LINE
  5
5EF
102
{ACAD_REACTORS
330
5DE
102
}
330
1F
100
AcDbEntity
  8
KCAD_DIMS
  6
Continuous
 62
     7
370
    30
100
AcDbLine
 10
-205.3182518764999
 20
119.5026481273399
 30
0.0
 11
-206.3182518615
 21
122.5026480822799
 31
0.0
1001
Sigma
1000
DIM_NORM1
  0
LINE
  5
5F1
102
{ACAD_REACTORS
330
5DE
102
}
330
1F
100
AcDbEntity
  8
KCAD_DIMS
  6
Continuous
 62
     7
370
    30
100
AcDbLine
 10
-205.3182518764999
 20
138.5026481273399
 30
0.0
 11
-205.3182518764999
 21
135.5026481723899
 31
0.0
1001
Sigma
1000
DIM_NORM1
  0
LINE
  5
5F3
102
{ACAD_REACTORS
330
5DE
102
}
330
1F
100
AcDbEntity
  8
KCAD_DIMS
  6
Continuous
 62
     7
370
    30
100
AcDbLine
 10
-205.3182518764999
 20
138.5026481273399
 30
0.0
 11
-206.3182518615
 21
135.5026481723899
 31
0.0
1001
Sigma
1000
DIM_NORM1
  0
LINE
  5
5F5
102
{ACAD_REACTORS
330
5DE
102
}
330
1F
100
AcDbEntity
  8
KCAD_DIMS
  6
Continuous
 62
     7
370
    30
100
AcDbLine
 10
-205.3182518764999
 20
138.5026481273399
 30
0.0
 11
-204.3182518915
 21
135.5026481723899
 31
0.0
1001
Sigma
1000
DIM_NORM1
  0
LINE
  5
5F7
102
{ACAD_REACTORS
330
5DE
102
}
330
1F
100
AcDbEntity
  8
KCAD_DIMS
  6
Continuous
 62
     7
370
    30
100
AcDbLine
 10
-205.3182518764999
 20
135.5026481723899
 30
0.0
 11
-205.3182518764999
 21
122.5026480822799
 31
0.0
1001
Sigma
1000
DIM_NORM1
  0
POINT
  5
5FA
102
{ACAD_REACTORS
330
5F9
102
}
330
1F
100
AcDbEntity
  8
KCAD_DIMS
  6
Continuous
 62
     7
370
    15
100
AcDbPoint
 10
-211.5116185431999
 20
118.00264812734
 30
0.0
1001
Sigma
1000
DIM_NORM1
  0
POINT
  5
5FC
102
{ACAD_REACTORS
330
5F9
102
}
330
1F
100
AcDbEntity
  8
KCAD_DIMS
  6
Continuous
 62
     7
370
    15
100
AcDbPoint
 10
-130.6278709846
 20
118.00264812734
 30
0.0
1001
Sigma
1000
DIM_NORM1
  0
POINT
  5
5FE
102
{ACAD_REACTORS
330
5F9
102
}
330
1F
100
AcDbEntity
  8
KCAD_DIMS
  6
Continuous
 62
     7
370
    15
100
AcDbPoint
 10
-130.6278709846
 20
140.00264812734
 30
0.0
1001
Sigma
1000
DIM_NORM1
  0
TEXT
  5
600
102
{ACAD_REACTORS
330
5F9
102
}
330
1F
100
AcDbEntity
  8
KCAD_DIMS
  6
Continuous
 62
     7
370
    30
100
AcDbText
 10
-212.7916185622525
 20
124.5255147434646
 30
0.0
 40
2.603520038795471
  1
%%c22
 50
90.0
  7
KCADDIMSTANDARD
100
AcDbText
1001
Sigma
1000
DIM_NORM1
  0
LINE
  5
602
102
{ACAD_REACTORS
330
5F9
102
}
330
1F
100
AcDbEntity
  8
KCAD_DIMS
  6
Continuous
 62
     7
370
    30
100
AcDbLine
 10
-131.6278709696
 20
118.00264812734
 30
0.0
 11
-212.5116185432
 21
118.00264812734
 31
0.0
1001
Sigma
1000
DIM_NORM1
  0
LINE
  5
604
102
{ACAD_REACTORS
330
5F9
102
}
330
1F
100
AcDbEntity
  8
KCAD_DIMS
  6
Continuous
 62
     7
370
    30
100
AcDbLine
 10
-131.6278709696
 20
140.00264812734
 30
0.0
 11
-212.5116185432
 21
140.00264812734
 31
0.0
1001
Sigma
1000
DIM_NORM1
  0
LINE
  5
606
102
{ACAD_REACTORS
330
5F9
102
}
330
1F
100
AcDbEntity
  8
KCAD_DIMS
  6
Continuous
 62
     7
370
    30
100
AcDbLine
 10
-211.5116185431999
 20
118.00264812734
 30
0.0
 11
-211.5116185431999
 21
121.00264808228
 31
0.0
1001
Sigma
1000
DIM_NORM1
  0
LINE
  5
608
102
{ACAD_REACTORS
330
5F9
102
}
330
1F
100
AcDbEntity
  8
KCAD_DIMS
  6
Continuous
 62
     7
370
    30
100
AcDbLine
 10
-211.5116185431999
 20
118.00264812734
 30
0.0
 11
-210.5116185582
 21
121.00264808228
 31
0.0
1001
Sigma
1000
DIM_NORM1
  0
LINE
  5
60A
102
{ACAD_REACTORS
330
5F9
102
}
330
1F
100
AcDbEntity
  8
KCAD_DIMS
  6
Continuous
 62
     7
370
    30
100
AcDbLine
 10
-211.5116185431999
 20
118.00264812734
 30
0.0
 11
-212.5116185281
 21
121.00264808228
 31
0.0
1001
Sigma
1000
DIM_NORM1
  0
LINE
  5
60C
102
{ACAD_REACTORS
330
5F9
102
}
330
1F
100
AcDbEntity
  8
KCAD_DIMS
  6
Continuous
 62
     7
370
    30
100
AcDbLine
 10
-211.5116185431999
 20
140.00264812734
 30
0.0
 11
-211.5116185431999
 21
137.00264817239
 31
0.0
1001
Sigma
1000
DIM_NORM1
  0
LINE
  5
60E
102
{ACAD_REACTORS
330
5F9
102
}
330
1F
100
AcDbEntity
  8
KCAD_DIMS
  6
Continuous
 62
     7
370
    30
100
AcDbLine
 10
-211.5116185431999
 20
140.00264812734
 30
0.0
 11
-212.5116185281
 21
137.00264817239
 31
0.0
1001
Sigma
1000
DIM_NORM1
  0
LINE
  5
610
102
{ACAD_REACTORS
330
5F9
102
}
330
1F
100
AcDbEntity
  8
KCAD_DIMS
  6
Continuous
 62
     7
370
    30
100
AcDbLine
 10
-211.5116185431999
 20
140.00264812734
 30
0.0
 11
-210.5116185582
 21
137.00264817239
 31
0.0
1001
Sigma
1000
DIM_NORM1
  0
LINE
  5
612
102
{ACAD_REACTORS
330
5F9
102
}
330
1F
100
AcDbEntity
  8
KCAD_DIMS
  6
Continuous
 62
     7
370
    30
100
AcDbLine
 10
-211.5116185431999
 20
137.00264817239
 30
0.0
 11
-211.5116185431999
 21
121.00264808228
 31
0.0
1001
Sigma
1000
DIM_NORM1
  0
POINT
  5
615
102
{ACAD_REACTORS
330
614
102
}
330
1F
100
AcDbEntity
  8
KCAD_DIMS
  6
Continuous
 62
     7
370
    15
100
AcDbPoint
 10
-192.2795852097999
 20
121.00264812734
 30
0.0
1001
Sigma
1000
DIM_NORM1
  0
POINT
  5
617
102
{ACAD_REACTORS
330
614
102
}
330
1F
100
AcDbEntity
  8
KCAD_DIMS
  6
Continuous
 62
     7
370
    15
100
AcDbPoint
 10
-185.627878614
 20
121.00264812734
 30
0.0
1001
Sigma
1000
DIM_NORM1
  0
POINT
  5
619
102
{ACAD_REACTORS
330
614
102
}
330
1F
100
AcDbEntity
  8
KCAD_DIMS
  6
Continuous
 62
     7
370
    15
100
AcDbPoint
 10
-185.627878614
 20
137.0026481273399
 30
0.0
1001
Sigma
1000
DIM_NORM1
  0
TEXT
  5
61B
102
{ACAD_REACTORS
330
614
102
}
330
1F
100
AcDbEntity
  8
KCAD_DIMS
  6
Continuous
 62
     7
370
    30
100
AcDbText
 10
-193.5595852288525
 20
92.24099816620169
 30
0.0
 40
2.603520038795471
  1
M16 P0.5
 50
90.0
  7
KCADDIMSTANDARD
100
AcDbText
1001
Sigma
1000
DIM_NORM1
  0
LINE
  5
61D
102
{ACAD_REACTORS
330
614
102
}
330
1F
100
AcDbEntity
  8
KCAD_DIMS
  6
Continuous
 62
     7
370
    30
100
AcDbLine
 10
-186.6278785988999
 20
121.00264812734
 30
0.0
 11
-193.2795852097999
 21
121.00264812734
 31
0.0
1001
Sigma
1000
DIM_NORM1
  0
LINE
  5
61F
102
{ACAD_REACTORS
330
614
102
}
330
1F
100
AcDbEntity
  8
KCAD_DIMS
  6
Continuous
 62
     7
370
    30
100
AcDbLine
 10
-186.6278785988999
 20
137.0026481273399
 30
0.0
 11
-193.2795852097999
 21
137.0026481273399
 31
0.0
1001
Sigma
1000
DIM_NORM1
  0
LINE
  5
621
102
{ACAD_REACTORS
330
614
102
}
330
1F
100
AcDbEntity
  8
KCAD_DIMS
  6
Continuous
 62
     7
370
    30
100
AcDbLine
 10
-192.2795852097999
 20
121.00264812734
 30
0.0
 11
-192.2795852097999
 21
124.00264808228
 31
0.0
1001
Sigma
1000
DIM_NORM1
  0
LINE
  5
623
102
{ACAD_REACTORS
330
614
102
}
330
1F
100
AcDbEntity
  8
KCAD_DIMS
  6
Continuous
 62
     7
370
    30
100
AcDbLine
 10
-192.2795852097999
 20
121.00264812734
 30
0.0
 11
-191.2795852248
 21
124.00264808228
 31
0.0
1001
Sigma
1000
DIM_NORM1
  0
LINE
  5
625
102
{ACAD_REACTORS
330
614
102
}
330
1F
100
AcDbEntity
  8
KCAD_DIMS
  6
Continuous
 62
     7
370
    30
100
AcDbLine
 10
-192.2795852097999
 20
121.00264812734
 30
0.0
 11
-193.2795851948
 21
124.00264808228
 31
0.0
1001
Sigma
1000
DIM_NORM1
  0
LINE
  5
627
102
{ACAD_REACTORS
330
614
102
}
330
1F
100
AcDbEntity
  8
KCAD_DIMS
  6
Continuous
 62
     7
370
    30
100
AcDbLine
 10
-192.2795852097999
 20
137.0026481273399
 30
0.0
 11
-192.2795852097999
 21
134.00264817239
 31
0.0
1001
Sigma
1000
DIM_NORM1
  0
LINE
  5
629
102
{ACAD_REACTORS
330
614
102
}
330
1F
100
AcDbEntity
  8
KCAD_DIMS
  6
Continuous
 62
     7
370
    30
100
AcDbLine
 10
-192.2795852097999
 20
137.0026481273399
 30
0.0
 11
-193.2795851948
 21
134.00264817239
 31
0.0
1001
Sigma
1000
DIM_NORM1
  0
LINE
  5
62B
102
{ACAD_REACTORS
330
614
102
}
330
1F
100
AcDbEntity
  8
KCAD_DIMS
  6
Continuous
 62
     7
370
    30
100
AcDbLine
 10
-192.2795852097999
 20
137.0026481273399
 30
0.0
 11
-191.2795852248
 21
134.00264817239
 31
0.0
1001
Sigma
1000
DIM_NORM1
  0
LINE
  5
62D
102
{ACAD_REACTORS
330
614
102
}
330
1F
100
AcDbEntity
  8
KCAD_DIMS
  6
Continuous
 62
     7
370
    30
100
AcDbLine
 10
-192.2795852097999
 20
134.00264817239
 30
0.0
 11
-192.2795852097999
 21
124.00264808228
 31
0.0
1001
Sigma
1000
DIM_NORM1
  0
LINE
  5
62F
102
{ACAD_REACTORS
330
614
102
}
330
1F
100
AcDbEntity
  8
KCAD_DIMS
  6
Continuous
 62
     7
370
    30
100
AcDbLine
 10
-192.2795852097999
 20
121.00264812734
 30
0.0
 11
-192.2795852097999
 21
91.98499816238699
 31
0.0
1001
Sigma
1000
DIM_NORM1
  0
LINE
  5
632
102
{ACAD_REACTORS
330
631
102
}
330
1F
100
AcDbEntity
  8
0
  6
Continuous
 62
     7
370
    30
100
AcDbLine
 10
-131.8018718380999
 20
105.68572885222
 30
0.0
 11
-156.0309717041
 21
105.68572885222
 31
0.0
1001
Sigma
1000

  0
LINE
  5
634
102
{ACAD_REACTORS
330
631
102
}
330
1F
100
AcDbEntity
  8
0
  6
Continuous
 62
     7
370
    30
100
AcDbLine
 10
-125.0028709845999
 20
118.00264812734
 30
0.0
 11
-131.8018718380999
 21
105.68572885222
 31
0.0
1001
Sigma
1000

  0
TEXT
  5
636
102
{ACAD_REACTORS
330
631
102
}
330
1F
100
AcDbEntity
  8
0
  6
Continuous
 62
     7
370
    30
100
AcDbText
 10
-154.4672967522158
 20
106.6457288665241
 30
0.0
 40
2.880000042915344
  1
ズ－ムリング部
 41
0.5628224452909463
  7
KCADTEXTSTANDARD
100
AcDbText
1001
Sigma
1000

  0
LINE
  5
638
102
{ACAD_REACTORS
330
631
102
}
330
1F
100
AcDbEntity
  8
0
  6
Continuous
 62
     7
370
    30
100
AcDbLine
 10
-125.0028709845999
 20
118.00264812734
 30
0.0
 11
-127.3281421007999
 21
115.8594929916499
 31
0.0
1001
Sigma
1000

  0
LINE
  5
63A
102
{ACAD_REACTORS
330
631
102
}
330
1F
100
AcDbEntity
  8
0
  6
Continuous
 62
     7
370
    30
100
AcDbLine
 10
-125.0028709845999
 20
118.00264812734
 30
0.0
 11
-125.5771947961
 21
114.89296134905
 31
0.0
1001
Sigma
1000

  0
LINE
  5
63C
102
{ACAD_REACTORS
330
631
102
}
330
1F
100
AcDbEntity
  8
0
  6
Continuous
 62
     7
370
    30
100
AcDbLine
 10
-125.0028709845999
 20
118.00264812734
 30
0.0
 11
-131.8018718380999
 21
105.68572885222
 31
0.0
1001
Sigma
1000

  0
LINE
  5
63F
102
{ACAD_REACTORS
330
63E
102
}
330
1F
100
AcDbEntity
  8
0
  6
Continuous
 62
     7
370
    30
100
AcDbLine
 10
-118.0731650835
 20
98.63585241069698
 30
0.0
 11
-164.7022648661
 21
98.63585241069698
 31
0.0
1001
Sigma
1000

  0
LINE
  5
641
102
{ACAD_REACTORS
330
63E
102
}
330
1F
100
AcDbEntity
  8
0
  6
Continuous
 62
     7
370
    30
100
AcDbLine
 10
-104.2699080568999
 20
122.1223633146699
 30
0.0
 11
-118.0731650835
 21
98.63585241069698
 31
0.0
1001
Sigma
1000

  0
TEXT
  5
643
102
{ACAD_REACTORS
330
63E
102
}
330
1F
100
AcDbEntity
  8
0
  6
Continuous
 62
     7
370
    30
100
AcDbText
 10
-163.1385899142158
 20
99.59585242500118
 30
0.0
 40
2.880000042915344
  1
Ｍ３　ズ－ムロックビス１ヶ所
 41
0.5607743049297584
  7
KCADTEXTSTANDARD
100
AcDbText
1001
Sigma
1000

  0
LINE
  5
645
102
{ACAD_REACTORS
330
63E
102
}
330
1F
100
AcDbEntity
  8
0
  6
Continuous
 62
     7
370
    30
100
AcDbLine
 10
-104.2699080568999
 20
122.1223633146699
 30
0.0
 11
-106.6520909690999
 21
120.04265076905
 31
0.0
1001
Sigma
1000

  0
LINE
  5
647
102
{ACAD_REACTORS
330
63E
102
}
330
1F
100
AcDbEntity
  8
0
  6
Continuous
 62
     7
370
    30
100
AcDbLine
 10
-104.2699080568999
 20
122.1223633146699
 30
0.0
 11
-104.9278268592999
 21
119.02928353085
 31
0.0
1001
Sigma
1000

  0
LINE
  5
649
102
{ACAD_REACTORS
330
63E
102
}
330
1F
100
AcDbEntity
  8
0
  6
Continuous
 62
     7
370
    30
100
AcDbLine
 10
-104.2699080568999
 20
122.1223633146699
 30
0.0
 11
-118.0731650835
 21
98.63585241069698
 31
0.0
1001
Sigma
1000

  0
LINE
  5
64C
102
{ACAD_REACTORS
330
64B
102
}
330
1F
100
AcDbEntity
  8
0
  6
Continuous
 62
     7
370
    30
100
AcDbLine
 10
-110.4048784278
 20
82.557186842327
 30
0.0
 11
-163.4339781866
 21
82.557186842327
 31
0.0
1001
Sigma
1000

  0
LINE
  5
64E
102
{ACAD_REACTORS
330
64B
102
}
330
1F
100
AcDbEntity
  8
0
  6
Continuous
 62
     7
370
    30
100
AcDbLine
 10
-83.73025964231
 20
127.65682328717
 30
0.0
 11
-110.4048784278
 21
82.557186842327
 31
0.0
1001
Sigma
1000

  0
TEXT
  5
650
102
{ACAD_REACTORS
330
64B
102
}
330
1F
100
AcDbEntity
  8
0
  6
Continuous
 62
     7
370
    30
100
AcDbText
 10
-161.5866865680158
 20
83.51718685663118
 30
0.0
 40
2.880000042915344
  1
３－Ｍ３（Ｃマウント方向変換用）
 41
0.5605252282988246
  7
KCADTEXTSTANDARD
100
AcDbText
1001
Sigma
1000

  0
LINE
  5
652
102
{ACAD_REACTORS
330
64B
102
}
330
1F
100
AcDbEntity
  8
0
  6
Continuous
 62
     7
370
    30
100
AcDbLine
 10
-83.73025964231
 20
127.65682328717
 30
0.0
 11
-86.11822015134
 21
125.5837472377
 31
0.0
1001
Sigma
1000

  0
LINE
  5
654
102
{ACAD_REACTORS
330
64B
102
}
330
1F
100
AcDbEntity
  8
0
  6
Continuous
 62
     7
370
    30
100
AcDbLine
 10
-83.73025964231
 20
127.65682328717
 30
0.0
 11
-84.39678241984998
 21
124.56558614217
 31
0.0
1001
Sigma
1000

  0
LINE
  5
656
102
{ACAD_REACTORS
330
64B
102
}
330
1F
100
AcDbEntity
  8
0
  6
Continuous
 62
     7
370
    30
100
AcDbLine
 10
-83.73025964231
 20
127.65682328717
 30
0.0
 11
-110.4048784278
 21
82.557186842327
 31
0.0
1001
Sigma
1000

  0
LINE
  5
659
102
{ACAD_REACTORS
330
658
102
}
330
1F
100
AcDbEntity
  8
0
  6
Continuous
 62
     7
370
    30
100
AcDbLine
 10
-110.5285604707
 20
91.214929840677
 30
0.0
 11
-137.9576603248
 21
91.214929840677
 31
0.0
1001
Sigma
1000

  0
LINE
  5
65B
102
{ACAD_REACTORS
330
658
102
}
330
1F
100
AcDbEntity
  8
0
  6
Continuous
 62
     7
370
    30
100
AcDbLine
 10
-92.12787098457
 20
121.5026481273399
 30
0.0
 11
-110.5285604707
 21
91.214929840677
 31
0.0
1001
Sigma
1000

  0
TEXT
  5
65D
102
{ACAD_REACTORS
330
658
102
}
330
1F
100
AcDbEntity
  8
0
  6
Continuous
 62
     7
370
    30
100
AcDbText
 10
-136.8343346727158
 20
92.17492985498119
 30
0.0
 40
2.880000042915344
  1
シ－ル貼付け位置
 41
0.5623008282884832
  7
KCADTEXTSTANDARD
100
AcDbText
1001
Sigma
1000

  0
LINE
  5
65F
102
{ACAD_REACTORS
330
658
102
}
330
1F
100
AcDbEntity
  8
0
  6
Continuous
 62
     7
370
    30
100
AcDbLine
 10
-92.12787098457
 20
121.5026481273399
 30
0.0
 11
-94.54017085458
 21
119.45794545047
 31
0.0
1001
Sigma
1000

  0
LINE
  5
661
102
{ACAD_REACTORS
330
658
102
}
330
1F
100
AcDbEntity
  8
0
  6
Continuous
 62
     7
370
    30
100
AcDbLine
 10
-92.12787098457
 20
121.5026481273399
 30
0.0
 11
-92.83088927446
 21
118.4195060638399
 31
0.0
1001
Sigma
1000

  0
LINE
  5
663
102
{ACAD_REACTORS
330
658
102
}
330
1F
100
AcDbEntity
  8
0
  6
Continuous
 62
     7
370
    30
100
AcDbLine
 10
-92.12787098457
 20
121.5026481273399
 30
0.0
 11
-110.5285604707
 21
91.214929840677
 31
0.0
1001
Sigma
1000

  0
TEXT
  5
665
330
1F
100
AcDbEntity
  8
1
  6
Continuous
 62
     7
370
    30
100
AcDbText
 10
-107.4662440009367
 20
69.19187959881326
 30
0.0
 40
4.679999828338623
  1
ズ－ムレンズＸ０．６～Ｘ４．８
 41
0.4652564274489563
  7
KCADTEXTSTANDARD
100
AcDbText
1001
Sigma
1000

  0
TEXT
  5
667
330
1F
100
AcDbEntity
  8
99
  6
Continuous
 62
     7
370
    30
100
AcDbText
 10
-105.1820859165581
 20
42.78311262293004
 30
0.0
 40
2.7
  1
取
 41
1.203333318233489
  7
KCADTEXTSTANDARD
100
AcDbText
1001
Sigma
1000

  0
OLE2FRAME
  5
66C
330
1F
100
AcDbEntity
  8
0
  6
Continuous
 62
   134
370
    15
100
AcDbOle2Frame
 70
     2
 10
-170.5773916539688
 20
13.52733090949975
 30
0.0
 11
-133.2007623920824
 21
7.777080253824909
 31
0.0
 72
     0
 73
   205
 90
     9344
310
0055F2D80FFE795265C056F12451FE0D2B400000000000000000578840A56CA6
310
60C056F12451FE0D2B400000000000000000578840A56CA660C0742E12EDBA1B
310
1F400000000000000000F2D80FFE795265C0742E12EDBA1B1F40000000000000
310
0000000000000100000000010000010000000100000000000100000000240000
310
D0CF11E0A1B11AE1000000000000000000000000000000003E000300FEFF0900
310
0600000000000000000000000100000001000000000000000010000002000000
310
01000000FEFFFFFF0000000000000000FFFFFFFFFFFFFFFFFFFFFFFFFFFFFFFF
310
FFFFFFFFFFFFFFFFFFFFFFFFFFFFFFFFFFFFFFFFFFFFFFFFFFFFFFFFFFFFFFFF
310
FFFFFFFFFFFFFFFFFFFFFFFFFFFFFFFFFFFFFFFFFFFFFFFFFFFFFFFFFFFFFFFF
310
FFFFFFFFFFFFFFFFFFFFFFFFFFFFFFFFFFFFFFFFFFFFFFFFFFFFFFFFFFFFFFFF
310
FFFFFFFFFFFFFFFFFFFFFFFFFFFFFFFFFFFFFFFFFFFFFFFFFFFFFFFFFFFFFFFF
310
FFFFFFFFFFFFFFFFFFFFFFFFFFFFFFFFFFFFFFFFFFFFFFFFFFFFFFFFFFFFFFFF
310
FFFFFFFFFFFFFFFFFFFFFFFFFFFFFFFFFFFFFFFFFFFFFFFFFFFFFFFFFFFFFFFF
310
FFFFFFFFFFFFFFFFFFFFFFFFFFFFFFFFFFFFFFFFFFFFFFFFFFFFFFFFFFFFFFFF
310
FFFFFFFFFFFFFFFFFFFFFFFFFFFFFFFFFFFFFFFFFFFFFFFFFFFFFFFFFFFFFFFF
310
FFFFFFFFFFFFFFFFFFFFFFFFFFFFFFFFFFFFFFFFFFFFFFFFFFFFFFFFFFFFFFFF
310
FFFFFFFFFFFFFFFFFFFFFFFFFFFFFFFFFFFFFFFFFFFFFFFFFFFFFFFFFFFFFFFF
310
FFFFFFFFFFFFFFFFFFFFFFFFFFFFFFFFFFFFFFFFFFFFFFFFFFFFFFFFFFFFFFFF
310
FFFFFFFFFFFFFFFFFFFFFFFFFFFFFFFFFFFFFFFFFFFFFFFFFFFFFFFFFFFFFFFF
310
FFFFFFFFFFFFFFFFFFFFFFFFFFFFFFFFFFFFFFFFFFFFFFFFFFFFFFFFFFFFFFFF
310
FDFFFFFFFEFFFFFFFEFFFFFFFEFFFFFF05000000060000000700000008000000
310
090000000A0000000B0000000C0000000D0000000E0000000F00000010000000
310
FEFFFFFFFFFFFFFFFFFFFFFFFFFFFFFFFFFFFFFFFFFFFFFFFFFFFFFFFFFFFFFF
310
FFFFFFFFFFFFFFFFFFFFFFFFFFFFFFFFFFFFFFFFFFFFFFFFFFFFFFFFFFFFFFFF
310
FFFFFFFFFFFFFFFFFFFFFFFFFFFFFFFFFFFFFFFFFFFFFFFFFFFFFFFFFFFFFFFF
310
FFFFFFFFFFFFFFFFFFFFFFFFFFFFFFFFFFFFFFFFFFFFFFFFFFFFFFFFFFFFFFFF
310
FFFFFFFFFFFFFFFFFFFFFFFFFFFFFFFFFFFFFFFFFFFFFFFFFFFFFFFFFFFFFFFF
310
FFFFFFFFFFFFFFFFFFFFFFFFFFFFFFFFFFFFFFFFFFFFFFFFFFFFFFFFFFFFFFFF
310
FFFFFFFFFFFFFFFFFFFFFFFFFFFFFFFFFFFFFFFFFFFFFFFFFFFFFFFFFFFFFFFF
310
FFFFFFFFFFFFFFFFFFFFFFFFFFFFFFFFFFFFFFFFFFFFFFFFFFFFFFFFFFFFFFFF
310
FFFFFFFFFFFFFFFFFFFFFFFFFFFFFFFFFFFFFFFFFFFFFFFFFFFFFFFFFFFFFFFF
310
FFFFFFFFFFFFFFFFFFFFFFFFFFFFFFFFFFFFFFFFFFFFFFFFFFFFFFFFFFFFFFFF
310
FFFFFFFFFFFFFFFFFFFFFFFFFFFFFFFFFFFFFFFFFFFFFFFFFFFFFFFFFFFFFFFF
310
FFFFFFFFFFFFFFFFFFFFFFFFFFFFFFFFFFFFFFFFFFFFFFFFFFFFFFFFFFFFFFFF
310
FFFFFFFFFFFFFFFFFFFFFFFFFFFFFFFFFFFFFFFFFFFFFFFFFFFFFFFFFFFFFFFF
310
FFFFFFFFFFFFFFFFFFFFFFFFFFFFFFFFFFFFFFFFFFFFFFFFFFFFFFFFFFFFFFFF
310
52006F006F007400200045006E00740072007900000000000000000000000000
310
0000000000000000000000000000000000000000000000000000000000000000
310
16000500FFFFFFFFFFFFFFFF020000000A00030000000000C000000000000046
310
00000000000000000000000020E0C886289AC80103000000C000000000000000
310
01004F006C006500000000000000000000000000000000000000000000000000
310
0000000000000000000000000000000000000000000000000000000000000000
310
0A000200FFFFFFFFFFFFFFFFFFFFFFFF00000000000000000000000000000000
310
0000000000000000000000000000000000000000000000001400000000000000
310
010043006F006D0070004F0062006A0000000000000000000000000000000000
310
0000000000000000000000000000000000000000000000000000000000000000
310
120002010100000003000000FFFFFFFF00000000000000000000000000000000
310
0000000000000000000000000000000000000000010000004D00000000000000
310
01004F006C006500310030004E00610074006900760065000000000000000000
310
0000000000000000000000000000000000000000000000000000000000000000
310
1A000200FFFFFFFFFFFFFFFFFFFFFFFF00000000000000000000000000000000
310
0000000000000000000000000000000000000000040000000419000000000000
310
FEFFFFFF02000000FEFFFFFFFFFFFFFFFFFFFFFFFFFFFFFFFFFFFFFFFFFFFFFF
310
FFFFFFFFFFFFFFFFFFFFFFFFFFFFFFFFFFFFFFFFFFFFFFFFFFFFFFFFFFFFFFFF
310
FFFFFFFFFFFFFFFFFFFFFFFFFFFFFFFFFFFFFFFFFFFFFFFFFFFFFFFFFFFFFFFF
310
FFFFFFFFFFFFFFFFFFFFFFFFFFFFFFFFFFFFFFFFFFFFFFFFFFFFFFFFFFFFFFFF
310
FFFFFFFFFFFFFFFFFFFFFFFFFFFFFFFFFFFFFFFFFFFFFFFFFFFFFFFFFFFFFFFF
310
FFFFFFFFFFFFFFFFFFFFFFFFFFFFFFFFFFFFFFFFFFFFFFFFFFFFFFFFFFFFFFFF
310
FFFFFFFFFFFFFFFFFFFFFFFFFFFFFFFFFFFFFFFFFFFFFFFFFFFFFFFFFFFFFFFF
310
FFFFFFFFFFFFFFFFFFFFFFFFFFFFFFFFFFFFFFFFFFFFFFFFFFFFFFFFFFFFFFFF
310
FFFFFFFFFFFFFFFFFFFFFFFFFFFFFFFFFFFFFFFFFFFFFFFFFFFFFFFFFFFFFFFF
310
FFFFFFFFFFFFFFFFFFFFFFFFFFFFFFFFFFFFFFFFFFFFFFFFFFFFFFFFFFFFFFFF
310
FFFFFFFFFFFFFFFFFFFFFFFFFFFFFFFFFFFFFFFFFFFFFFFFFFFFFFFFFFFFFFFF
310
FFFFFFFFFFFFFFFFFFFFFFFFFFFFFFFFFFFFFFFFFFFFFFFFFFFFFFFFFFFFFFFF
310
FFFFFFFFFFFFFFFFFFFFFFFFFFFFFFFFFFFFFFFFFFFFFFFFFFFFFFFFFFFFFFFF
310
FFFFFFFFFFFFFFFFFFFFFFFFFFFFFFFFFFFFFFFFFFFFFFFFFFFFFFFFFFFFFFFF
310
FFFFFFFFFFFFFFFFFFFFFFFFFFFFFFFFFFFFFFFFFFFFFFFFFFFFFFFFFFFFFFFF
310
FFFFFFFFFFFFFFFFFFFFFFFFFFFFFFFFFFFFFFFFFFFFFFFFFFFFFFFFFFFFFFFF
310
0100000200000000000000000000000000000000000000000000000000000000
310
0000000000000000000000000000000000000000000000000000000000000000
310
0100FEFF030A0000FFFFFFFF0A00030000000000C00000000000004607000000
310
5042727573680007000000504272757368000700000050427275736800F439B2
310
7100000000000000000000000000000000000000000000000000000000000000
310
0000000000000000000000000000000000000000000000000000000000000000
310
0000000000000000000000000000000000000000000000000000000000000000
310
0000000000000000000000000000000000000000000000000000000000000000
310
0000000000000000000000000000000000000000000000000000000000000000
310
0000000000000000000000000000000000000000000000000000000000000000
310
0000000000000000000000000000000000000000000000000000000000000000
310
0000000000000000000000000000000000000000000000000000000000000000
310
0000000000000000000000000000000000000000000000000000000000000000
310
0000000000000000000000000000000000000000000000000000000000000000
310
0000000000000000000000000000000000000000000000000000000000000000
310
0000000000000000000000000000000000000000000000000000000000000000
310
00190000424DF618000000000000360000002800000075000000120000000100
310
180000000000C018000000000000000000000000000000000000FFFFFFFFFFFF
310
FFFFFFFFFFFFFFFFFFFFFFFFFFFFFFFFFFFF6666660808081212120C0C0C3535
310
35FFFFFFFFFFFFFFFFFFFFFFFFFFFFFFFFFFFFFFFFFFFFFFFFFFFFFFC0C0C045
310
4545151515121212121212121212131313141414151515151515161616181818
310
1818181919191919191E1E1E484848B0B0B0FFFFFFFFFFFFFFFFFFD4D4D42424
310
242424242424242E2E2EF1F1F1FFFFFFFFFFFFFFFFFFFFFFFFFFFFFFFFFFFFFF
310
FFFFDEDEDE4B4B4B3333333838383A3A3A3838382C2C2C5E5E5EEBEBEBFFFFFF
310
F1F1F14949494242424444444D4D4DF5F5F5FFFFFFA5A5A54343435050504848
310
48999999FFFFFFFFFFFFFFFFFFFFFFFFFFFFFFFFFFFFFFFFFFFFFFFFFFFFFFFF
310
FFFFFFFFFFBCBCBC6666667171716C6C6C9A9A9AFFFFFFFFFFFFFFFFFFE9E9E9
310
9393938181818080808282828484848484848585858888888888888989898B8B
310
8B8C8C8C8D8D8D8F8F8F90909090909092929291919199999900FFFFFFFFFFFF
310
FFFFFFFFFFFFFFFFFFFFFFFFFFFFFFFFFFFF5D5D5D0000000202020000002727
310
27FFFFFFFFFFFFFFFFFFFFFFFFFFFFFFFFFFFFFFFFFFFFFFFFA6A6A600000000
310
0000020202030303020202030303020202020202020202020202020202020202
310
0202020202020101010000000000000000006B6B6BFFFFFFFFFFFFCECECE0000
310
00000000000000080808EDEDEDFFFFFFFFFFFFFFFFFFFFFFFFFFFFFFFFFFFF9B
310
9B9B000000000000000000000000000000000000838383FFFFFFFFFFFFFFFFFF
310
ECECEC060606000000000000050505EEEEEEFFFFFF7B7B7B0000000000000000
310
00656565FFFFFFFFFFFFFFFFFFFFFFFFFFFFFFFFFFFFFFFFFFFFFFFFFFFFFFFF
310
FFFFFFFFFF8888880000000000000000003F3F3FFFFFFFFFFFFFC1C1C1000000
310
0000000000000000000000000000000000000000000000000000000000000000
310
0000000000000000000000000000000000000000000003030300FFFFFFFFFFFF
310
FFFFFFFFFFFFFFFFFFFFFFFFFFFFFFFFFFFF5E5E5E0000000404040000002525
310
25FFFFFFFFFFFFFFFFFFFFFFFFFFFFFFFFFFFFFFFFFFFEFEFE13131300000005
310
0505030303000000000000000000000000000000000000000000000000000000
310
000000000000000000000000050505010101000000CDCDCDFFFFFFCECECE0303
310
030202020101010B0B0BEDEDEDFFFFFFFFFFFFFFFFFFFFFFFFF7F7F759595900
310
0000000000050505000000000000383838D8D8D8FFFFFFFFFFFFFFFFFFFFFFFF
310
EDEDED0B0B0B0101010101010B0B0BEFEFEFFFFFFF7F7F7F0000000505050000
310
00686868FFFFFFFFFFFFFFFFFFFFFFFFFFFFFFFFFFFFFFFFFFFFFFFFFFFFFFFF
310
FFFFFFFFFF8D8D8D000000040404000000464646FFFFFFFFFFFF2E2E2E000000
310
0404040404040000000000000000000000000000000000000000000000000000
310
0000000000000000000000000003030305050503030312121200FFFFFFFFFFFF
310
FFFFFFFFFFFFFFFFFFFFFFFFFFFFFFFFFFFF5F5F5F0000000505050000002424
310
24FFFFFFFFFFFFFFFFFFFFFFFFFFFFFFFFFFFFFFFFFFD9D9D900000003030304
310
04040000007070709D9D9D9797979797979696969393939292928F8F8F8C8C8C
310
8A8A8A8B8B8B7E7E7E131313010101040404000000858585FFFFFFCECECE0404
310
040202020101010C0C0CEDEDEDFFFFFFFFFFFFFFFFFFCBCBCB23232300000003
310
03030404040000000606068D8D8DFFFFFFFFFFFFFFFFFFFFFFFFFFFFFFFFFFFF
310
EDEDED0C0C0C0101010101010B0B0BEFEFEFFFFFFF7F7F7F0000000505050000
310
00686868FFFFFFFFFFFFFFFFFFFFFFFFFFFFFFFFFFFFFFFFFFFFFFFFFFFFFFFF
310
FFFFFFFFFF8D8D8D000000050505000000444444FFFFFFFEFEFE050505010101
310
0404040101015A5A5A6666666464646464646464646464646363636262626262
310
626060606060606060605E5E5E00000004040403030312121200FFFFFFFFFFFF
310
FFFFFFFFFFFFFFFFFFFFFFFFFFFFFFFFFFFF5F5F5F0000000404040000002323
310
23FFFFFFFFFFFFFFFFFFFFFFFFFFFFFFFFFFFFFFFFFFD2D2D200000003030302
310
0202060606FFFFFFFFFFFFFFFFFFFFFFFFFFFFFFFFFFFFFFFFFFFFFFFFFFFFFF
310
FFFFFFFFFFFFFFFFFF666666000000040404000000808080FFFFFFCECECE0404
310
040202020101010B0B0BEDEDEDFFFFFFFFFFFF8C8C8C03030300000003030300
310
00000000003E3E3ED9D9D9FFFFFFFFFFFFFFFFFFFFFFFFFFFFFFFFFFFFFFFFFF
310
EDEDED0C0C0C0101010101010B0B0BEFEFEFFFFFFF7F7F7F0000000505050000
310
00676767FFFFFFFFFFFFFFFFFFFFFFFFFFFFFFFFFFFFFFFFFFFFFFFFFFFFFFFF
310
FFFFFFFFFF8D8D8D000000040404000000444444FFFFFFFFFFFF070707010101
310
030303000000F7F7F7FFFFFFFFFFFFFFFFFFFFFFFFFFFFFFFFFFFFFFFFFFFFFF
310
FFFFFFFFFFFFFFFFFFFFFFFFFF00000003030303030311111100FFFFFFFFFFFF
310
FFFFFFFFFFFFFFFFFFFFFFFFFFFFFFFFFFFF6161610000000404040000002222
310
22FFFFFFFFFFFFFFFFFFFFFFFFFFFFFFFFFFFFFFFFFFD3D3D300000002020202
310
0202070707FCFCFCFFFFFFFFFFFFFFFFFFFFFFFFFFFFFFFFFFFFFFFFFFFFFFFF
310
FFFFFFFFFFFFFFFFFF696969000000040404000000818181FFFFFFCECECE0404
310
040202020101010D0D0DFAFAFAEEEEEE4D4D4D0000000000000303030000000D
310
0D0D949494FFFFFFFFFFFFFFFFFFFFFFFFFFFFFFFFFFFFFFFFFFFFFFFFFFFFFF
310
EDEDED0C0C0C0101010101010B0B0BEFEFEFFFFFFF7F7F7F0000000505050000
310
00676767FFFFFFFFFFFFFFFFFFFFFFFFFFFFFFFFFFFFFFFFFFFFFFFFFFFFFFFF
310
FFFFFFFFFF8D8D8D000000040404000000434343FFFFFFFEFEFE050505010101
310
030303010101A9A9A9C1C1C1BEBEBEC1C1C1C1C1C1C2C2C2C3C3C3C4C4C4C5C5
310
C5C5C5C5C8C8C8CACACACCCCCC00000003030303030311111100FFFFFFFFFFFF
310
FFFFFFFFFFFFFFFFFFFFFFFFFFFFFFFFFFFF6161610000000404040000002121
310
21FFFFFFFFFFFFFFFFFFFFFFFFFFFFFFFFFFFFFFFFFFD5D5D500000002020202
310
0202060606FCFCFCFFFFFFFFFFFFFFFFFFFFFFFFFFFFFFFFFFFFFFFFFFFFFFFF
310
FFFFFFFFFFFFFFFFFF686868000000050505000000818181FFFFFFCCCCCC0303
310
030202020202020D0D0D9898981D1D1D000000030303040404010101545454E1
310
E1E1FFFFFFFFFFFFFFFFFFFFFFFFFFFFFFFFFFFFFFFFFFFFFFFFFFFFFFFFFFFF
310
EDEDED0C0C0C0101010101010B0B0BEFEFEFFFFFFF7F7F7F0000000505050000
310
00666666FFFFFFFFFFFFFFFFFFFFFFFFFFFFFFFFFFFFFFFFFFFFFFFFFFFFFFFF
310
FFFFFFFFFF8D8D8D000000040404000000424242FFFFFFFFFFFF1E1E1E000000
310
0505050303030000000000000000000000000000000101010101010101010202
310
0202020203030304040405050502020204040403030311111100FFFFFFFFFFFF
310
FFFFFFFFFFFFFFFFFFFFFFFFFFFFFFFFFFFF6363630000000505050000001F1F
310
1FFFFFFFFFFFFFFFFFFFFFFFFFFFFFFFFEFEFEFFFFFFD5D5D500000003030302
310
0202050505FCFCFCFFFFFFFFFFFFFFFFFFFFFFFFFFFFFFFFFFFFFFFFFFFFFFFF
310
FFFFFFFFFFFFFFFFFF686868000000040404000000818181FFFFFFCDCDCD0303
310
030202020303030707074545450000000000000404040303030303039E9E9EFF
310
FFFFFFFFFFFFFFFFFFFFFFFFFFFFFFFFFFFFFFFFFFFFFFFFFFFFFFFFFFFFFFFF
310
EDEDED0C0C0C0101010101010B0B0BEEEEEEFFFFFF7F7F7F0000000505050000
310
00666666FFFFFFFFFFFFFFFFFFFFFFFFFFFFFFFFFFFFFFFFFFFFFFFFFFFFFFFF
310
FFFFFFFFFF8D8D8D000000040404000000434343FFFFFFFFFFFF9C9C9C000000
310
0000000000000000000000000000000000000000000000000000000000000000
310
0000000000000000000000000004040405050503030311111100FFFFFFFFFFFF
310
FFFFFFFFFFFFFFFFFFFFFFFFFFFFFFFFFFFF6262620000000505050000002121
310
21FFFFFFFFFFFFFFFFFFFFFFFFFFFFFFFEFEFEFFFFFFD5D5D500000002020201
310
0101070707FDFDFDFFFFFFFFFFFFFFFFFFFFFFFFFFFFFFFFFFFFFFFFFFFFFFFF
310
FFFFFFFFFFFFFFFFFF696969000000050505000000818181FFFFFFCCCCCC0303
310
030202020101010D0D0DF6F6F6B3B3B319191900000003030302020200000057
310
5757E8E8E8FFFFFFFFFFFFFFFFFFFFFFFFFFFFFFFFFFFFFFFFFFFFFFFFFFFFFF
310
EDEDED0C0C0C0101010101010C0C0CEDEDEDFFFFFF7F7F7F0000000505050000
310
00666666FFFFFFFFFFFFFFFFFFFFFFFFFFFFFFFFFFFFFFFFFFFFFFFFFFFFFFFF
310
FFFFFFFFFF8D8D8D000000040404000000434343FFFFFFFFFFFFFFFFFFA8A8A8
310
3C3C3C2E2E2E2C2C2C2B2B2B2A2A2A2A2A2A2929292828282727272727272626
310
2626262625252525252524242400000004040403030311111100FFFFFFFFFFFF
310
FFFFFFFFFFFFFFFFFFFFFFFFFFFFFFFFFFFF6161610000000505050000002121
310
21FFFFFFFFFFFFFFFFFFFFFFFFFFFFFFFFFFFFFFFFFFD2D2D200000003030302
310
0202060606FFFFFFFFFFFFFFFFFFFFFFFFFFFFFFFFFFFFFFFFFFFFFFFFFFFFFF
310
FFFFFFFFFFFFFFFFFF666666000000050505000000808080FFFFFFCCCCCC0202
310
020202020101010B0B0BECECECFFFFFFE5E5E54D4D4D00000000000003030300
310
00001B1B1BABABABFFFFFFFFFFFFFFFFFFFFFFFFFFFFFFFFFFFFFFFFFFFFFFFF
310
EDEDED0C0C0C0101010101010B0B0BEEEEEEFFFFFF7F7F7F0000000505050000
310
00696969FFFFFFFFFFFFFFFFFFFFFFFFFFFFFFFFFFFFFFFFFFFFFFFFFFFFFFFF
310
FFFFFFFFFF909090000000040404000000414141FFFFFFFFFFFFFFFFFFFFFFFF
310
FFFFFFFDFDFDFAFAFAF9F9F9F9F9F9F7F7F7F7F7F7F7F7F7F5F5F5F5F5F5F4F4
310
F4F4F4F4F2F2F2F4F4F4F7F7F700000004040403030311111100FFFFFFFFFFFF
310
FFFFFFFFFFFFFFFFFFFFFFFFFFFFFFFFFFFF5F5F5F0000000505050000002222
310
22FFFFFFFFFFFFFFFFFFFFFFFFFFFFFFFFFFFFFFFFFFDBDBDB00000003030304
310
04040000005858588585858383838585858686868989898989898D8D8D8E8E8E
310
919191949494898989161616010101040404000000828282FFFFFFCCCCCC0303
310
030202020101010B0B0BECECECFFFFFFFFFFFFFFFFFF8F8F8F0A0A0A00000003
310
0303000000000000636363EDEDEDFFFFFFFFFFFFFFFFFFFFFFFFFFFFFFFFFFFF
310
ECECEC0C0C0C0101010101010B0B0BEFEFEFFFFFFF7F7F7F0000000505050000
310
00555555D8D8D8D1D1D1D1D1D1D2D2D2D2D2D2D2D2D2D4D4D4D4D4D4D4D4D4D5
310
D5D5DCDCDC565656000000050505000000424242FFFFFFFFFFFFFFFFFFFFFFFF
310
FFFFFFFFFFFFFFFFFFFFFFFFFFFFFFFFFFFFFFFFFFFFFFFFFFFFFFFFFFFFFFFF
310
FFFFFFFFFFFFFFFFFFFFFDFDFD00000003030303030310101000FFFFFFFFFFFF
310
FFFFFFFFFFFFFFFFFFFFFFFFFFFFFFFFFFFF5F5F5F0000000505050000002121
310
21FFFFFFFFFFFFFFFFFFFFFFFFFFFFFFFFFFFFFFFFFFFFFFFF1D1D1D00000004
310
0404040404000000000000000000000000000000000000000000000000000000
310
000000000000000000000000050505020202000000BFBFBFFFFFFFCBCBCB0202
310
020202020101010C0C0CECECECFFFFFFFFFFFFFFFFFFFFFFFFD2D2D235353500
310
00000101010202020000001F1F1FB5B5B5FFFFFFFFFFFFFFFFFFFFFFFFFFFFFF
310
ECECEC0C0C0C0101010101010B0B0BEFEFEFFFFFFF7F7F7F0000000505050404
310
0400000000000000000000000000000000000000000000000000000000000000
310
00000000000000000404040404040000006E6E6EFFFFFFFFFFFF7C7C7C464646
310
4D4D4D4D4D4D4D4D4D4D4D4D4D4D4D4D4D4D4D4D4D4D4D4D4C4C4C4D4D4D4E4E
310
4E4F4F4F50505055555530303000000004040401010115151500FFFFFFFFFFFF
310
FFFFFFFFFFFFFFFFFFFFFFFFFFFFFFFFFFFF6060600000000505050000001F1F
310
1FFFFFFFFFFFFFFFFFFFFFFFFFFFFFFFFFFFFFFFFFFFFFFFFFB3B3B300000000
310
0000000000000000000000000000000000000000000000000000000000000000
310
000000000000000000000000000000000000585858FFFFFFFFFFFFCCCCCC0303
310
030202020101010B0B0BEAEAEAFFFFFFFFFFFFFFFFFFFFFFFFFFFFFFFEFEFE77
310
7777010101000000010101000000000000656565F0F0F0FFFFFFFFFFFFFFFFFF
310
EDEDED0A0A0A0000000000000A0A0AEDEDEDFFFFFF7E7E7E0000000303030303
310
0303030302020202020202020202020202020202020202020202020202020202
310
0202020202030303020202000000040404DADADAFFFFFFFFFFFF3F3F3F000000
310
0000000000000000000000000000000000000000000000000000000000000000
310
0000000000000000000000000004040402020200000082828200F1F1F1F1F1F1
310
F1F1F1F1F1F1F2F2F2F2F2F2F3F3F3FFFFFF5F5F5F0000000505050000001E1E
310
1EFFFFFFFCFCFCFCFCFCFBFBFBFDFDFDFDFDFDFEFEFEFEFEFEFFFFFFC6C6C646
310
4646131313131313131313131313121212121212121212111111111111111111
310
1010101010101010100F0F0F1C1C1C848484FEFEFEFFFFFFFFFFFFCDCDCD0404
310
040202020101010B0B0BEBEBEBFFFFFFFFFFFFFFFFFFFFFFFFFFFFFFFFFFFFFF
310
FFFFC0C0C0222222030303060606030303000000222222BCBCBCFFFFFFFFFFFF
310
ECECEC0D0D0D0000000000000B0B0BECECECFFFFFF7E7E7E0000000000000000
310
0000000000000000000000000000000000000000000000000000000000000000
310
00000000000000000000001C1C1CBBBBBBFFFFFFFFFFFFFFFFFF3F3F3F000000
310
0000000000000000000000000000000000000000000000000000000000000000
310
000000000000000000000000000000000000004F4F4FFFFFFF00111111101010
310
1010101111111313131313131515151919190909090303030505050404040404
310
043030302E2E2E2F2F2F3131313333333333333636362F2F2F7F7F7FFFFFFFFF
310
FFFFFFFFFFFDFDFDFCFCFCFBFBFBFAFAFAF8F8F8F7F7F7F7F7F7F6F6F6F5F5F5
310
F3F3F3F3F3F3F0F0F0F4F4F4FFFFFFFFFFFFFFFFFFFFFFFFFFFFFFCECECE0404
310
040303030000000B0B0BEBEBEBFFFFFFFFFFFFFFFFFFFFFFFFFFFFFFFFFFFFFF
310
FFFFFFFFFFF5F5F5D3D3D3D5D5D5D3D3D3D1D1D1C6C6C6C9C9C9FCFCFCFFFFFF
310
FFFFFFD5D5D5D4D4D4D4D4D4D1D1D1FDFDFDFFFFFFDFDFDFBBBBBBBDBDBDBDBD
310
BDBBBBBBB9B9B9B8B8B8B5B5B5B4B4B4B3B3B3B1B1B1AFAFAFAEAEAEADADADAB
310
ABABA9A9A9A9A9A9C4C4C4FDFDFDFFFFFFFFFFFFFFFFFFFFFFFFB8B8B89B9B9B
310
9D9D9D9B9B9B9B9B9B9999999999999999999999999999999999999999999999
310
999A9A9A989898979797979797989898CCCCCCFFFFFFFFFFFF00010101000000
310
0000000000000000000000000000000000000303030505050505050404040404
310
04000000000000000000000000000000000000000000000000555555FFFFFFFF
310
FFFFFFFFFFFFFFFFFFFFFFFFFFFFFFFFFFFFFFFFFFFFFFFFFFFFFFFFFFFFFFFF
310
FFFFFFFFFFFFFFFFFFFFFFFFFFFFFFFFFFFFFFFFFFFFFFFFFFFFFFCECECE0404
310
040101010101010B0B0BEBEBEBFFFFFFFFFFFFFFFFFFFFFFFFFFFFFFFFFFFFFF
310
FFFFFFFFFFFFFFFFFFFFFFFFFFFFFFFFFFFFFFFFFFFFFFFFFFFFFFFFFFFFFFFF
310
F5F5F57979797272727373737A7A7AF6F6F6FFFFFFFFFFFFFFFFFFFFFFFFFFFF
310
FFFFFFFFFFFFFFFFFFFFFFFFFFFFFFFFFFFFFFFFFFFFFFFFFFFFFFFFFFFFFFFF
310
FFFFFFFFFFFFFFFFFFFFFFFFFFFFFFFFFFFFFFFFFFFFFFFFFFFFFFFFFFFFFFFF
310
FFFFFFFFFFFFFFFFFFFFFFFFFFFFFFFFFFFFFFFFFFFFFFFFFFFFFFFFFFFFFFFF
310
FFFFFFFFFFFFFFFFFFFFFFFFFFFFFFFFFFFFFFFFFFFFFFFFFF00030303020202
310
0303030202020303030303030303030303030303030303030303030303030303
310
030303030303030303030303030303030303030303030000005A5A5AFFFFFFFF
310
FFFFFFFFFFFFFFFFFFFFFFFFFFFFFFFFFFFFFFFFFFFFFFFFFFFFFFFFFFFFFFFF
310
FFFFFFFFFFFFFFFFFFFFFFFFFFFFFFFFFFFFFFFFFFFFFFFFFFFFFFCECECE0303
310
030202020101010A0A0AEBEBEBFFFFFFFFFFFFFFFFFFFFFFFFFFFFFFFFFFFFFF
310
FFFFFFFFFFFFFFFFFFFFFFFFFFFFFFFFFFFFFFFFFFFFFFFFFFFFFFFFFFFFFFFF
310
EDEDED000000000000000000000000EDEDEDFFFFFFFFFFFFFFFFFFFFFFFFFFFF
310
FFFFFFFFFFFFFFFFFFFFFFFFFFFFFFFFFFFFFFFFFFFFFFFFFFFFFFFFFFFFFFFF
310
FFFFFFFFFFFFFFFFFFFFFFFFFFFFFFFFFFFFFFFFFFFFFFFFFFFFFFFFFFFFFFFF
310
FFFFFFFFFFFFFFFFFFFFFFFFFFFFFFFFFFFFFFFFFFFFFFFFFFFFFFFFFFFFFFFF
310
FFFFFFFFFFFFFFFFFFFFFFFFFFFFFFFFFFFFFFFFFFFFFFFFFF00141414121212
310
1212121212121111111212121111111111111111111111111111111010101010
310
101010100F0F0F1010101010100F0F0F0F0F0F0F0F0F030303646464FFFFFFFF
310
FFFFFFFFFFFFFFFFFFFFFFFFFFFFFFFFFFFFFFFFFFFFFFFFFFFFFFFFFFFFFFFF
310
FFFFFFFFFFFFFFFFFFFFFFFFFFFFFFFFFFFFFFFFFFFFFFFFFFFFFFD0D0D00A0A
310
0A070707060606111111ECECECFFFFFFFFFFFFFFFFFFFFFFFFFFFFFFFFFFFFFF
310
FFFFFFFFFFFFFFFFFFFFFFFFFFFFFFFFFFFFFFFFFFFFFFFFFFFFFFFFFFFFFFFF
310
F0F0F00E0E0E0000000101010C0C0CEFEFEFFFFFFFFFFFFFFFFFFFFFFFFFFFFF
310
FFFFFFFFFFFFFFFFFFFFFFFFFFFFFFFFFFFFFFFFFFFFFFFFFFFFFFFFFFFFFFFF
310
FFFFFFFFFFFFFFFFFFFFFFFFFFFFFFFFFFFFFFFFFFFFFFFFFFFFFFFFFFFFFFFF
310
FFFFFFFFFFFFFFFFFFFFFFFFFFFFFFFFFFFFFFFFFFFFFFFFFFFFFFFFFFFFFFFF
310
FFFFFFFFFFFFFFFFFFFFFFFFFFFFFFFFFFFFFFFFFFFFFFFFFF00000000000000
310
0000000000000000000000000000000000000000000000000000000000000000
310
0000000002000000D51A00000000000000000000000000000000000000000000
310
0000000000000000000000000000000000000000000000000000000000000000
310
0000000000000000000000000000000000000000FFFFFFFFFFFFFFFFFFFFFFFF
310
0000000000000000000000000000000000000000000000000000000000000000
310
0000000000000000000000000000000000000000000000000000000000000000
310
0000000000000000000000000000000000000000000000000000000000000000
310
0000000000000000000000000000000000000000FFFFFFFFFFFFFFFFFFFFFFFF
  1
OLE
  0
TEXT
  5
66D
330
1F
100
AcDbEntity
  8
99
  6
Continuous
 62
     7
370
    30
100
AcDbText
 10
-49.18321114527777
 20
8.77653862358462
 30
0.0
 40
4.0
  1
Tokina Co.,Ltd.
 41
0.7000000000000001
  7
KCADTEXTSTANDARD
100
AcDbText
1001
Sigma
1000

  0
TEXT
  5
66E
330
1F
100
AcDbEntity
  8
99
  6
Continuous
 62
     7
370
    30
100
AcDbText
 10
-98.37980008827361
 20
8.735455363104048
 30
0.0
 40
4.0
  1
株式会社トキナー
  7
KCADTEXTSTANDARD
100
AcDbText
1001
Sigma
1000

  0
TEXT
  5
6F8
330
1F
100
AcDbEntity
  8
99
  6
Continuous
 62
     7
370
    30
100
AcDbText
 10
-117.6804245594377
 20
21.37103704136589
 30
0.0
 40
2.5
  1
図番登録
 41
0.7000000000000001
  7
KCADTEXTSTANDARD
100
AcDbText
1001
Sigma
1000

  0
TEXT
  5
6F9
330
1F
100
AcDbEntity
  8
99
  6
Continuous
 62
     7
370
    30
100
AcDbText
 10
-118.1368756262114
 20
16.19538808765151
 30
0.0
 40
2.0
  1
2008.5.15
 41
0.7000000000000001
  7
KCADTEXTSTANDARD
100
AcDbText
1001
Sigma
1000

  0
ENDSEC
  0
SECTION
  2
OBJECTS
  0
DICTIONARY
  5
C
330
0
100
AcDbDictionary
281
     1
  3
ACAD_COLOR
350
6C
  3
ACAD_GROUP
350
D
  3
ACAD_LAYOUT
350
1A
  3
ACAD_MATERIAL
350
6B
  3
ACAD_MLINESTYLE
350
17
  3
ACAD_PLOTSETTINGS
350
19
  3
ACAD_PLOTSTYLENAME
350
E
  3
ACAD_TABLESTYLE
350
92
  3
ACDBHEADERROUNDTRIPXREC
350
7BE
  3
AcDbVariableDictionary
350
59
  3
DWGPROPS
350
7C1
  3
KCADFRAMEINFO
350
2A7
  0
DICTIONARY
  5
6C
102
{ACAD_REACTORS
330
C
102
}
330
C
100
AcDbDictionary
281
     1
  0
DICTIONARY
  5
D
102
{ACAD_REACTORS
330
C
102
}
330
C
100
AcDbDictionary
281
     1
  3
*A1
350
476
  3
*A10
350
557
  3
*A11
350
4E9
  3
*A12
350
579
  3
*A13
350
502
  3
*A14
350
51D
  3
*A15
350
538
  3
*A16
350
562
  3
*A17
350
592
  3
*A18
350
5F9
  3
*A19
350
59F
  3
*A2
350
481
  3
*A20
350
5B6
  3
*A21
350
5C3
  3
*A22
350
5DE
  3
*A23
350
614
  3
*A3
350
631
  3
*A4
350
4B5
  3
*A5
350
63E
  3
*A6
350
64B
  3
*A7
350
658
  3
*A8
350
49A
  3
*A9
350
4D0
  0
DICTIONARY
  5
1A
102
{ACAD_REACTORS
330
C
102
}
330
C
100
AcDbDictionary
281
     1
  3
Model
350
22
  3
ﾚｲｱｳﾄ1
350
22F
  0
DICTIONARY
  5
6B
102
{ACAD_REACTORS
330
C
102
}
330
C
100
AcDbDictionary
281
     1
  0
DICTIONARY
  5
17
102
{ACAD_REACTORS
330
C
102
}
330
C
100
AcDbDictionary
281
     1
  3
Standard
350
18
  0
DICTIONARY
  5
19
102
{ACAD_REACTORS
330
C
102
}
330
C
100
AcDbDictionary
281
     1
  0
ACDBDICTIONARYWDFLT
  5
E
102
{ACAD_REACTORS
330
C
102
}
330
C
100
AcDbDictionary
281
     1
  3
Normal
350
F
100
AcDbDictionaryWithDefault
340
F
  0
DICTIONARY
  5
92
102
{ACAD_REACTORS
330
C
102
}
330
C
100
AcDbDictionary
281
     1
  3
Standard
350
93
  0
DICTIONARY
  5
7BE
102
{ACAD_REACTORS
330
C
102
}
330
C
100
AcDbDictionary
281
     1
  3
COLORDICT
350
7BF
  3
MATERIALDICT
350
7C0
  0
DICTIONARY
  5
59
102
{ACAD_REACTORS
330
C
102
}
330
C
100
AcDbDictionary
281
     1
  3
CTABLESTYLE
350
98
  3
DIMASSOC
350
7BD
  3
HIDETEXT
350
77B
  0
XRECORD
  5
7C1
102
{ACAD_REACTORS
330
C
102
}
330
C
100
AcDbXrecord
280
     1
  1
DWGPROPS COOKIE
  2

  3

  4

  6

  7

  8
fottrem
  9

300
=
301
=
302
=
303
=
304
=
305
=
306
=
307
=
308
=
309
=
 40
0.0
 41
2453353.717125822
 42
2453295.078134537
  1

 90
        0
  0
XRECORD
  5
2A7
102
{ACAD_REACTORS
330
C
102
}
330
C
100
AcDbXrecord
280
     1
  1
A3
 40
420.0
 40
297.0
 90
        1
 90
        1
  0
GROUP
  5
476
102
{ACAD_REACTORS
330
D
102
}
330
D
100
AcDbGroup
300
group from kcad family
 70
     1
 71
     1
340
477
340
479
340
47B
340
47D
340
47F
  0
GROUP
  5
557
102
{ACAD_REACTORS
330
D
102
}
330
D
100
AcDbGroup
300
group from kcad family
 70
     1
 71
     1
340
558
340
55A
340
55C
340
55E
340
560
  0
GROUP
  5
4E9
102
{ACAD_REACTORS
330
D
102
}
330
D
100
AcDbGroup
300
group from kcad family
 70
     1
 71
     1
340
4EA
340
4EC
340
4EE
340
4F0
340
4F2
340
4F4
340
4F6
340
4F8
340
4FA
340
4FC
340
4FE
340
500
  0
GROUP
  5
579
102
{ACAD_REACTORS
330
D
102
}
330
D
100
AcDbGroup
300
group from kcad family
 70
     1
 71
     1
340
57A
340
57C
340
57E
340
580
340
582
340
584
340
586
340
588
340
58A
340
58C
340
58E
340
590
  0
GROUP
  5
502
102
{ACAD_REACTORS
330
D
102
}
330
D
100
AcDbGroup
300
group from kcad family
 70
     1
 71
     1
340
503
340
505
340
507
340
509
340
50B
340
50D
340
50F
340
511
340
513
340
515
340
517
340
519
340
51B
  0
GROUP
  5
51D
102
{ACAD_REACTORS
330
D
102
}
330
D
100
AcDbGroup
300
group from kcad family
 70
     1
 71
     1
340
51E
340
520
340
522
340
524
340
526
340
528
340
52A
340
52C
340
52E
340
530
340
532
340
534
340
536
  0
GROUP
  5
538
102
{ACAD_REACTORS
330
D
102
}
330
D
100
AcDbGroup
300
group from kcad family
 70
     1
 71
     1
340
539
340
53B
340
53D
340
53F
340
541
340
543
340
545
340
547
340
549
340
54B
340
54D
340
54F
  0
GROUP
  5
562
102
{ACAD_REACTORS
330
D
102
}
330
D
100
AcDbGroup
300
group from kcad family
 70
     1
 71
     1
340
563
340
565
340
567
340
569
340
56B
340
56D
340
56F
340
571
340
573
340
575
340
577
  0
GROUP
  5
592
102
{ACAD_REACTORS
330
D
102
}
330
D
100
AcDbGroup
300
group from kcad family
 70
     1
 71
     1
340
593
340
595
340
597
340
599
340
59B
340
59D
  0
GROUP
  5
5F9
102
{ACAD_REACTORS
330
D
102
}
330
D
100
AcDbGroup
300
group from kcad family
 70
     1
 71
     1
340
5FA
340
5FC
340
5FE
340
600
340
602
340
604
340
606
340
608
340
60A
340
60C
340
60E
340
610
340
612
  0
GROUP
  5
59F
102
{ACAD_REACTORS
330
D
102
}
330
D
100
AcDbGroup
300
group from kcad family
 70
     1
 71
     1
340
5A0
340
5A2
340
5A4
340
5A6
340
5A8
340
5AA
340
5AC
340
5AE
340
5B0
340
5B2
340
5B4
  0
GROUP
  5
481
102
{ACAD_REACTORS
330
D
102
}
330
D
100
AcDbGroup
300
group from kcad family
 70
     1
 71
     1
340
482
340
484
340
486
340
488
340
48A
340
48C
340
48E
340
490
340
492
340
494
340
496
340
498
  0
GROUP
  5
5B6
102
{ACAD_REACTORS
330
D
102
}
330
D
100
AcDbGroup
300
group from kcad family
 70
     1
 71
     1
340
5B7
340
5B9
340
5BB
340
5BD
340
5BF
340
5C1
  0
GROUP
  5
5C3
102
{ACAD_REACTORS
330
D
102
}
330
D
100
AcDbGroup
300
group from kcad family
 70
     1
 71
     1
340
5C4
340
5C6
340
5C8
340
5CA
340
5CC
340
5CE
340
5D0
340
5D2
340
5D4
340
5D6
340
5D8
340
5DA
340
5DC
  0
GROUP
  5
5DE
102
{ACAD_REACTORS
330
D
102
}
330
D
100
AcDbGroup
300
group from kcad family
 70
     1
 71
     1
340
5DF
340
5E1
340
5E3
340
5E5
340
5E7
340
5E9
340
5EB
340
5ED
340
5EF
340
5F1
340
5F3
340
5F5
340
5F7
  0
GROUP
  5
614
102
{ACAD_REACTORS
330
D
102
}
330
D
100
AcDbGroup
300
group from kcad family
 70
     1
 71
     1
340
615
340
617
340
619
340
61B
340
61D
340
61F
340
621
340
623
340
625
340
627
340
629
340
62B
340
62D
340
62F
  0
GROUP
  5
631
102
{ACAD_REACTORS
330
D
102
}
330
D
100
AcDbGroup
300
group from kcad family
 70
     1
 71
     1
340
632
340
634
340
636
340
638
340
63A
340
63C
  0
GROUP
  5
4B5
102
{ACAD_REACTORS
330
D
102
}
330
D
100
AcDbGroup
300
group from kcad family
 70
     1
 71
     1
340
4B6
340
4B8
340
4BA
340
4BC
340
4BE
340
4C0
340
4C2
340
4C4
340
4C6
340
4C8
340
4CA
340
4CC
340
4CE
  0
GROUP
  5
63E
102
{ACAD_REACTORS
330
D
102
}
330
D
100
AcDbGroup
300
group from kcad family
 70
     1
 71
     1
340
63F
340
641
340
643
340
645
340
647
340
649
  0
GROUP
  5
64B
102
{ACAD_REACTORS
330
D
102
}
330
D
100
AcDbGroup
300
group from kcad family
 70
     1
 71
     1
340
64C
340
64E
340
650
340
652
340
654
340
656
  0
GROUP
  5
658
102
{ACAD_REACTORS
330
D
102
}
330
D
100
AcDbGroup
300
group from kcad family
 70
     1
 71
     1
340
659
340
65B
340
65D
340
65F
340
661
340
663
  0
GROUP
  5
49A
102
{ACAD_REACTORS
330
D
102
}
330
D
100
AcDbGroup
300
group from kcad family
 70
     1
 71
     1
340
49B
340
49D
340
49F
340
4A1
340
4A3
340
4A5
340
4A7
340
4A9
340
4AB
340
4AD
340
4AF
340
4B1
340
4B3
  0
GROUP
  5
4D0
102
{ACAD_REACTORS
330
D
102
}
330
D
100
AcDbGroup
300
group from kcad family
 70
     1
 71
     1
340
4D1
340
4D3
340
4D5
340
4D7
340
4D9
340
4DB
340
4DD
340
4DF
340
4E1
340
4E3
340
4E5
340
4E7
  0
LAYOUT
  5
22
102
{ACAD_REACTORS
330
1A
102
}
330
1A
100
AcDbPlotSettings
  1

  2
DWF ePlot.pc3
  4
ISO_A3_(297.00_x_420.00_MM)
  6

 40
5.793749809265136
 41
17.79375076293945
 42
5.79376220703125
 43
17.79376220703125
 44
297.0
 45
420.0
 46
0.0
 47
0.0
 48
-295.7533
 49
204.2931
140
-6.5391
141
2.8704
142
0.0
143
0.0
 70
 11952
 72
     1
 73
     0
 74
     4
  7

 75
     0
147
1.0
148
0.0
149
0.0
100
AcDbLayout
  1
Model
 70
     1
 71
     0
 10
-354.629
 20
-43.78333689299999
 11
65.37099999999998
 21
253.2166631069999
 12
0.0
 22
0.0
 32
0.0
 14
-282.0
 24
7.777080253824909
 34
0.0
 15
-15.0
 25
194.7166595459
 35
0.0
146
0.0
 13
0.0
 23
0.0
 33
0.0
 16
1.0
 26
0.0
 36
0.0
 17
0.0
 27
1.0
 37
0.0
 76
     0
330
1F
  0
LAYOUT
  5
22F
102
{ACAD_REACTORS
330
1A
102
}
330
1A
100
AcDbPlotSettings
  1

  2
D:\ACAD2000\plotters\HP DesignJet 700(System).pc3
  4

  6

 40
0.0
 41
0.0
 42
0.0
 43
0.0
 44
0.0
 45
0.0
 46
0.0
 47
0.0
 48
0.0
 49
0.0
140
0.0
141
0.0
142
1.0
143
1.0
 70
   688
 72
     0
 73
     0
 74
     5
  7
monochrome.ctb
 75
    16
147
1.0
148
0.0
149
0.0
100
AcDbLayout
  1
ﾚｲｱｳﾄ1
 70
     1
 71
     1
 10
0.0
 20
0.0
 11
12.0
 21
9.0
 12
0.0
 22
0.0
 32
0.0
 14
0.0
 24
0.0
 34
0.0
 15
0.0
 25
0.0
 35
0.0
146
0.0
 13
0.0
 23
0.0
 33
0.0
 16
1.0
 26
0.0
 36
0.0
 17
0.0
 27
1.0
 37
0.0
 76
     0
330
73
  0
MLINESTYLE
  5
18
102
{ACAD_REACTORS
330
17
102
}
330
17
100
AcDbMlineStyle
  2
Standard
 70
     0
  3

 62
   256
 51
90.0
 52
90.0
 71
     2
 49
0.5
 62
   256
  6
BYLAYER
 49
-0.5
 62
   256
  6
BYLAYER
  0
ACDBPLACEHOLDER
  5
F
102
{ACAD_REACTORS
330
E
102
}
330
E
  0
TABLESTYLE
  5
93
102
{ACAD_REACTORS
330
92
102
}
330
92
100
AcDbTableStyle
  3
Standard
 70
     0
 71
     0
 40
0.06
 41
0.06
280
     0
281
     0
  7
Standard
140
0.18
170
     2
 62
     0
 63
     7
283
     0
274
    -2
284
     1
 64
     0
275
    -2
285
     1
 65
     0
276
    -2
286
     1
 66
     0
277
    -2
287
     1
 67
     0
278
    -2
288
     1
 68
     0
279
    -2
289
     1
 69
     0
  7
Standard
140
0.25
170
     5
 62
     0
 63
     7
283
     0
274
    -2
284
     1
 64
     0
275
    -2
285
     1
 65
     0
276
    -2
286
     1
 66
     0
277
    -2
287
     1
 67
     0
278
    -2
288
     1
 68
     0
279
    -2
289
     1
 69
     0
  7
Standard
140
0.18
170
     5
 62
     0
 63
     7
283
     0
274
    -2
284
     1
 64
     0
275
    -2
285
     1
 65
     0
276
    -2
286
     1
 66
     0
277
    -2
287
     1
 67
     0
278
    -2
288
     1
 68
     0
279
    -2
289
     1
 69
     0
  0
XRECORD
  5
7BF
102
{ACAD_REACTORS
330
7BE
102
}
330
7BE
100
AcDbXrecord
280
     1
340
6C
  0
XRECORD
  5
7C0
102
{ACAD_REACTORS
330
7BE
102
}
330
7BE
100
AcDbXrecord
280
     1
340
6B
  0
DICTIONARYVAR
  5
98
102
{ACAD_REACTORS
330
59
102
}
330
59
100
DictionaryVariables
280
     0
  1
STANDARD
  0
DICTIONARYVAR
  5
7BD
102
{ACAD_REACTORS
330
59
102
}
330
59
100
DictionaryVariables
280
     0
  1
1
  0
DICTIONARYVAR
  5
77B
102
{ACAD_REACTORS
330
59
102
}
330
59
100
DictionaryVariables
280
     0
  1
1
  0
ENDSEC
  0
EOF
