999
Outputted By AR_CAD Ver.1.5.0d
  0
SECTION
  2
HEADER
  9
$ACADVER
  1
AC1009
  9
$DWGCODEPAGE
  3
DOS932
  9
$EXTMIN
 10
0
 20
0
  9
$EXTMAX
 10
297
 20
210
  9
$INSBASE
 10
0.0
 20
0.0
 30
0.0
  9
$HANDLING
 70
     1
  9
$LTSCALE
 40
1
  0
ENDSEC
  0
SECTION
  2
TABLES
  0
TABLE
  2
LTYPE
 70
     9
  0
LTYPE
  2
BYBLOCK
 70
    64
 3

 72
    65
 73
    0
 40
    0
  0
LTYPE
  2
BYLAYER
 70
    64
 3

 72
    65
 73
    0
 40
    0
  0
LTYPE
  2
CONTINUOUS
 70
    64
 3
CONTINUOUS
 72
    65
 73
    0
 40
    0
  0
LTYPE
  2
DASHED
 70
    64
 3

 72
    65
 73
    2
 40
    0.75
 49
    0.5
 49
    -0.25
  0
LTYPE
  2
DOT
 70
    64
 3

 72
    65
 73
    2
 40
    0.5
 49
    0.25
 49
    -0.25
  0
LTYPE
  2
DASHDOT
 70
    64
 3

 72
    65
 73
    4
 40
    3.5
 49
    1.84210526315789
 49
    -0.552631578947368
 49
    0.552631578947368
 49
    -0.552631578947368
  0
LTYPE
  2
DIVIDE
 70
    64
 3

 72
    65
 73
    6
 40
    3.5
 49
    1.4
 49
    -0.42
 49
    0.42
 49
    -0.42
 49
    0.42
 49
    -0.42
  0
LTYPE
  2
HIDDEN
 70
    64
 3

 72
    65
 73
    2
 40
    0.375
 49
    0.25
 49
    -0.125
  0
LTYPE
  2
CENTER
 70
    64
 3

 72
    65
 73
    4
 40
    2
 49
    1.25
 49
    -0.25
 49
    0.25
 49
    -0.25
  0
LTYPE
  2
PHANTOM
 70
    64
 3

 72
    65
 73
    6
 40
    2.5
 49
    1.25
 49
    -0.25
 49
    0.25
 49
    -0.25
 49
    0.25
 49
    -0.25
  0
ENDTAB
  0
TABLE
  2
LAYER
 70
   257
  0
LAYER
  2
0
 70
    0
 62
7
  6
CONTINUOUS
  0
LAYER
  2
001
 70
    0
 62
7
  6
CONTINUOUS
  0
LAYER
  2
003
 70
    0
 62
7
  6
CONTINUOUS
  0
LAYER
  2
004
 70
    0
 62
7
  6
CONTINUOUS
  0
LAYER
  2
005
 70
    0
 62
7
  6
CONTINUOUS
  0
LAYER
  2
013
 70
    0
 62
7
  6
CONTINUOUS
  0
LAYER
  2
画層6
 70
    0
 62
7
  6
CONTINUOUS
  0
LAYER
  2
画層7
 70
    0
 62
51
  6
CONTINUOUS
  0
LAYER
  2
画層8
 70
    0
 62
61
  6
CONTINUOUS
  0
LAYER
  2
画層9
 70
    0
 62
111
  6
CONTINUOUS
  0
LAYER
  2
画層10
 70
    0
 62
91
  6
CONTINUOUS
  0
LAYER
  2
画層11
 70
    0
 62
131
  6
CONTINUOUS
  0
LAYER
  2
画層12
 70
    0
 62
161
  6
CONTINUOUS
  0
LAYER
  2
画層13
 70
    0
 62
5
  6
CONTINUOUS
  0
LAYER
  2
画層14
 70
    0
 62
7
  6
CONTINUOUS
  0
LAYER
  2
画層15
 70
    0
 62
11
  6
CONTINUOUS
  0
LAYER
  2
画層16
 70
    0
 62
7
  6
CONTINUOUS
  0
LAYER
  2
画層17
 70
    0
 62
70
  6
CONTINUOUS
  0
LAYER
  2
画層18
 70
    0
 62
211
  6
CONTINUOUS
  0
LAYER
  2
画層19
 70
    0
 62
137
  6
CONTINUOUS
  0
LAYER
  2
画層20
 70
    0
 62
4
  6
CONTINUOUS
  0
LAYER
  2
画層21
 70
    0
 62
131
  6
CONTINUOUS
  0
LAYER
  2
画層22
 70
    0
 62
4
  6
CONTINUOUS
  0
LAYER
  2
画層23
 70
    0
 62
4
  6
CONTINUOUS
  0
LAYER
  2
画層24
 70
    0
 62
7
  6
CONTINUOUS
  0
LAYER
  2
画層25
 70
    0
 62
7
  6
CONTINUOUS
  0
LAYER
  2
画層26
 70
    0
 62
7
  6
CONTINUOUS
  0
LAYER
  2
画層27
 70
    0
 62
7
  6
CONTINUOUS
  0
LAYER
  2
画層28
 70
    0
 62
7
  6
CONTINUOUS
  0
LAYER
  2
画層29
 70
    0
 62
7
  6
CONTINUOUS
  0
LAYER
  2
画層30
 70
    0
 62
7
  6
CONTINUOUS
  0
LAYER
  2
画層31
 70
    0
 62
7
  6
CONTINUOUS
  0
LAYER
  2
画層32
 70
    0
 62
7
  6
CONTINUOUS
  0
LAYER
  2
画層33
 70
    0
 62
7
  6
CONTINUOUS
  0
LAYER
  2
画層34
 70
    0
 62
7
  6
CONTINUOUS
  0
LAYER
  2
画層35
 70
    0
 62
7
  6
CONTINUOUS
  0
LAYER
  2
画層36
 70
    0
 62
7
  6
CONTINUOUS
  0
LAYER
  2
画層37
 70
    0
 62
7
  6
CONTINUOUS
  0
LAYER
  2
画層38
 70
    0
 62
7
  6
CONTINUOUS
  0
LAYER
  2
画層39
 70
    0
 62
7
  6
CONTINUOUS
  0
LAYER
  2
画層40
 70
    0
 62
7
  6
CONTINUOUS
  0
LAYER
  2
画層41
 70
    0
 62
7
  6
CONTINUOUS
  0
LAYER
  2
画層42
 70
    0
 62
7
  6
CONTINUOUS
  0
LAYER
  2
画層43
 70
    0
 62
7
  6
CONTINUOUS
  0
LAYER
  2
画層44
 70
    0
 62
7
  6
CONTINUOUS
  0
LAYER
  2
画層45
 70
    0
 62
7
  6
CONTINUOUS
  0
LAYER
  2
画層46
 70
    0
 62
7
  6
CONTINUOUS
  0
LAYER
  2
画層47
 70
    0
 62
7
  6
CONTINUOUS
  0
LAYER
  2
画層48
 70
    0
 62
7
  6
CONTINUOUS
  0
LAYER
  2
画層49
 70
    0
 62
7
  6
CONTINUOUS
  0
LAYER
  2
画層50
 70
    0
 62
7
  6
CONTINUOUS
  0
LAYER
  2
画層51
 70
    0
 62
7
  6
CONTINUOUS
  0
LAYER
  2
画層52
 70
    0
 62
7
  6
CONTINUOUS
  0
LAYER
  2
画層53
 70
    0
 62
7
  6
CONTINUOUS
  0
LAYER
  2
画層54
 70
    0
 62
7
  6
CONTINUOUS
  0
LAYER
  2
画層55
 70
    0
 62
7
  6
CONTINUOUS
  0
LAYER
  2
画層56
 70
    0
 62
7
  6
CONTINUOUS
  0
LAYER
  2
画層57
 70
    0
 62
7
  6
CONTINUOUS
  0
LAYER
  2
画層58
 70
    0
 62
7
  6
CONTINUOUS
  0
LAYER
  2
画層59
 70
    0
 62
7
  6
CONTINUOUS
  0
LAYER
  2
画層60
 70
    0
 62
7
  6
CONTINUOUS
  0
LAYER
  2
画層61
 70
    0
 62
7
  6
CONTINUOUS
  0
LAYER
  2
画層62
 70
    0
 62
7
  6
CONTINUOUS
  0
LAYER
  2
画層63
 70
    0
 62
7
  6
CONTINUOUS
  0
LAYER
  2
画層64
 70
    0
 62
7
  6
CONTINUOUS
  0
LAYER
  2
画層65
 70
    0
 62
7
  6
CONTINUOUS
  0
LAYER
  2
画層66
 70
    0
 62
7
  6
CONTINUOUS
  0
LAYER
  2
画層67
 70
    0
 62
7
  6
CONTINUOUS
  0
LAYER
  2
画層68
 70
    0
 62
7
  6
CONTINUOUS
  0
LAYER
  2
画層69
 70
    0
 62
7
  6
CONTINUOUS
  0
LAYER
  2
画層70
 70
    0
 62
7
  6
CONTINUOUS
  0
LAYER
  2
画層71
 70
    0
 62
7
  6
CONTINUOUS
  0
LAYER
  2
画層72
 70
    0
 62
7
  6
CONTINUOUS
  0
LAYER
  2
画層73
 70
    0
 62
7
  6
CONTINUOUS
  0
LAYER
  2
画層74
 70
    0
 62
7
  6
CONTINUOUS
  0
LAYER
  2
画層75
 70
    0
 62
7
  6
CONTINUOUS
  0
LAYER
  2
画層76
 70
    0
 62
7
  6
CONTINUOUS
  0
LAYER
  2
画層77
 70
    0
 62
7
  6
CONTINUOUS
  0
LAYER
  2
画層78
 70
    0
 62
7
  6
CONTINUOUS
  0
LAYER
  2
画層79
 70
    0
 62
7
  6
CONTINUOUS
  0
LAYER
  2
画層80
 70
    0
 62
7
  6
CONTINUOUS
  0
LAYER
  2
画層81
 70
    0
 62
7
  6
CONTINUOUS
  0
LAYER
  2
画層82
 70
    0
 62
7
  6
CONTINUOUS
  0
LAYER
  2
画層83
 70
    0
 62
7
  6
CONTINUOUS
  0
LAYER
  2
画層84
 70
    0
 62
7
  6
CONTINUOUS
  0
LAYER
  2
画層85
 70
    0
 62
7
  6
CONTINUOUS
  0
LAYER
  2
画層86
 70
    0
 62
7
  6
CONTINUOUS
  0
LAYER
  2
画層87
 70
    0
 62
7
  6
CONTINUOUS
  0
LAYER
  2
画層88
 70
    0
 62
7
  6
CONTINUOUS
  0
LAYER
  2
画層89
 70
    0
 62
7
  6
CONTINUOUS
  0
LAYER
  2
画層90
 70
    0
 62
7
  6
CONTINUOUS
  0
LAYER
  2
画層91
 70
    0
 62
7
  6
CONTINUOUS
  0
LAYER
  2
画層92
 70
    0
 62
7
  6
CONTINUOUS
  0
LAYER
  2
画層93
 70
    0
 62
7
  6
CONTINUOUS
  0
LAYER
  2
画層94
 70
    0
 62
7
  6
CONTINUOUS
  0
LAYER
  2
画層95
 70
    0
 62
7
  6
CONTINUOUS
  0
LAYER
  2
画層96
 70
    0
 62
7
  6
CONTINUOUS
  0
LAYER
  2
画層97
 70
    0
 62
7
  6
CONTINUOUS
  0
LAYER
  2
画層98
 70
    0
 62
7
  6
CONTINUOUS
  0
LAYER
  2
画層99
 70
    0
 62
7
  6
CONTINUOUS
  0
LAYER
  2
画層100
 70
    0
 62
7
  6
CONTINUOUS
  0
LAYER
  2
画層101
 70
    0
 62
7
  6
CONTINUOUS
  0
LAYER
  2
画層102
 70
    0
 62
7
  6
CONTINUOUS
  0
LAYER
  2
画層103
 70
    0
 62
7
  6
CONTINUOUS
  0
LAYER
  2
画層104
 70
    0
 62
7
  6
CONTINUOUS
  0
LAYER
  2
画層105
 70
    0
 62
7
  6
CONTINUOUS
  0
LAYER
  2
画層106
 70
    0
 62
7
  6
CONTINUOUS
  0
LAYER
  2
画層107
 70
    0
 62
7
  6
CONTINUOUS
  0
LAYER
  2
画層108
 70
    0
 62
7
  6
CONTINUOUS
  0
LAYER
  2
画層109
 70
    0
 62
7
  6
CONTINUOUS
  0
LAYER
  2
画層110
 70
    0
 62
7
  6
CONTINUOUS
  0
LAYER
  2
画層111
 70
    0
 62
7
  6
CONTINUOUS
  0
LAYER
  2
画層112
 70
    0
 62
7
  6
CONTINUOUS
  0
LAYER
  2
画層113
 70
    0
 62
7
  6
CONTINUOUS
  0
LAYER
  2
画層114
 70
    0
 62
7
  6
CONTINUOUS
  0
LAYER
  2
画層115
 70
    0
 62
7
  6
CONTINUOUS
  0
LAYER
  2
画層116
 70
    0
 62
7
  6
CONTINUOUS
  0
LAYER
  2
画層117
 70
    0
 62
7
  6
CONTINUOUS
  0
LAYER
  2
画層118
 70
    0
 62
7
  6
CONTINUOUS
  0
LAYER
  2
画層119
 70
    0
 62
7
  6
CONTINUOUS
  0
LAYER
  2
画層120
 70
    0
 62
7
  6
CONTINUOUS
  0
LAYER
  2
画層121
 70
    0
 62
7
  6
CONTINUOUS
  0
LAYER
  2
画層122
 70
    0
 62
7
  6
CONTINUOUS
  0
LAYER
  2
画層123
 70
    0
 62
7
  6
CONTINUOUS
  0
LAYER
  2
画層124
 70
    0
 62
7
  6
CONTINUOUS
  0
LAYER
  2
画層125
 70
    0
 62
7
  6
CONTINUOUS
  0
LAYER
  2
画層126
 70
    0
 62
7
  6
CONTINUOUS
  0
LAYER
  2
画層127
 70
    0
 62
7
  6
CONTINUOUS
  0
LAYER
  2
画層128
 70
    0
 62
7
  6
CONTINUOUS
  0
LAYER
  2
画層129
 70
    0
 62
7
  6
CONTINUOUS
  0
LAYER
  2
画層130
 70
    0
 62
7
  6
CONTINUOUS
  0
LAYER
  2
画層131
 70
    0
 62
7
  6
CONTINUOUS
  0
LAYER
  2
画層132
 70
    0
 62
7
  6
CONTINUOUS
  0
LAYER
  2
画層133
 70
    0
 62
7
  6
CONTINUOUS
  0
LAYER
  2
画層134
 70
    0
 62
7
  6
CONTINUOUS
  0
LAYER
  2
画層135
 70
    0
 62
7
  6
CONTINUOUS
  0
LAYER
  2
画層136
 70
    0
 62
7
  6
CONTINUOUS
  0
LAYER
  2
画層137
 70
    0
 62
7
  6
CONTINUOUS
  0
LAYER
  2
画層138
 70
    0
 62
7
  6
CONTINUOUS
  0
LAYER
  2
画層139
 70
    0
 62
7
  6
CONTINUOUS
  0
LAYER
  2
画層140
 70
    0
 62
7
  6
CONTINUOUS
  0
LAYER
  2
画層141
 70
    0
 62
7
  6
CONTINUOUS
  0
LAYER
  2
画層142
 70
    0
 62
7
  6
CONTINUOUS
  0
LAYER
  2
画層143
 70
    0
 62
7
  6
CONTINUOUS
  0
LAYER
  2
画層144
 70
    0
 62
7
  6
CONTINUOUS
  0
LAYER
  2
画層145
 70
    0
 62
7
  6
CONTINUOUS
  0
LAYER
  2
画層146
 70
    0
 62
7
  6
CONTINUOUS
  0
LAYER
  2
画層147
 70
    0
 62
7
  6
CONTINUOUS
  0
LAYER
  2
画層148
 70
    0
 62
7
  6
CONTINUOUS
  0
LAYER
  2
画層149
 70
    0
 62
7
  6
CONTINUOUS
  0
LAYER
  2
画層150
 70
    0
 62
7
  6
CONTINUOUS
  0
LAYER
  2
画層151
 70
    0
 62
7
  6
CONTINUOUS
  0
LAYER
  2
画層152
 70
    0
 62
7
  6
CONTINUOUS
  0
LAYER
  2
画層153
 70
    0
 62
7
  6
CONTINUOUS
  0
LAYER
  2
画層154
 70
    0
 62
7
  6
CONTINUOUS
  0
LAYER
  2
画層155
 70
    0
 62
7
  6
CONTINUOUS
  0
LAYER
  2
画層156
 70
    0
 62
7
  6
CONTINUOUS
  0
LAYER
  2
画層157
 70
    0
 62
7
  6
CONTINUOUS
  0
LAYER
  2
画層158
 70
    0
 62
7
  6
CONTINUOUS
  0
LAYER
  2
画層159
 70
    0
 62
7
  6
CONTINUOUS
  0
LAYER
  2
画層160
 70
    0
 62
7
  6
CONTINUOUS
  0
LAYER
  2
画層161
 70
    0
 62
7
  6
CONTINUOUS
  0
LAYER
  2
画層162
 70
    0
 62
7
  6
CONTINUOUS
  0
LAYER
  2
画層163
 70
    0
 62
7
  6
CONTINUOUS
  0
LAYER
  2
画層164
 70
    0
 62
7
  6
CONTINUOUS
  0
LAYER
  2
画層165
 70
    0
 62
7
  6
CONTINUOUS
  0
LAYER
  2
画層166
 70
    0
 62
7
  6
CONTINUOUS
  0
LAYER
  2
画層167
 70
    0
 62
7
  6
CONTINUOUS
  0
LAYER
  2
画層168
 70
    0
 62
7
  6
CONTINUOUS
  0
LAYER
  2
画層169
 70
    0
 62
7
  6
CONTINUOUS
  0
LAYER
  2
画層170
 70
    0
 62
7
  6
CONTINUOUS
  0
LAYER
  2
画層171
 70
    0
 62
7
  6
CONTINUOUS
  0
LAYER
  2
画層172
 70
    0
 62
7
  6
CONTINUOUS
  0
LAYER
  2
画層173
 70
    0
 62
7
  6
CONTINUOUS
  0
LAYER
  2
画層174
 70
    0
 62
7
  6
CONTINUOUS
  0
LAYER
  2
画層175
 70
    0
 62
7
  6
CONTINUOUS
  0
LAYER
  2
画層176
 70
    0
 62
7
  6
CONTINUOUS
  0
LAYER
  2
画層177
 70
    0
 62
7
  6
CONTINUOUS
  0
LAYER
  2
画層178
 70
    0
 62
7
  6
CONTINUOUS
  0
LAYER
  2
画層179
 70
    0
 62
7
  6
CONTINUOUS
  0
LAYER
  2
画層180
 70
    0
 62
7
  6
CONTINUOUS
  0
LAYER
  2
画層181
 70
    0
 62
7
  6
CONTINUOUS
  0
LAYER
  2
画層182
 70
    0
 62
7
  6
CONTINUOUS
  0
LAYER
  2
画層183
 70
    0
 62
7
  6
CONTINUOUS
  0
LAYER
  2
画層184
 70
    0
 62
7
  6
CONTINUOUS
  0
LAYER
  2
画層185
 70
    0
 62
7
  6
CONTINUOUS
  0
LAYER
  2
画層186
 70
    0
 62
7
  6
CONTINUOUS
  0
LAYER
  2
画層187
 70
    0
 62
7
  6
CONTINUOUS
  0
LAYER
  2
画層188
 70
    0
 62
7
  6
CONTINUOUS
  0
LAYER
  2
画層189
 70
    0
 62
7
  6
CONTINUOUS
  0
LAYER
  2
画層190
 70
    0
 62
7
  6
CONTINUOUS
  0
LAYER
  2
画層191
 70
    0
 62
7
  6
CONTINUOUS
  0
LAYER
  2
画層192
 70
    0
 62
7
  6
CONTINUOUS
  0
LAYER
  2
画層193
 70
    0
 62
7
  6
CONTINUOUS
  0
LAYER
  2
画層194
 70
    0
 62
7
  6
CONTINUOUS
  0
LAYER
  2
画層195
 70
    0
 62
7
  6
CONTINUOUS
  0
LAYER
  2
画層196
 70
    0
 62
7
  6
CONTINUOUS
  0
LAYER
  2
画層197
 70
    0
 62
7
  6
CONTINUOUS
  0
LAYER
  2
画層198
 70
    0
 62
7
  6
CONTINUOUS
  0
LAYER
  2
画層199
 70
    0
 62
7
  6
CONTINUOUS
  0
LAYER
  2
画層200
 70
    0
 62
7
  6
CONTINUOUS
  0
LAYER
  2
画層201
 70
    0
 62
7
  6
CONTINUOUS
  0
LAYER
  2
画層202
 70
    0
 62
7
  6
CONTINUOUS
  0
LAYER
  2
画層203
 70
    0
 62
7
  6
CONTINUOUS
  0
LAYER
  2
画層204
 70
    0
 62
7
  6
CONTINUOUS
  0
LAYER
  2
画層205
 70
    0
 62
7
  6
CONTINUOUS
  0
LAYER
  2
画層206
 70
    0
 62
7
  6
CONTINUOUS
  0
LAYER
  2
画層207
 70
    0
 62
7
  6
CONTINUOUS
  0
LAYER
  2
画層208
 70
    0
 62
7
  6
CONTINUOUS
  0
LAYER
  2
画層209
 70
    0
 62
7
  6
CONTINUOUS
  0
LAYER
  2
画層210
 70
    0
 62
7
  6
CONTINUOUS
  0
LAYER
  2
画層211
 70
    0
 62
7
  6
CONTINUOUS
  0
LAYER
  2
画層212
 70
    0
 62
7
  6
CONTINUOUS
  0
LAYER
  2
画層213
 70
    0
 62
7
  6
CONTINUOUS
  0
LAYER
  2
画層214
 70
    0
 62
7
  6
CONTINUOUS
  0
LAYER
  2
画層215
 70
    0
 62
7
  6
CONTINUOUS
  0
LAYER
  2
画層216
 70
    0
 62
7
  6
CONTINUOUS
  0
LAYER
  2
画層217
 70
    0
 62
7
  6
CONTINUOUS
  0
LAYER
  2
画層218
 70
    0
 62
7
  6
CONTINUOUS
  0
LAYER
  2
画層219
 70
    0
 62
7
  6
CONTINUOUS
  0
LAYER
  2
画層220
 70
    0
 62
7
  6
CONTINUOUS
  0
LAYER
  2
画層221
 70
    0
 62
7
  6
CONTINUOUS
  0
LAYER
  2
画層222
 70
    0
 62
7
  6
CONTINUOUS
  0
LAYER
  2
画層223
 70
    0
 62
7
  6
CONTINUOUS
  0
LAYER
  2
画層224
 70
    0
 62
7
  6
CONTINUOUS
  0
LAYER
  2
画層225
 70
    0
 62
7
  6
CONTINUOUS
  0
LAYER
  2
画層226
 70
    0
 62
7
  6
CONTINUOUS
  0
LAYER
  2
画層227
 70
    0
 62
7
  6
CONTINUOUS
  0
LAYER
  2
画層228
 70
    0
 62
7
  6
CONTINUOUS
  0
LAYER
  2
画層229
 70
    0
 62
7
  6
CONTINUOUS
  0
LAYER
  2
画層230
 70
    0
 62
7
  6
CONTINUOUS
  0
LAYER
  2
画層231
 70
    0
 62
7
  6
CONTINUOUS
  0
LAYER
  2
画層232
 70
    0
 62
7
  6
CONTINUOUS
  0
LAYER
  2
画層233
 70
    0
 62
7
  6
CONTINUOUS
  0
LAYER
  2
画層234
 70
    0
 62
7
  6
CONTINUOUS
  0
LAYER
  2
画層235
 70
    0
 62
7
  6
CONTINUOUS
  0
LAYER
  2
画層236
 70
    0
 62
7
  6
CONTINUOUS
  0
LAYER
  2
画層237
 70
    0
 62
7
  6
CONTINUOUS
  0
LAYER
  2
画層238
 70
    0
 62
7
  6
CONTINUOUS
  0
LAYER
  2
画層239
 70
    0
 62
7
  6
CONTINUOUS
  0
LAYER
  2
画層240
 70
    0
 62
7
  6
CONTINUOUS
  0
LAYER
  2
画層241
 70
    0
 62
7
  6
CONTINUOUS
  0
LAYER
  2
画層242
 70
    0
 62
7
  6
CONTINUOUS
  0
LAYER
  2
画層243
 70
    0
 62
7
  6
CONTINUOUS
  0
LAYER
  2
画層244
 70
    0
 62
7
  6
CONTINUOUS
  0
LAYER
  2
画層245
 70
    0
 62
7
  6
CONTINUOUS
  0
LAYER
  2
画層246
 70
    0
 62
7
  6
CONTINUOUS
  0
LAYER
  2
画層247
 70
    0
 62
7
  6
CONTINUOUS
  0
LAYER
  2
画層248
 70
    0
 62
7
  6
CONTINUOUS
  0
LAYER
  2
画層249
 70
    0
 62
7
  6
CONTINUOUS
  0
LAYER
  2
画層250
 70
    0
 62
7
  6
CONTINUOUS
  0
LAYER
  2
画層251
 70
    0
 62
7
  6
CONTINUOUS
  0
LAYER
  2
画層252
 70
    0
 62
7
  6
CONTINUOUS
  0
LAYER
  2
画層253
 70
    0
 62
7
  6
CONTINUOUS
  0
LAYER
  2
画層254
 70
    0
 62
7
  6
CONTINUOUS
  0
LAYER
  2
画層255
 70
    0
 62
7
  6
CONTINUOUS
  0
ENDTAB
  0
TABLE
  2
STYLE
 70
     1
  0
STYLE
  2
Standard
 70
     0
 40
0.0
 41
1.0
 50
0.0
 71
     0
 42
3.2
  3
TXT
  4
BIGFONT
  0
STYLE
  2
Font_0
 70
     0
 40
0.0
 41
1.0
 50
0.0
 71
     0
 42
3.2
  3
txt
  4
BIGFONT
  0
ENDTAB
  0
ENDSEC
  0
SECTION
  2
BLOCKS
  0
BLOCK
  8
0
  2
13462_KCAD_FINI-1
 70
    0
 10
0
 20
0
 30
0.0
  3
13462_KCAD_FINI-1
  1

  0
LINE
  8
001
  6
BYLAYER
 10
203.304958
 20
27.033632
 11
205.152479
 21
30.233632
  0
LINE
  8
001
  6
BYLAYER
 10
205.152479
 20
30.233632
 11
201.457437
 21
30.233632
  0
LINE
  8
001
  6
BYLAYER
 10
201.457437
 20
30.233632
 11
203.304958
 21
27.033632
  0
LINE
  8
001
  6
BYLAYER
 10
207
 20
27.033632
 11
208.847521
 21
30.233632
  0
LINE
  8
001
  6
BYLAYER
 10
208.847521
 20
30.233632
 11
205.152479
 21
30.233632
  0
LINE
  8
001
  6
BYLAYER
 10
205.152479
 20
30.233632
 11
207
 21
27.033632
  0
LINE
  8
001
  6
BYLAYER
 10
210.695042
 20
27.033632
 11
212.542563
 21
30.233632
  0
LINE
  8
001
  6
BYLAYER
 10
212.542563
 20
30.233632
 11
208.847521
 21
30.233632
  0
LINE
  8
001
  6
BYLAYER
 10
208.847521
 20
30.233632
 11
210.695042
 21
27.033632
  0
ENDBLK
  0
ENDSEC
  0
SECTION
  2
ENTITIES
  0
INSERT
  8
001
  6
BYBLOCK
  2
13462_KCAD_FINI-1
 10
0
 20
0
 30
0.0
  0
LINE
  8
001
  6
BYLAYER
 10
238.371946
 20
85.911398
 11
238.371946
 21
73.472941
  0
LINE
  8
001
  6
BYLAYER
 10
242.371946
 20
89.011398
 11
242.371946
 21
73.472941
  0
LINE
  8
001
  6
BYLAYER
 10
238.371946
 20
74.972941
 11
242.371946
 21
74.972941
  0
POLYLINE
  8
001
  6
BYLAYER
 10
0.0
 20
0.0
 30
0.0
 66
1
  0
VERTEX
  8
001
 10
234.871946
  20
75.910763
  0
VERTEX
  8
001
 10
238.371946
  20
74.972941
  0
VERTEX
  8
001
 10
234.871946
  20
74.035118
  0
SEQEND
100
AcDbEntity
  8
001
  0
POLYLINE
  8
001
  6
BYLAYER
 10
0.0
 20
0.0
 30
0.0
 66
1
  0
VERTEX
  8
001
 10
245.871946
  20
74.035118
  0
VERTEX
  8
001
 10
242.371946
  20
74.972941
  0
VERTEX
  8
001
 10
245.871946
  20
75.910763
  0
SEQEND
100
AcDbEntity
  8
001
  0
TEXT
  8
001
  6
BYLAYER
 10
247.371946
 20
75.972941
 40
3
 41
0.824255
  1
４
  7
Font_0
  0
LINE
  8
001
  6
BYLAYER
 10
238.371946
 20
74.972941
 11
233.871946
 21
74.972941
  0
LINE
  8
001
  6
BYLAYER
 10
242.371946
 20
74.972941
 11
253.339264
 21
74.972941
  0
LINE
  8
001
  6
BYLAYER
 10
147.552946
 20
109.111398
 11
131.523864
 21
109.111398
  0
LINE
  8
001
  6
BYLAYER
 10
147.552946
 20
93.111398
 11
131.523864
 21
93.111398
  0
LINE
  8
001
  6
BYLAYER
 10
133.023864
 20
109.111398
 11
133.023864
 21
93.111398
  0
POLYLINE
  8
001
  6
BYLAYER
 10
0.0
 20
0.0
 30
0.0
 66
1
  0
VERTEX
  8
001
 10
132.086042
  20
105.611398
  0
VERTEX
  8
001
 10
133.023864
  20
109.111398
  0
VERTEX
  8
001
 10
133.961686
  20
105.611398
  0
SEQEND
100
AcDbEntity
  8
001
  0
POLYLINE
  8
001
  6
BYLAYER
 10
0.0
 20
0.0
 30
0.0
 66
1
  0
VERTEX
  8
001
 10
133.961686
  20
96.611398
  0
VERTEX
  8
001
 10
133.023864
  20
93.111398
  0
VERTEX
  8
001
 10
132.086042
  20
96.611398
  0
SEQEND
100
AcDbEntity
  8
001
  0
TEXT
  8
001
  6
BYLAYER
 10
132.023864
 20
97.234451
 40
3
 41
0.886368
  1
%%c１６
  7
Font_0
 50
90.000003
  0
LINE
  8
001
  6
BYLAYER
 10
241.771946
 20
88.411398
 11
257.257231
 21
88.411398
  0
LINE
  8
001
  6
BYLAYER
 10
241.771946
 20
113.811398
 11
257.257231
 21
113.811398
  0
LINE
  8
001
  6
BYLAYER
 10
255.757231
 20
88.411398
 11
255.757231
 21
113.811398
  0
POLYLINE
  8
001
  6
BYLAYER
 10
0.0
 20
0.0
 30
0.0
 66
1
  0
VERTEX
  8
001
 10
256.695053
  20
91.911398
  0
VERTEX
  8
001
 10
255.757231
  20
88.411398
  0
VERTEX
  8
001
 10
254.819409
  20
91.911398
  0
SEQEND
100
AcDbEntity
  8
001
  0
POLYLINE
  8
001
  6
BYLAYER
 10
0.0
 20
0.0
 30
0.0
 66
1
  0
VERTEX
  8
001
 10
254.819409
  20
110.311398
  0
VERTEX
  8
001
 10
255.757231
  20
113.811398
  0
VERTEX
  8
001
 10
256.695053
  20
110.311398
  0
SEQEND
100
AcDbEntity
  8
001
  0
TEXT
  8
001
  6
BYLAYER
 10
254.757231
 20
93.678533
 40
3
 41
0.825874
  1
Ｃマウント
  7
Font_0
 50
90.000003
  0
LINE
  8
001
  6
BYLAYER
 10
238.071946
 20
85.611398
 11
263.730286
 21
85.611398
  0
LINE
  8
001
  6
BYLAYER
 10
238.071946
 20
116.611398
 11
263.730286
 21
116.611398
  0
LINE
  8
001
  6
BYLAYER
 10
262.230286
 20
85.611398
 11
262.230286
 21
116.611398
  0
POLYLINE
  8
001
  6
BYLAYER
 10
0.0
 20
0.0
 30
0.0
 66
1
  0
VERTEX
  8
001
 10
263.168108
  20
89.111398
  0
VERTEX
  8
001
 10
262.230286
  20
85.611398
  0
VERTEX
  8
001
 10
261.292464
  20
89.111398
  0
SEQEND
100
AcDbEntity
  8
001
  0
POLYLINE
  8
001
  6
BYLAYER
 10
0.0
 20
0.0
 30
0.0
 66
1
  0
VERTEX
  8
001
 10
261.292464
  20
113.111398
  0
VERTEX
  8
001
 10
262.230286
  20
116.611398
  0
VERTEX
  8
001
 10
263.168108
  20
113.111398
  0
SEQEND
100
AcDbEntity
  8
001
  0
TEXT
  8
001
  6
BYLAYER
 10
261.230286
 20
96.702812
 40
3
 41
0.864429
  1
%%c３１
  7
Font_0
 50
90.000003
  0
LINE
  8
001
  6
BYLAYER
 10
147.252946
 20
93.411398
 11
147.252946
 21
73.472941
  0
LINE
  8
001
  6
BYLAYER
 10
37.252946
 20
97.513668
 11
37.252946
 21
73.472941
  0
LINE
  8
001
  6
BYLAYER
 10
147.252946
 20
74.972941
 11
37.252946
 21
74.972941
  0
POLYLINE
  8
001
  6
BYLAYER
 10
0.0
 20
0.0
 30
0.0
 66
1
  0
VERTEX
  8
001
 10
143.752946
  20
75.910763
  0
VERTEX
  8
001
 10
147.252946
  20
74.972941
  0
VERTEX
  8
001
 10
143.752946
  20
74.035118
  0
SEQEND
100
AcDbEntity
  8
001
  0
POLYLINE
  8
001
  6
BYLAYER
 10
0.0
 20
0.0
 30
0.0
 66
1
  0
VERTEX
  8
001
 10
40.752946
  20
74.035118
  0
VERTEX
  8
001
 10
37.252946
  20
74.972941
  0
VERTEX
  8
001
 10
40.752946
  20
75.910763
  0
SEQEND
100
AcDbEntity
  8
001
  0
TEXT
  8
001
  6
BYLAYER
 10
77.783892
 20
75.972941
 40
3
 41
0.836045
  1
Ｗ．Ｄ．＝１１０
  7
Font_0
  0
TEXT
  8
001
  6
BYLAYER
 10
101.860482
 20
76.272941
 40
2.4
 41
0.920818
  1
%%p２
  7
Font_0
  0
LINE
  8
001
  6
BYLAYER
 10
238.372946
 20
85.914471
 11
238.372946
 21
73.472941
  0
LINE
  8
001
  6
BYLAYER
 10
147.252946
 20
74.972941
 11
238.372946
 21
74.972941
  0
POLYLINE
  8
001
  6
BYLAYER
 10
0.0
 20
0.0
 30
0.0
 66
1
  0
VERTEX
  8
001
 10
150.752946
  20
74.035118
  0
VERTEX
  8
001
 10
147.252946
  20
74.972941
  0
VERTEX
  8
001
 10
150.752946
  20
75.910763
  0
SEQEND
100
AcDbEntity
  8
001
  0
POLYLINE
  8
001
  6
BYLAYER
 10
0.0
 20
0.0
 30
0.0
 66
1
  0
VERTEX
  8
001
 10
234.872946
  20
75.910763
  0
VERTEX
  8
001
 10
238.372946
  20
74.972941
  0
VERTEX
  8
001
 10
234.872946
  20
74.035118
  0
SEQEND
100
AcDbEntity
  8
001
  0
TEXT
  8
001
  6
BYLAYER
 10
185.222974
 20
75.972941
 40
3
 41
0.84333
  1
９１．１２
  7
Font_0
  0
LINE
  8
013
  6
BYLAYER
 10
287
 20
201
 11
12
 21
201
  0
LINE
  8
013
  6
BYLAYER
 10
12
 20
201
 11
12
 21
14
  0
LINE
  8
013
  6
BYLAYER
 10
287
 20
201
 11
287
 21
14
  0
LINE
  8
013
  6
BYLAYER
 10
148.5
 20
201
 11
148.5
 21
203.5
  0
LINE
  8
013
  6
BYLAYER
 10
287
 20
14
 11
12
 21
14
  0
LINE
  8
013
  6
BYLAYER
 10
97
 20
46.5
 11
287
 21
46.5
  0
LINE
  8
013
  6
BYLAYER
 10
227
 20
46.5
 11
227
 21
14
  0
LINE
  8
013
  6
BYLAYER
 10
287
 20
34
 11
12
 21
34
  0
LINE
  8
013
  6
BYLAYER
 10
182
 20
14
 11
182
 21
46.5
  0
LINE
  8
013
  6
BYLAYER
 10
232
 20
14
 11
232
 21
34
  0
LINE
  8
013
  6
BYLAYER
 10
287
 20
24
 11
182
 21
24
  0
LINE
  8
013
  6
BYLAYER
 10
97
 20
39
 11
287
 21
39
  0
LINE
  8
013
  6
BYLAYER
 10
187
 20
14
 11
187
 21
34
  0
LINE
  8
013
  6
BYLAYER
 10
14.879869
 20
30.218095
 11
16.213203
 21
27.908694
  0
LINE
  8
013
  6
BYLAYER
 10
16.213203
 20
27.908694
 11
13.546536
 21
27.908694
  0
LINE
  8
013
  6
BYLAYER
 10
13.546536
 20
27.908694
 11
14.879869
 21
30.218095
  0
LINE
  8
013
  6
BYLAYER
 10
13.544192
 20
31.220796
 11
14.877526
 21
33.530197
  0
LINE
  8
013
  6
BYLAYER
 10
16.210859
 20
31.220796
 11
13.544192
 21
31.220796
  0
LINE
  8
013
  6
BYLAYER
 10
14.877526
 20
33.530197
 11
16.210859
 21
31.220796
  0
LINE
  8
013
  6
BYLAYER
 10
17.4
 20
24
 11
17.4
 21
34
  0
LINE
  8
013
  6
BYLAYER
 10
30
 20
14
 11
30
 21
34
  0
LINE
  8
013
  6
BYLAYER
 10
12
 20
24
 11
97
 21
24
  0
LINE
  8
013
  6
BYLAYER
 10
12
 20
27.333333
 11
97
 21
27.333333
  0
LINE
  8
013
  6
BYLAYER
 10
12
 20
30.666667
 11
97
 21
30.666667
  0
LINE
  8
013
  6
BYLAYER
 10
38
 20
24
 11
38
 21
34
  0
LINE
  8
013
  6
BYLAYER
 10
97
 20
29
 11
182
 21
29
  0
LINE
  8
013
  6
BYLAYER
 10
97
 20
19
 11
118
 21
19
  0
LINE
  8
013
  6
BYLAYER
 10
166
 20
14
 11
166
 21
46.5
  0
LINE
  8
013
  6
BYLAYER
 10
150
 20
14
 11
150
 21
34
  0
LINE
  8
013
  6
BYLAYER
 10
134
 20
14
 11
134
 21
34
  0
LINE
  8
013
  6
BYLAYER
 10
118
 20
14
 11
118
 21
46.5
  0
LINE
  8
013
  6
BYLAYER
 10
97
 20
14
 11
97
 21
46.5
  0
LINE
  8
013
  6
BYLAYER
 10
287
 20
105
 11
289.5
 21
105
  0
LINE
  8
013
  6
BYLAYER
 10
12
 20
105
 11
9.5
 21
105
  0
LINE
  8
013
  6
BYLAYER
 10
139.175302
 20
11.520886
 11
133.5
 21
11.520886
  0
LINE
  8
013
  6
BYLAYER
 10
136.914043
 20
10.525613
 11
139.175302
 21
10.525613
  0
LINE
  8
013
  6
BYLAYER
 10
136.914043
 20
7
 11
136.914043
 21
10.525613
  0
LINE
  8
013
  6
BYLAYER
 10
135.725693
 20
10.525613
 11
135.725693
 21
7
  0
LINE
  8
013
  6
BYLAYER
 10
133.5
 20
10.525613
 11
135.725693
 21
10.525613
  0
LINE
  8
013
  6
BYLAYER
 10
139.175302
 20
10.525613
 11
139.175302
 21
11.520886
  0
ARC
  8
013
  6
BYLAYER
 10
140.145007
 20
9.290613
 40
1.19452833626335
 50
90
 51
180
  0
LINE
  8
013
  6
BYLAYER
 10
138.950479
 20
9.290613
 11
138.950479
 21
8.194528
  0
LINE
  8
013
  6
BYLAYER
 10
143.103528
 20
10.485141
 11
140.145007
 21
10.485141
  0
ARC
  8
013
  6
BYLAYER
 10
140.084926
 20
9.43385
 40
0.162890227672278
 50
90
 51
180
  0
LINE
  8
013
  6
BYLAYER
 10
139.922035
 20
9.43385
 11
139.922035
 21
8.058033
  0
LINE
  8
013
  6
BYLAYER
 10
143.02112
 20
9.59674
 11
140.084926
 21
9.59674
  0
ARC
  8
013
  6
BYLAYER
 10
140.145007
 20
8.194528
 40
1.19452833626335
 50
180
 51
270
  0
LINE
  8
013
  6
BYLAYER
 10
133.5
 20
11.520886
 11
133.5
 21
10.525613
  0
ARC
  8
013
  6
BYLAYER
 10
140.084926
 20
8.058033
 40
0.162890227672275
 50
180
 51
270
  0
LINE
  8
013
  6
BYLAYER
 10
135.725693
 20
7
 11
136.914043
 21
7
  0
LINE
  8
013
  6
BYLAYER
 10
140.084926
 20
7.895143
 11
143.02112
 21
7.895143
  0
LINE
  8
013
  6
BYLAYER
 10
140.145007
 20
7
 11
143.103528
 21
7
  0
ARC
  8
013
  6
BYLAYER
 10
143.103528
 20
9.290613
 40
1.19452833626335
 50
0
 51
90
  0
ARC
  8
013
  6
BYLAYER
 10
143.02112
 20
9.43385
 40
0.162890227672275
 50
0
 51
90
  0
LINE
  8
013
  6
BYLAYER
 10
143.18401
 20
8.058033
 11
143.18401
 21
9.43385
  0
ARC
  8
013
  6
BYLAYER
 10
143.02112
 20
8.058033
 40
0.162890227672278
 50
270
 51
0
  0
ARC
  8
013
  6
BYLAYER
 10
143.103528
 20
8.194528
 40
1.19452833626335
 50
270
 51
0
  0
LINE
  8
013
  6
BYLAYER
 10
144.298056
 20
8.194528
 11
144.298056
 21
9.290613
  0
LINE
  8
013
  6
BYLAYER
 10
144.843504
 20
11.520886
 11
144.843504
 21
7
  0
LINE
  8
013
  6
BYLAYER
 10
145.89917
 20
11.520886
 11
144.843504
 21
11.520886
  0
LINE
  8
013
  6
BYLAYER
 10
145.89917
 20
8.935599
 11
145.89917
 21
11.520886
  0
LINE
  8
013
  6
BYLAYER
 10
144.843504
 20
7
 11
145.89917
 21
7
  0
ARC
  8
013
  6
BYLAYER
 10
146.007764
 20
8.935599
 40
0.108593485114848
 50
180
 51
305.751288
  0
ARC
  8
013
  6
BYLAYER
 10
146.007764
 20
8.550082
 40
0.108593485114852
 50
52.952191
 51
180
  0
LINE
  8
013
  6
BYLAYER
 10
145.89917
 20
7
 11
145.89917
 21
8.550082
  0
LINE
  8
013
  6
BYLAYER
 10
148.335296
 20
10.477454
 11
146.071211
 21
8.847469
  0
LINE
  8
013
  6
BYLAYER
 10
148.241468
 20
7
 11
146.073189
 21
8.636754
  0
LINE
  8
013
  6
BYLAYER
 10
149.997381
 20
10.477454
 11
147.398008
 21
8.74091
  0
LINE
  8
013
  6
BYLAYER
 10
147.398008
 20
8.74091
 11
150.053587
 21
7
  0
LINE
  8
013
  6
BYLAYER
 10
149.997381
 20
10.477454
 11
148.335296
 21
10.477454
  0
LINE
  8
013
  6
BYLAYER
 10
148.241468
 20
7
 11
150.053587
 21
7
  0
LINE
  8
013
  6
BYLAYER
 10
150.724828
 20
11.520886
 11
150.724828
 21
10.725093
  0
LINE
  8
013
  6
BYLAYER
 10
151.779907
 20
11.520886
 11
150.724828
 21
11.520886
  0
LINE
  8
013
  6
BYLAYER
 10
150.724828
 20
10.725093
 11
151.779907
 21
10.725093
  0
LINE
  8
013
  6
BYLAYER
 10
151.779907
 20
10.477454
 11
150.724828
 21
10.477454
  0
LINE
  8
013
  6
BYLAYER
 10
150.724828
 20
10.477454
 11
150.724828
 21
7
  0
LINE
  8
013
  6
BYLAYER
 10
150.724828
 20
7
 11
151.779907
 21
7
  0
LINE
  8
013
  6
BYLAYER
 10
151.779907
 20
10.725093
 11
151.779907
 21
11.520886
  0
LINE
  8
013
  6
BYLAYER
 10
151.779907
 20
7
 11
151.779907
 21
10.477454
  0
LINE
  8
013
  6
BYLAYER
 10
152.396549
 20
10.477454
 11
156.525773
 21
10.477454
  0
LINE
  8
013
  6
BYLAYER
 10
152.396549
 20
7
 11
152.396549
 21
10.477454
  0
LINE
  8
013
  6
BYLAYER
 10
153.45643
 20
7
 11
152.396549
 21
7
  0
LINE
  8
013
  6
BYLAYER
 10
153.45643
 20
9.586524
 11
153.45643
 21
7
  0
LINE
  8
013
  6
BYLAYER
 10
156.298442
 20
9.586524
 11
153.45643
 21
9.586524
  0
ARC
  8
013
  6
BYLAYER
 10
156.298442
 20
9.369337
 40
0.217186970229699
 50
0
 51
90
  0
ARC
  8
013
  6
BYLAYER
 10
156.525773
 20
9.427717
 40
1.04973702277688
 50
0
 51
90
  0
LINE
  8
013
  6
BYLAYER
 10
156.515629
 20
7
 11
156.515629
 21
9.369337
  0
LINE
  8
013
  6
BYLAYER
 10
157.57551
 20
7
 11
156.515629
 21
7
  0
LINE
  8
013
  6
BYLAYER
 10
157.57551
 20
9.427717
 11
157.57551
 21
7
  0
LINE
  8
013
  6
BYLAYER
 10
162.330899
 20
10.477454
 11
158.214725
 21
10.477454
  0
LINE
  8
013
  6
BYLAYER
 10
158.214725
 20
10.477454
 11
158.214725
 21
9.689584
  0
LINE
  8
013
  6
BYLAYER
 10
158.214725
 20
9.689584
 11
162.257198
 21
9.689584
  0
POLYLINE
  8
013
  6
BYLAYER
 10
0.0
 20
0.0
 30
0.0
 66
1
  0
VERTEX
  8
013
 10
159.33884
  20
9.103412
  0
VERTEX
  8
013
 10
159.226657
  20
9.101185
  0
VERTEX
  8
013
 10
159.114588
  20
9.096556
  0
VERTEX
  8
013
 10
158.997005
  20
9.086841
  0
VERTEX
  8
013
 10
158.879991
  20
9.071301
  0
VERTEX
  8
013
 10
158.757371
  20
9.047697
  0
VERTEX
  8
013
 10
158.636974
  20
9.014779
  0
VERTEX
  8
013
 10
158.580319
  20
8.994881
  0
VERTEX
  8
013
 10
158.525089
  20
8.971485
  0
VERTEX
  8
013
 10
158.467976
  20
8.941807
  0
VERTEX
  8
013
 10
158.413205
  20
8.907746
  0
VERTEX
  8
013
 10
158.35527
  20
8.865005
  0
VERTEX
  8
013
 10
158.302523
  20
8.816348
  0
VERTEX
  8
013
 10
158.273385
  20
8.78296
  0
VERTEX
  8
013
 10
158.246714
  20
8.747462
  0
VERTEX
  8
013
 10
158.219586
  20
8.70581
  0
VERTEX
  8
013
 10
158.196185
  20
8.662076
  0
VERTEX
  8
013
 10
158.174978
  20
8.609529
  0
VERTEX
  8
013
 10
158.158891
  20
8.555044
  0
VERTEX
  8
013
 10
158.146306
  20
8.49586
  0
VERTEX
  8
013
 10
158.138439
  20
8.435986
  0
VERTEX
  8
013
 10
158.135048
  20
8.372494
  0
VERTEX
  8
013
 10
158.134431
  20
8.308798
  0
SEQEND
100
AcDbEntity
  8
013
  0
LINE
  8
013
  6
BYLAYER
 10
158.134431
 20
8.308798
 11
158.134431
 21
7.779056
  0
POLYLINE
  8
013
  6
BYLAYER
 10
0.0
 20
0.0
 30
0.0
 66
1
  0
VERTEX
  8
013
 10
159.33884
  20
7
  0
VERTEX
  8
013
 10
159.226657
  20
7.002227
  0
VERTEX
  8
013
 10
159.114588
  20
7.006856
  0
VERTEX
  8
013
 10
158.997005
  20
7.016571
  0
VERTEX
  8
013
 10
158.879991
  20
7.032111
  0
VERTEX
  8
013
 10
158.757371
  20
7.055715
  0
VERTEX
  8
013
 10
158.636974
  20
7.088633
  0
VERTEX
  8
013
 10
158.580319
  20
7.108531
  0
VERTEX
  8
013
 10
158.525089
  20
7.131927
  0
VERTEX
  8
013
 10
158.467976
  20
7.161605
  0
VERTEX
  8
013
 10
158.413205
  20
7.195666
  0
VERTEX
  8
013
 10
158.35527
  20
7.238407
  0
VERTEX
  8
013
 10
158.302523
  20
7.287064
  0
VERTEX
  8
013
 10
158.273385
  20
7.320452
  0
VERTEX
  8
013
 10
158.246714
  20
7.35595
  0
VERTEX
  8
013
 10
158.219586
  20
7.397602
  0
VERTEX
  8
013
 10
158.196185
  20
7.441336
  0
VERTEX
  8
013
 10
158.174978
  20
7.493883
  0
VERTEX
  8
013
 10
158.158891
  20
7.548368
  0
VERTEX
  8
013
 10
158.146306
  20
7.607552
  0
VERTEX
  8
013
 10
158.138439
  20
7.667426
  0
VERTEX
  8
013
 10
158.135048
  20
7.730918
  0
VERTEX
  8
013
 10
158.134431
  20
7.794614
  0
SEQEND
100
AcDbEntity
  8
013
  0
LINE
  8
013
  6
BYLAYER
 10
162.438187
 20
9.103412
 11
159.33884
 21
9.103412
  0
LINE
  8
013
  6
BYLAYER
 10
159.33884
 20
8.308798
 11
159.33884
 21
7.779056
  0
LINE
  8
013
  6
BYLAYER
 10
162.438187
 20
8.308798
 11
159.33884
 21
8.308798
  0
LINE
  8
013
  6
BYLAYER
 10
159.33884
 20
7.779056
 11
162.438187
 21
7.779056
  0
LINE
  8
013
  6
BYLAYER
 10
159.33884
 20
7
 11
163.500011
 21
7
  0
ARC
  8
013
  6
BYLAYER
 10
162.257198
 20
9.508594
 40
0.180989141858083
 50
0
 51
90
  0
POLYLINE
  8
013
  6
BYLAYER
 10
0.0
 20
0.0
 30
0.0
 66
1
  0
VERTEX
  8
013
 10
163.500011
  20
9.303488
  0
VERTEX
  8
013
 10
163.493682
  20
9.419365
  0
VERTEX
  8
013
 10
163.484701
  20
9.535046
  0
VERTEX
  8
013
 10
163.470425
  20
9.650095
  0
VERTEX
  8
013
 10
163.448136
  20
9.76393
  0
VERTEX
  8
013
 10
163.419801
  20
9.861668
  0
VERTEX
  8
013
 10
163.380868
  20
9.955449
  0
VERTEX
  8
013
 10
163.323336
  20
10.052559
  0
VERTEX
  8
013
 10
163.252831
  20
10.141189
  0
VERTEX
  8
013
 10
163.18106
  20
10.212308
  0
VERTEX
  8
013
 10
163.101373
  20
10.273861
  0
VERTEX
  8
013
 10
163.006783
  20
10.327929
  0
VERTEX
  8
013
 10
162.906195
  20
10.370634
  0
VERTEX
  8
013
 10
162.777997
  20
10.411068
  0
VERTEX
  8
013
 10
162.646998
  20
10.440872
  0
VERTEX
  8
013
 10
162.564482
  20
10.455113
  0
VERTEX
  8
013
 10
162.481487
  20
10.465845
  0
VERTEX
  8
013
 10
162.406273
  20
10.472458
  0
VERTEX
  8
013
 10
162.330899
  20
10.477454
  0
SEQEND
100
AcDbEntity
  8
013
  0
LINE
  8
013
  6
BYLAYER
 10
162.438187
 20
9.508594
 11
162.438187
 21
9.103412
  0
LINE
  8
013
  6
BYLAYER
 10
162.438187
 20
7.779056
 11
162.438187
 21
8.308798
  0
LINE
  8
013
  6
BYLAYER
 10
163.500011
 20
7
 11
163.500011
 21
9.303488
  0
TEXT
  8
013
  6
BYLAYER
 10
227.729914
 20
30.885552
 40
2.7
 41
1.266667
  1
製
  7
Font_0
  0
TEXT
  8
013
  6
BYLAYER
 10
227.729914
 20
27.785552
 40
2.7
 41
1.266667
  1
品
  7
Font_0
  0
TEXT
  8
013
  6
BYLAYER
 10
227.729914
 20
24.685552
 40
2.7
 41
1.266667
  1
名
  7
Font_0
  0
TEXT
  8
013
  6
BYLAYER
 10
183.015468
 20
19.595361
 40
2.7
 41
1.203333
  1
面
  7
Font_0
  0
TEXT
  8
013
  6
BYLAYER
 10
183.015468
 20
16.095361
 40
2.7
 41
1.203333
  1
取
  7
Font_0
  0
TEXT
  8
013
  6
BYLAYER
 10
182.668526
 20
25.867233
 40
2.7
 41
1.27
  1
上
  7
Font_0
  0
TEXT
  8
013
  6
BYLAYER
 10
182.668526
 20
29.367233
 40
2.7
 41
1.266667
  1
仕
  7
Font_0
  0
TEXT
  8
013
  6
BYLAYER
 10
227.65
 20
20.15
 40
2.7
 41
1.266667
  1
図
  7
Font_0
  0
TEXT
  8
013
  6
BYLAYER
 10
227.65
 20
15.65
 40
2.7
 41
1.266667
  1
番
  7
Font_0
  0
TEXT
  8
013
  6
BYLAYER
 10
14.607694
 20
31.472834
 40
1.356
 41
0.577433
  1
2
  7
Font_0
  0
TEXT
  8
013
  6
BYLAYER
 10
14.740244
 20
28.146594
 40
1.356
 41
0.577433
  1
1
  7
Font_0
  0
LINE
  8
001
  6
BYLAYER
 10
136.895516
 20
7
 11
136.914043
 21
7.018527
  0
LINE
  8
001
  6
BYLAYER
 10
136.824805
 20
7
 11
136.914043
 21
7.089238
  0
LINE
  8
001
  6
BYLAYER
 10
136.754094
 20
7
 11
136.914043
 21
7.159949
  0
LINE
  8
001
  6
BYLAYER
 10
136.683384
 20
7
 11
136.914043
 21
7.23066
  0
LINE
  8
001
  6
BYLAYER
 10
136.612673
 20
7
 11
136.914043
 21
7.30137
  0
LINE
  8
001
  6
BYLAYER
 10
136.541962
 20
7
 11
136.914043
 21
7.372081
  0
LINE
  8
001
  6
BYLAYER
 10
136.471252
 20
7
 11
136.914043
 21
7.442792
  0
LINE
  8
001
  6
BYLAYER
 10
136.400541
 20
7
 11
136.914043
 21
7.513502
  0
LINE
  8
001
  6
BYLAYER
 10
136.32983
 20
7
 11
136.914043
 21
7.584213
  0
LINE
  8
001
  6
BYLAYER
 10
136.25912
 20
7
 11
136.914043
 21
7.654924
  0
LINE
  8
001
  6
BYLAYER
 10
136.188409
 20
7
 11
136.914043
 21
7.725634
  0
LINE
  8
001
  6
BYLAYER
 10
136.117698
 20
7
 11
136.914043
 21
7.796345
  0
LINE
  8
001
  6
BYLAYER
 10
136.046988
 20
7
 11
136.914043
 21
7.867056
  0
LINE
  8
001
  6
BYLAYER
 10
135.976277
 20
7
 11
136.914043
 21
7.937766
  0
LINE
  8
001
  6
BYLAYER
 10
135.905566
 20
7
 11
136.914043
 21
8.008477
  0
LINE
  8
001
  6
BYLAYER
 10
135.834856
 20
7
 11
136.914043
 21
8.079188
  0
LINE
  8
001
  6
BYLAYER
 10
135.764145
 20
7
 11
136.914043
 21
8.149898
  0
LINE
  8
001
  6
BYLAYER
 10
135.725693
 20
7.032258
 11
136.914043
 21
8.220609
  0
LINE
  8
001
  6
BYLAYER
 10
135.725693
 20
7.102969
 11
136.914043
 21
8.29132
  0
LINE
  8
001
  6
BYLAYER
 10
139.148336
 20
10.525613
 11
139.175302
 21
10.552578
  0
LINE
  8
001
  6
BYLAYER
 10
135.725693
 20
7.17368
 11
136.914043
 21
8.36203
  0
LINE
  8
001
  6
BYLAYER
 10
139.077625
 20
10.525613
 11
139.175302
 21
10.623289
  0
LINE
  8
001
  6
BYLAYER
 10
135.725693
 20
7.24439
 11
136.914043
 21
8.432741
  0
LINE
  8
001
  6
BYLAYER
 10
139.006915
 20
10.525613
 11
139.175302
 21
10.694
  0
LINE
  8
001
  6
BYLAYER
 10
135.725693
 20
7.315101
 11
136.914043
 21
8.503452
  0
LINE
  8
001
  6
BYLAYER
 10
138.936204
 20
10.525613
 11
139.175302
 21
10.76471
  0
LINE
  8
001
  6
BYLAYER
 10
135.725693
 20
7.385812
 11
136.914043
 21
8.574162
  0
LINE
  8
001
  6
BYLAYER
 10
138.865493
 20
10.525613
 11
139.175302
 21
10.835421
  0
LINE
  8
001
  6
BYLAYER
 10
135.725693
 20
7.456522
 11
136.914043
 21
8.644873
  0
LINE
  8
001
  6
BYLAYER
 10
138.794783
 20
10.525613
 11
139.175302
 21
10.906132
  0
LINE
  8
001
  6
BYLAYER
 10
135.725693
 20
7.527233
 11
136.914043
 21
8.715584
  0
LINE
  8
001
  6
BYLAYER
 10
138.724072
 20
10.525613
 11
139.175302
 21
10.976842
  0
LINE
  8
001
  6
BYLAYER
 10
135.725693
 20
7.597944
 11
136.914043
 21
8.786294
  0
LINE
  8
001
  6
BYLAYER
 10
138.653361
 20
10.525613
 11
139.175302
 21
11.047553
  0
LINE
  8
001
  6
BYLAYER
 10
135.725693
 20
7.668654
 11
136.914043
 21
8.857005
  0
LINE
  8
001
  6
BYLAYER
 10
138.582651
 20
10.525613
 11
139.175302
 21
11.118264
  0
LINE
  8
001
  6
BYLAYER
 10
135.725693
 20
7.739365
 11
136.914043
 21
8.927716
  0
LINE
  8
001
  6
BYLAYER
 10
138.51194
 20
10.525613
 11
139.175302
 21
11.188974
  0
LINE
  8
001
  6
BYLAYER
 10
135.725693
 20
7.810076
 11
136.914043
 21
8.998426
  0
LINE
  8
001
  6
BYLAYER
 10
138.441229
 20
10.525613
 11
139.175302
 21
11.259685
  0
LINE
  8
001
  6
BYLAYER
 10
135.725693
 20
7.880787
 11
136.914043
 21
9.069137
  0
LINE
  8
001
  6
BYLAYER
 10
138.370519
 20
10.525613
 11
139.175302
 21
11.330396
  0
LINE
  8
001
  6
BYLAYER
 10
135.725693
 20
7.951497
 11
136.914043
 21
9.139848
  0
LINE
  8
001
  6
BYLAYER
 10
138.299808
 20
10.525613
 11
139.175302
 21
11.401106
  0
LINE
  8
001
  6
BYLAYER
 10
135.725693
 20
8.022208
 11
136.914043
 21
9.210559
  0
LINE
  8
001
  6
BYLAYER
 10
138.229097
 20
10.525613
 11
139.175302
 21
11.471817
  0
LINE
  8
001
  6
BYLAYER
 10
135.725693
 20
8.092919
 11
136.914043
 21
9.281269
  0
LINE
  8
001
  6
BYLAYER
 10
138.158387
 20
10.525613
 11
139.15366
 21
11.520886
  0
LINE
  8
001
  6
BYLAYER
 10
135.725693
 20
8.163629
 11
136.914043
 21
9.35198
  0
LINE
  8
001
  6
BYLAYER
 10
138.087676
 20
10.525613
 11
139.08295
 21
11.520886
  0
LINE
  8
001
  6
BYLAYER
 10
135.725693
 20
8.23434
 11
136.914043
 21
9.422691
  0
LINE
  8
001
  6
BYLAYER
 10
138.016965
 20
10.525613
 11
139.012239
 21
11.520886
  0
LINE
  8
001
  6
BYLAYER
 10
135.725693
 20
8.305051
 11
136.914043
 21
9.493401
  0
LINE
  8
001
  6
BYLAYER
 10
137.946255
 20
10.525613
 11
138.941528
 21
11.520886
  0
LINE
  8
001
  6
BYLAYER
 10
135.725693
 20
8.375761
 11
136.914043
 21
9.564112
  0
LINE
  8
001
  6
BYLAYER
 10
137.875544
 20
10.525613
 11
138.870818
 21
11.520886
  0
LINE
  8
001
  6
BYLAYER
 10
135.725693
 20
8.446472
 11
136.914043
 21
9.634823
  0
LINE
  8
001
  6
BYLAYER
 10
137.804833
 20
10.525613
 11
138.800107
 21
11.520886
  0
LINE
  8
001
  6
BYLAYER
 10
135.725693
 20
8.517183
 11
136.914043
 21
9.705533
  0
LINE
  8
001
  6
BYLAYER
 10
137.734123
 20
10.525613
 11
138.729396
 21
11.520886
  0
LINE
  8
001
  6
BYLAYER
 10
135.725693
 20
8.587893
 11
136.914043
 21
9.776244
  0
LINE
  8
001
  6
BYLAYER
 10
137.663412
 20
10.525613
 11
138.658686
 21
11.520886
  0
LINE
  8
001
  6
BYLAYER
 10
135.725693
 20
8.658604
 11
136.914043
 21
9.846955
  0
LINE
  8
001
  6
BYLAYER
 10
137.592701
 20
10.525613
 11
138.587975
 21
11.520886
  0
LINE
  8
001
  6
BYLAYER
 10
135.725693
 20
8.729315
 11
136.914043
 21
9.917665
  0
LINE
  8
001
  6
BYLAYER
 10
137.521991
 20
10.525613
 11
138.517264
 21
11.520886
  0
LINE
  8
001
  6
BYLAYER
 10
135.725693
 20
8.800025
 11
136.914043
 21
9.988376
  0
LINE
  8
001
  6
BYLAYER
 10
137.45128
 20
10.525613
 11
138.446554
 21
11.520886
  0
LINE
  8
001
  6
BYLAYER
 10
135.725693
 20
8.870736
 11
136.914043
 21
10.059087
  0
LINE
  8
001
  6
BYLAYER
 10
137.380569
 20
10.525613
 11
138.375843
 21
11.520886
  0
LINE
  8
001
  6
BYLAYER
 10
135.725693
 20
8.941447
 11
136.914043
 21
10.129797
  0
LINE
  8
001
  6
BYLAYER
 10
137.309859
 20
10.525613
 11
138.305132
 21
11.520886
  0
LINE
  8
001
  6
BYLAYER
 10
135.725693
 20
9.012157
 11
136.914043
 21
10.200508
  0
LINE
  8
001
  6
BYLAYER
 10
137.239148
 20
10.525613
 11
138.234422
 21
11.520886
  0
LINE
  8
001
  6
BYLAYER
 10
135.725693
 20
9.082868
 11
136.914043
 21
10.271219
  0
LINE
  8
001
  6
BYLAYER
 10
137.168437
 20
10.525613
 11
138.163711
 21
11.520886
  0
LINE
  8
001
  6
BYLAYER
 10
135.725693
 20
9.153579
 11
136.914043
 21
10.341929
  0
LINE
  8
001
  6
BYLAYER
 10
137.097727
 20
10.525613
 11
138.093
 21
11.520886
  0
LINE
  8
001
  6
BYLAYER
 10
135.725693
 20
9.224289
 11
136.914043
 21
10.41264
  0
LINE
  8
001
  6
BYLAYER
 10
137.027016
 20
10.525613
 11
138.02229
 21
11.520886
  0
LINE
  8
001
  6
BYLAYER
 10
135.725693
 20
9.295
 11
136.914043
 21
10.483351
  0
LINE
  8
001
  6
BYLAYER
 10
136.956305
 20
10.525613
 11
137.951579
 21
11.520886
  0
LINE
  8
001
  6
BYLAYER
 10
135.725693
 20
9.365711
 11
137.880868
 21
11.520886
  0
LINE
  8
001
  6
BYLAYER
 10
135.725693
 20
9.436421
 11
137.810158
 21
11.520886
  0
LINE
  8
001
  6
BYLAYER
 10
135.725693
 20
9.507132
 11
137.739447
 21
11.520886
  0
LINE
  8
001
  6
BYLAYER
 10
135.725693
 20
9.577843
 11
137.668736
 21
11.520886
  0
LINE
  8
001
  6
BYLAYER
 10
135.725693
 20
9.648553
 11
137.598025
 21
11.520886
  0
LINE
  8
001
  6
BYLAYER
 10
135.725693
 20
9.719264
 11
137.527315
 21
11.520886
  0
LINE
  8
001
  6
BYLAYER
 10
135.725693
 20
9.789975
 11
137.456604
 21
11.520886
  0
LINE
  8
001
  6
BYLAYER
 10
135.725693
 20
9.860686
 11
137.385893
 21
11.520886
  0
LINE
  8
001
  6
BYLAYER
 10
135.725693
 20
9.931396
 11
137.315183
 21
11.520886
  0
LINE
  8
001
  6
BYLAYER
 10
135.725693
 20
10.002107
 11
137.244472
 21
11.520886
  0
LINE
  8
001
  6
BYLAYER
 10
135.725693
 20
10.072818
 11
137.173761
 21
11.520886
  0
LINE
  8
001
  6
BYLAYER
 10
135.725693
 20
10.143528
 11
137.103051
 21
11.520886
  0
LINE
  8
001
  6
BYLAYER
 10
135.725693
 20
10.214239
 11
137.03234
 21
11.520886
  0
LINE
  8
001
  6
BYLAYER
 10
135.725693
 20
10.28495
 11
136.961629
 21
11.520886
  0
LINE
  8
001
  6
BYLAYER
 10
135.725693
 20
10.35566
 11
136.890919
 21
11.520886
  0
LINE
  8
001
  6
BYLAYER
 10
135.725693
 20
10.426371
 11
136.820208
 21
11.520886
  0
LINE
  8
001
  6
BYLAYER
 10
135.725693
 20
10.497082
 11
136.749497
 21
11.520886
  0
LINE
  8
001
  6
BYLAYER
 10
135.683513
 20
10.525613
 11
136.678787
 21
11.520886
  0
LINE
  8
001
  6
BYLAYER
 10
135.612802
 20
10.525613
 11
136.608076
 21
11.520886
  0
LINE
  8
001
  6
BYLAYER
 10
135.542092
 20
10.525613
 11
136.537365
 21
11.520886
  0
LINE
  8
001
  6
BYLAYER
 10
135.471381
 20
10.525613
 11
136.466655
 21
11.520886
  0
LINE
  8
001
  6
BYLAYER
 10
135.40067
 20
10.525613
 11
136.395944
 21
11.520886
  0
LINE
  8
001
  6
BYLAYER
 10
135.32996
 20
10.525613
 11
136.325233
 21
11.520886
  0
LINE
  8
001
  6
BYLAYER
 10
135.259249
 20
10.525613
 11
136.254523
 21
11.520886
  0
LINE
  8
001
  6
BYLAYER
 10
135.188538
 20
10.525613
 11
136.183812
 21
11.520886
  0
LINE
  8
001
  6
BYLAYER
 10
135.117828
 20
10.525613
 11
136.113101
 21
11.520886
  0
LINE
  8
001
  6
BYLAYER
 10
135.047117
 20
10.525613
 11
136.042391
 21
11.520886
  0
LINE
  8
001
  6
BYLAYER
 10
134.976406
 20
10.525613
 11
135.97168
 21
11.520886
  0
LINE
  8
001
  6
BYLAYER
 10
134.905695
 20
10.525613
 11
135.900969
 21
11.520886
  0
LINE
  8
001
  6
BYLAYER
 10
134.834985
 20
10.525613
 11
135.830259
 21
11.520886
  0
LINE
  8
001
  6
BYLAYER
 10
134.764274
 20
10.525613
 11
135.759548
 21
11.520886
  0
LINE
  8
001
  6
BYLAYER
 10
134.693563
 20
10.525613
 11
135.688837
 21
11.520886
  0
LINE
  8
001
  6
BYLAYER
 10
134.622853
 20
10.525613
 11
135.618127
 21
11.520886
  0
LINE
  8
001
  6
BYLAYER
 10
134.552142
 20
10.525613
 11
135.547416
 21
11.520886
  0
LINE
  8
001
  6
BYLAYER
 10
134.481431
 20
10.525613
 11
135.476705
 21
11.520886
  0
LINE
  8
001
  6
BYLAYER
 10
134.410721
 20
10.525613
 11
135.405994
 21
11.520886
  0
LINE
  8
001
  6
BYLAYER
 10
134.34001
 20
10.525613
 11
135.335284
 21
11.520886
  0
LINE
  8
001
  6
BYLAYER
 10
134.269299
 20
10.525613
 11
135.264573
 21
11.520886
  0
LINE
  8
001
  6
BYLAYER
 10
134.198589
 20
10.525613
 11
135.193862
 21
11.520886
  0
LINE
  8
001
  6
BYLAYER
 10
134.127878
 20
10.525613
 11
135.123152
 21
11.520886
  0
LINE
  8
001
  6
BYLAYER
 10
134.057167
 20
10.525613
 11
135.052441
 21
11.520886
  0
LINE
  8
001
  6
BYLAYER
 10
133.986457
 20
10.525613
 11
134.98173
 21
11.520886
  0
LINE
  8
001
  6
BYLAYER
 10
133.915746
 20
10.525613
 11
134.91102
 21
11.520886
  0
LINE
  8
001
  6
BYLAYER
 10
133.845035
 20
10.525613
 11
134.840309
 21
11.520886
  0
LINE
  8
001
  6
BYLAYER
 10
133.774325
 20
10.525613
 11
134.769598
 21
11.520886
  0
LINE
  8
001
  6
BYLAYER
 10
133.703614
 20
10.525613
 11
134.698888
 21
11.520886
  0
LINE
  8
001
  6
BYLAYER
 10
133.632903
 20
10.525613
 11
134.628177
 21
11.520886
  0
LINE
  8
001
  6
BYLAYER
 10
133.562193
 20
10.525613
 11
134.557466
 21
11.520886
  0
LINE
  8
001
  6
BYLAYER
 10
133.5
 20
10.534131
 11
134.486756
 21
11.520886
  0
LINE
  8
001
  6
BYLAYER
 10
133.5
 20
10.604841
 11
134.416045
 21
11.520886
  0
LINE
  8
001
  6
BYLAYER
 10
133.5
 20
10.675552
 11
134.345334
 21
11.520886
  0
LINE
  8
001
  6
BYLAYER
 10
133.5
 20
10.746263
 11
134.274624
 21
11.520886
  0
LINE
  8
001
  6
BYLAYER
 10
133.5
 20
10.816973
 11
134.203913
 21
11.520886
  0
LINE
  8
001
  6
BYLAYER
 10
133.5
 20
10.887684
 11
134.133202
 21
11.520886
  0
LINE
  8
001
  6
BYLAYER
 10
133.5
 20
10.958395
 11
134.062492
 21
11.520886
  0
LINE
  8
001
  6
BYLAYER
 10
133.5
 20
11.029105
 11
133.991781
 21
11.520886
  0
LINE
  8
001
  6
BYLAYER
 10
133.5
 20
11.099816
 11
133.92107
 21
11.520886
  0
LINE
  8
001
  6
BYLAYER
 10
133.5
 20
11.170527
 11
133.85036
 21
11.520886
  0
LINE
  8
001
  6
BYLAYER
 10
133.5
 20
11.241238
 11
133.779649
 21
11.520886
  0
LINE
  8
001
  6
BYLAYER
 10
133.5
 20
11.311948
 11
133.708938
 21
11.520886
  0
LINE
  8
001
  6
BYLAYER
 10
133.5
 20
11.382659
 11
133.638228
 21
11.520886
  0
LINE
  8
001
  6
BYLAYER
 10
133.5
 20
11.45337
 11
133.567517
 21
11.520886
  0
LINE
  8
001
  6
BYLAYER
 10
150.047702
 20
7
 11
150.050032
 21
7.00233
  0
LINE
  8
001
  6
BYLAYER
 10
149.976991
 20
7
 11
150.007321
 21
7.03033
  0
LINE
  8
001
  6
BYLAYER
 10
149.90628
 20
7
 11
149.964611
 21
7.05833
  0
LINE
  8
001
  6
BYLAYER
 10
149.83557
 20
7
 11
149.9219
 21
7.08633
  0
LINE
  8
001
  6
BYLAYER
 10
149.764859
 20
7
 11
149.879189
 21
7.11433
  0
LINE
  8
001
  6
BYLAYER
 10
149.694148
 20
7
 11
149.836478
 21
7.14233
  0
LINE
  8
001
  6
BYLAYER
 10
149.623438
 20
7
 11
149.793767
 21
7.170329
  0
LINE
  8
001
  6
BYLAYER
 10
149.552727
 20
7
 11
149.751056
 21
7.198329
  0
LINE
  8
001
  6
BYLAYER
 10
149.482016
 20
7
 11
149.708345
 21
7.226329
  0
LINE
  8
001
  6
BYLAYER
 10
149.411306
 20
7
 11
149.665635
 21
7.254329
  0
LINE
  8
001
  6
BYLAYER
 10
149.340595
 20
7
 11
149.622924
 21
7.282329
  0
LINE
  8
001
  6
BYLAYER
 10
149.269884
 20
7
 11
149.580213
 21
7.310328
  0
LINE
  8
001
  6
BYLAYER
 10
149.199174
 20
7
 11
149.537502
 21
7.338328
  0
LINE
  8
001
  6
BYLAYER
 10
149.128463
 20
7
 11
149.494791
 21
7.366328
  0
LINE
  8
001
  6
BYLAYER
 10
149.057752
 20
7
 11
149.45208
 21
7.394328
  0
LINE
  8
001
  6
BYLAYER
 10
148.987042
 20
7
 11
149.409369
 21
7.422328
  0
LINE
  8
001
  6
BYLAYER
 10
148.916331
 20
7
 11
149.366659
 21
7.450328
  0
LINE
  8
001
  6
BYLAYER
 10
148.84562
 20
7
 11
149.323948
 21
7.478327
  0
LINE
  8
001
  6
BYLAYER
 10
148.77491
 20
7
 11
149.281237
 21
7.506327
  0
LINE
  8
001
  6
BYLAYER
 10
148.704199
 20
7
 11
149.238526
 21
7.534327
  0
LINE
  8
001
  6
BYLAYER
 10
148.633488
 20
7
 11
149.195815
 21
7.562327
  0
LINE
  8
001
  6
BYLAYER
 10
148.562778
 20
7
 11
149.153104
 21
7.590327
  0
LINE
  8
001
  6
BYLAYER
 10
148.492067
 20
7
 11
149.110393
 21
7.618327
  0
LINE
  8
001
  6
BYLAYER
 10
148.421356
 20
7
 11
149.067683
 21
7.646326
  0
LINE
  8
001
  6
BYLAYER
 10
148.350646
 20
7
 11
149.024972
 21
7.674326
  0
LINE
  8
001
  6
BYLAYER
 10
148.279935
 20
7
 11
148.982261
 21
7.702326
  0
LINE
  8
001
  6
BYLAYER
 10
148.223094
 20
7.01387
 11
148.93955
 21
7.730326
  0
LINE
  8
001
  6
BYLAYER
 10
148.1828
 20
7.044286
 11
148.896839
 21
7.758326
  0
LINE
  8
001
  6
BYLAYER
 10
148.142506
 20
7.074703
 11
148.854128
 21
7.786325
  0
LINE
  8
001
  6
BYLAYER
 10
148.102212
 20
7.105119
 11
148.811417
 21
7.814325
  0
LINE
  8
001
  6
BYLAYER
 10
148.061918
 20
7.135536
 11
148.768707
 21
7.842325
  0
LINE
  8
001
  6
BYLAYER
 10
148.021623
 20
7.165953
 11
148.725996
 21
7.870325
  0
LINE
  8
001
  6
BYLAYER
 10
147.981329
 20
7.196369
 11
148.683285
 21
7.898325
  0
LINE
  8
001
  6
BYLAYER
 10
147.941035
 20
7.226786
 11
148.640574
 21
7.926325
  0
LINE
  8
001
  6
BYLAYER
 10
147.900741
 20
7.257202
 11
148.597863
 21
7.954324
  0
LINE
  8
001
  6
BYLAYER
 10
147.860447
 20
7.287619
 11
148.555152
 21
7.982324
  0
LINE
  8
001
  6
BYLAYER
 10
147.820153
 20
7.318035
 11
148.512441
 21
8.010324
  0
LINE
  8
001
  6
BYLAYER
 10
147.779859
 20
7.348452
 11
148.469731
 21
8.038324
  0
LINE
  8
001
  6
BYLAYER
 10
147.739564
 20
7.378868
 11
148.42702
 21
8.066324
  0
LINE
  8
001
  6
BYLAYER
 10
147.69927
 20
7.409285
 11
148.384309
 21
8.094324
  0
LINE
  8
001
  6
BYLAYER
 10
147.658976
 20
7.439702
 11
148.341598
 21
8.122323
  0
LINE
  8
001
  6
BYLAYER
 10
147.618682
 20
7.470118
 11
148.298887
 21
8.150323
  0
LINE
  8
001
  6
BYLAYER
 10
147.578388
 20
7.500535
 11
148.256176
 21
8.178323
  0
LINE
  8
001
  6
BYLAYER
 10
147.538094
 20
7.530951
 11
148.213465
 21
8.206323
  0
LINE
  8
001
  6
BYLAYER
 10
147.4978
 20
7.561368
 11
148.170755
 21
8.234323
  0
LINE
  8
001
  6
BYLAYER
 10
147.457506
 20
7.591784
 11
148.128044
 21
8.262322
  0
LINE
  8
001
  6
BYLAYER
 10
147.417211
 20
7.622201
 11
148.085333
 21
8.290322
  0
LINE
  8
001
  6
BYLAYER
 10
147.376917
 20
7.652617
 11
148.042622
 21
8.318322
  0
LINE
  8
001
  6
BYLAYER
 10
147.336623
 20
7.683034
 11
147.999911
 21
8.346322
  0
LINE
  8
001
  6
BYLAYER
 10
147.296329
 20
7.71345
 11
147.9572
 21
8.374322
  0
LINE
  8
001
  6
BYLAYER
 10
147.256035
 20
7.743867
 11
147.914489
 21
8.402322
  0
LINE
  8
001
  6
BYLAYER
 10
149.974006
 20
10.461838
 11
149.989622
 21
10.477454
  0
LINE
  8
001
  6
BYLAYER
 10
147.215741
 20
7.774284
 11
147.871779
 21
8.430321
  0
LINE
  8
001
  6
BYLAYER
 10
149.760982
 20
10.319525
 11
149.918911
 21
10.477454
  0
LINE
  8
001
  6
BYLAYER
 10
147.175447
 20
7.8047
 11
147.829068
 21
8.458321
  0
LINE
  8
001
  6
BYLAYER
 10
149.547958
 20
10.177211
 11
149.848201
 21
10.477454
  0
LINE
  8
001
  6
BYLAYER
 10
147.135153
 20
7.835117
 11
147.786357
 21
8.486321
  0
LINE
  8
001
  6
BYLAYER
 10
149.334934
 20
10.034898
 11
149.77749
 21
10.477454
  0
LINE
  8
001
  6
BYLAYER
 10
147.094858
 20
7.865533
 11
147.743646
 21
8.514321
  0
LINE
  8
001
  6
BYLAYER
 10
149.12191
 20
9.892584
 11
149.706779
 21
10.477454
  0
LINE
  8
001
  6
BYLAYER
 10
147.054564
 20
7.89595
 11
147.700935
 21
8.542321
  0
LINE
  8
001
  6
BYLAYER
 10
148.908886
 20
9.750271
 11
149.636069
 21
10.477454
  0
LINE
  8
001
  6
BYLAYER
 10
147.01427
 20
7.926366
 11
147.658224
 21
8.570321
  0
LINE
  8
001
  6
BYLAYER
 10
148.695861
 20
9.607958
 11
149.565358
 21
10.477454
  0
LINE
  8
001
  6
BYLAYER
 10
146.973976
 20
7.956783
 11
147.615514
 21
8.59832
  0
LINE
  8
001
  6
BYLAYER
 10
148.482837
 20
9.465644
 11
149.494647
 21
10.477454
  0
LINE
  8
001
  6
BYLAYER
 10
146.933682
 20
7.987199
 11
147.572803
 21
8.62632
  0
LINE
  8
001
  6
BYLAYER
 10
148.269813
 20
9.323331
 11
149.423937
 21
10.477454
  0
LINE
  8
001
  6
BYLAYER
 10
145.875772
 20
7
 11
145.89917
 21
7.023398
  0
LINE
  8
001
  6
BYLAYER
 10
146.893388
 20
8.017616
 11
147.530092
 21
8.65432
  0
LINE
  8
001
  6
BYLAYER
 10
148.056789
 20
9.181017
 11
149.353226
 21
10.477454
  0
LINE
  8
001
  6
BYLAYER
 10
145.805061
 20
7
 11
145.89917
 21
7.094109
  0
LINE
  8
001
  6
BYLAYER
 10
146.853094
 20
8.048033
 11
147.487381
 21
8.68232
  0
LINE
  8
001
  6
BYLAYER
 10
147.843765
 20
9.038704
 11
149.282515
 21
10.477454
  0
LINE
  8
001
  6
BYLAYER
 10
145.73435
 20
7
 11
145.89917
 21
7.16482
  0
LINE
  8
001
  6
BYLAYER
 10
146.8128
 20
8.078449
 11
147.44467
 21
8.71032
  0
LINE
  8
001
  6
BYLAYER
 10
147.630741
 20
8.89639
 11
149.211805
 21
10.477454
  0
LINE
  8
001
  6
BYLAYER
 10
145.66364
 20
7
 11
145.89917
 21
7.23553
  0
LINE
  8
001
  6
BYLAYER
 10
146.772505
 20
8.108866
 11
147.401959
 21
8.738319
  0
LINE
  8
001
  6
BYLAYER
 10
147.417717
 20
8.754077
 11
149.141094
 21
10.477454
  0
LINE
  8
001
  6
BYLAYER
 10
145.592929
 20
7
 11
145.89917
 21
7.306241
  0
LINE
  8
001
  6
BYLAYER
 10
146.732211
 20
8.139282
 11
149.070383
 21
10.477454
  0
LINE
  8
001
  6
BYLAYER
 10
145.522218
 20
7
 11
145.89917
 21
7.376952
  0
LINE
  8
001
  6
BYLAYER
 10
146.691917
 20
8.169699
 11
148.999673
 21
10.477454
  0
LINE
  8
001
  6
BYLAYER
 10
145.451508
 20
7
 11
145.89917
 21
7.447662
  0
LINE
  8
001
  6
BYLAYER
 10
146.651623
 20
8.200115
 11
148.928962
 21
10.477454
  0
LINE
  8
001
  6
BYLAYER
 10
145.380797
 20
7
 11
145.89917
 21
7.518373
  0
LINE
  8
001
  6
BYLAYER
 10
146.611329
 20
8.230532
 11
148.858251
 21
10.477454
  0
LINE
  8
001
  6
BYLAYER
 10
145.310086
 20
7
 11
145.89917
 21
7.589084
  0
LINE
  8
001
  6
BYLAYER
 10
146.571035
 20
8.260948
 11
148.787541
 21
10.477454
  0
LINE
  8
001
  6
BYLAYER
 10
145.239376
 20
7
 11
145.89917
 21
7.659795
  0
LINE
  8
001
  6
BYLAYER
 10
146.530741
 20
8.291365
 11
148.71683
 21
10.477454
  0
LINE
  8
001
  6
BYLAYER
 10
145.168665
 20
7
 11
145.89917
 21
7.730505
  0
LINE
  8
001
  6
BYLAYER
 10
146.490447
 20
8.321782
 11
148.646119
 21
10.477454
  0
LINE
  8
001
  6
BYLAYER
 10
145.097954
 20
7
 11
145.89917
 21
7.801216
  0
LINE
  8
001
  6
BYLAYER
 10
146.450152
 20
8.352198
 11
148.575409
 21
10.477454
  0
LINE
  8
001
  6
BYLAYER
 10
145.027244
 20
7
 11
145.89917
 21
7.871927
  0
LINE
  8
001
  6
BYLAYER
 10
146.409858
 20
8.382615
 11
148.504698
 21
10.477454
  0
LINE
  8
001
  6
BYLAYER
 10
144.956533
 20
7
 11
145.89917
 21
7.942637
  0
LINE
  8
001
  6
BYLAYER
 10
146.369564
 20
8.413031
 11
148.433987
 21
10.477454
  0
LINE
  8
001
  6
BYLAYER
 10
144.885822
 20
7
 11
145.89917
 21
8.013348
  0
LINE
  8
001
  6
BYLAYER
 10
146.32927
 20
8.443448
 11
148.363277
 21
10.477454
  0
LINE
  8
001
  6
BYLAYER
 10
144.843504
 20
7.028393
 11
145.89917
 21
8.084059
  0
LINE
  8
001
  6
BYLAYER
 10
146.288976
 20
8.473864
 11
148.182725
 21
10.367613
  0
LINE
  8
001
  6
BYLAYER
 10
144.843504
 20
7.099103
 11
145.89917
 21
8.154769
  0
LINE
  8
001
  6
BYLAYER
 10
146.248682
 20
8.504281
 11
147.930249
 21
10.185848
  0
LINE
  8
001
  6
BYLAYER
 10
144.843504
 20
7.169814
 11
145.89917
 21
8.22548
  0
LINE
  8
001
  6
BYLAYER
 10
146.208388
 20
8.534697
 11
147.677773
 21
10.004082
  0
LINE
  8
001
  6
BYLAYER
 10
144.843504
 20
7.240525
 11
145.89917
 21
8.296191
  0
LINE
  8
001
  6
BYLAYER
 10
146.168094
 20
8.565114
 11
147.425297
 21
9.822317
  0
LINE
  8
001
  6
BYLAYER
 10
144.843504
 20
7.311236
 11
145.89917
 21
8.366901
  0
LINE
  8
001
  6
BYLAYER
 10
146.127799
 20
8.59553
 11
147.172821
 21
9.640552
  0
LINE
  8
001
  6
BYLAYER
 10
144.843504
 20
7.381946
 11
145.89917
 21
8.437612
  0
LINE
  8
001
  6
BYLAYER
 10
146.087505
 20
8.625947
 11
146.920345
 21
9.458786
  0
LINE
  8
001
  6
BYLAYER
 10
144.843504
 20
7.452657
 11
145.89917
 21
8.508323
  0
LINE
  8
001
  6
BYLAYER
 10
146.043481
 20
8.652633
 11
146.667869
 21
9.277021
  0
LINE
  8
001
  6
BYLAYER
 10
144.843504
 20
7.523368
 11
145.904836
 21
8.584699
  0
LINE
  8
001
  6
BYLAYER
 10
145.973147
 20
8.65301
 11
146.415393
 21
9.095256
  0
LINE
  8
001
  6
BYLAYER
 10
144.843504
 20
7.594078
 11
146.162917
 21
8.91349
  0
LINE
  8
001
  6
BYLAYER
 10
144.843504
 20
7.664789
 11
146.00574
 21
8.827025
  0
LINE
  8
001
  6
BYLAYER
 10
144.843504
 20
7.7355
 11
145.951017
 21
8.843012
  0
LINE
  8
001
  6
BYLAYER
 10
144.843504
 20
7.80621
 11
145.915547
 21
8.878253
  0
LINE
  8
001
  6
BYLAYER
 10
144.843504
 20
7.876921
 11
145.899211
 21
8.932627
  0
LINE
  8
001
  6
BYLAYER
 10
144.843504
 20
7.947632
 11
145.89917
 21
9.003297
  0
LINE
  8
001
  6
BYLAYER
 10
144.843504
 20
8.018342
 11
145.89917
 21
9.074008
  0
LINE
  8
001
  6
BYLAYER
 10
144.843504
 20
8.089053
 11
145.89917
 21
9.144719
  0
LINE
  8
001
  6
BYLAYER
 10
144.843504
 20
8.159764
 11
145.89917
 21
9.215429
  0
LINE
  8
001
  6
BYLAYER
 10
144.843504
 20
8.230474
 11
145.89917
 21
9.28614
  0
LINE
  8
001
  6
BYLAYER
 10
144.843504
 20
8.301185
 11
145.89917
 21
9.356851
  0
LINE
  8
001
  6
BYLAYER
 10
144.843504
 20
8.371896
 11
145.89917
 21
9.427561
  0
LINE
  8
001
  6
BYLAYER
 10
144.843504
 20
8.442606
 11
145.89917
 21
9.498272
  0
LINE
  8
001
  6
BYLAYER
 10
144.843504
 20
8.513317
 11
145.89917
 21
9.568983
  0
LINE
  8
001
  6
BYLAYER
 10
144.843504
 20
8.584028
 11
145.89917
 21
9.639693
  0
LINE
  8
001
  6
BYLAYER
 10
144.843504
 20
8.654738
 11
145.89917
 21
9.710404
  0
LINE
  8
001
  6
BYLAYER
 10
144.843504
 20
8.725449
 11
145.89917
 21
9.781115
  0
LINE
  8
001
  6
BYLAYER
 10
144.843504
 20
8.79616
 11
145.89917
 21
9.851826
  0
LINE
  8
001
  6
BYLAYER
 10
144.843504
 20
8.86687
 11
145.89917
 21
9.922536
  0
LINE
  8
001
  6
BYLAYER
 10
144.843504
 20
8.937581
 11
145.89917
 21
9.993247
  0
LINE
  8
001
  6
BYLAYER
 10
144.843504
 20
9.008292
 11
145.89917
 21
10.063958
  0
LINE
  8
001
  6
BYLAYER
 10
144.843504
 20
9.079002
 11
145.89917
 21
10.134668
  0
LINE
  8
001
  6
BYLAYER
 10
144.843504
 20
9.149713
 11
145.89917
 21
10.205379
  0
LINE
  8
001
  6
BYLAYER
 10
144.843504
 20
9.220424
 11
145.89917
 21
10.27609
  0
LINE
  8
001
  6
BYLAYER
 10
144.843504
 20
9.291134
 11
145.89917
 21
10.3468
  0
LINE
  8
001
  6
BYLAYER
 10
144.843504
 20
9.361845
 11
145.89917
 21
10.417511
  0
LINE
  8
001
  6
BYLAYER
 10
144.843504
 20
9.432556
 11
145.89917
 21
10.488222
  0
LINE
  8
001
  6
BYLAYER
 10
144.843504
 20
9.503267
 11
145.89917
 21
10.558932
  0
LINE
  8
001
  6
BYLAYER
 10
144.843504
 20
9.573977
 11
145.89917
 21
10.629643
  0
LINE
  8
001
  6
BYLAYER
 10
144.843504
 20
9.644688
 11
145.89917
 21
10.700354
  0
LINE
  8
001
  6
BYLAYER
 10
144.843504
 20
9.715399
 11
145.89917
 21
10.771064
  0
LINE
  8
001
  6
BYLAYER
 10
144.843504
 20
9.786109
 11
145.89917
 21
10.841775
  0
LINE
  8
001
  6
BYLAYER
 10
144.843504
 20
9.85682
 11
145.89917
 21
10.912486
  0
LINE
  8
001
  6
BYLAYER
 10
144.843504
 20
9.927531
 11
145.89917
 21
10.983196
  0
LINE
  8
001
  6
BYLAYER
 10
144.843504
 20
9.998241
 11
145.89917
 21
11.053907
  0
LINE
  8
001
  6
BYLAYER
 10
144.843504
 20
10.068952
 11
145.89917
 21
11.124618
  0
LINE
  8
001
  6
BYLAYER
 10
144.843504
 20
10.139663
 11
145.89917
 21
11.195328
  0
LINE
  8
001
  6
BYLAYER
 10
144.843504
 20
10.210373
 11
145.89917
 21
11.266039
  0
LINE
  8
001
  6
BYLAYER
 10
144.843504
 20
10.281084
 11
145.89917
 21
11.33675
  0
LINE
  8
001
  6
BYLAYER
 10
144.843504
 20
10.351795
 11
145.89917
 21
11.40746
  0
LINE
  8
001
  6
BYLAYER
 10
144.843504
 20
10.422505
 11
145.89917
 21
11.478171
  0
LINE
  8
001
  6
BYLAYER
 10
144.843504
 20
10.493216
 11
145.871175
 21
11.520886
  0
LINE
  8
001
  6
BYLAYER
 10
144.843504
 20
10.563927
 11
145.800464
 21
11.520886
  0
LINE
  8
001
  6
BYLAYER
 10
144.843504
 20
10.634637
 11
145.729753
 21
11.520886
  0
LINE
  8
001
  6
BYLAYER
 10
144.843504
 20
10.705348
 11
145.659043
 21
11.520886
  0
LINE
  8
001
  6
BYLAYER
 10
144.843504
 20
10.776059
 11
145.588332
 21
11.520886
  0
LINE
  8
001
  6
BYLAYER
 10
144.843504
 20
10.846769
 11
145.517621
 21
11.520886
  0
LINE
  8
001
  6
BYLAYER
 10
144.843504
 20
10.91748
 11
145.446911
 21
11.520886
  0
LINE
  8
001
  6
BYLAYER
 10
144.843504
 20
10.988191
 11
145.3762
 21
11.520886
  0
LINE
  8
001
  6
BYLAYER
 10
144.843504
 20
11.058901
 11
145.305489
 21
11.520886
  0
LINE
  8
001
  6
BYLAYER
 10
144.843504
 20
11.129612
 11
145.234779
 21
11.520886
  0
LINE
  8
001
  6
BYLAYER
 10
144.843504
 20
11.200323
 11
145.164068
 21
11.520886
  0
LINE
  8
001
  6
BYLAYER
 10
144.843504
 20
11.271033
 11
145.093357
 21
11.520886
  0
LINE
  8
001
  6
BYLAYER
 10
144.843504
 20
11.341744
 11
145.022647
 21
11.520886
  0
LINE
  8
001
  6
BYLAYER
 10
144.843504
 20
11.412455
 11
144.951936
 21
11.520886
  0
LINE
  8
001
  6
BYLAYER
 10
144.843504
 20
11.483166
 11
144.881225
 21
11.520886
  0
LINE
  8
001
  6
BYLAYER
 10
151.744758
 20
7
 11
151.779907
 21
7.035149
  0
LINE
  8
001
  6
BYLAYER
 10
151.674047
 20
7
 11
151.779907
 21
7.10586
  0
LINE
  8
001
  6
BYLAYER
 10
151.603337
 20
7
 11
151.779907
 21
7.17657
  0
LINE
  8
001
  6
BYLAYER
 10
151.532626
 20
7
 11
151.779907
 21
7.247281
  0
LINE
  8
001
  6
BYLAYER
 10
151.461915
 20
7
 11
151.779907
 21
7.317992
  0
LINE
  8
001
  6
BYLAYER
 10
151.391205
 20
7
 11
151.779907
 21
7.388702
  0
LINE
  8
001
  6
BYLAYER
 10
151.320494
 20
7
 11
151.779907
 21
7.459413
  0
LINE
  8
001
  6
BYLAYER
 10
151.249783
 20
7
 11
151.779907
 21
7.530124
  0
LINE
  8
001
  6
BYLAYER
 10
151.179073
 20
7
 11
151.779907
 21
7.600834
  0
LINE
  8
001
  6
BYLAYER
 10
151.108362
 20
7
 11
151.779907
 21
7.671545
  0
LINE
  8
001
  6
BYLAYER
 10
151.037651
 20
7
 11
151.779907
 21
7.742256
  0
LINE
  8
001
  6
BYLAYER
 10
150.966941
 20
7
 11
151.779907
 21
7.812966
  0
LINE
  8
001
  6
BYLAYER
 10
150.89623
 20
7
 11
151.779907
 21
7.883677
  0
LINE
  8
001
  6
BYLAYER
 10
150.825519
 20
7
 11
151.779907
 21
7.954388
  0
LINE
  8
001
  6
BYLAYER
 10
150.754809
 20
7
 11
151.779907
 21
8.025098
  0
LINE
  8
001
  6
BYLAYER
 10
150.724828
 20
7.04073
 11
151.779907
 21
8.095809
  0
LINE
  8
001
  6
BYLAYER
 10
150.724828
 20
7.11144
 11
151.779907
 21
8.16652
  0
LINE
  8
001
  6
BYLAYER
 10
150.724828
 20
7.182151
 11
151.779907
 21
8.237231
  0
LINE
  8
001
  6
BYLAYER
 10
150.724828
 20
7.252862
 11
151.779907
 21
8.307941
  0
LINE
  8
001
  6
BYLAYER
 10
150.724828
 20
7.323572
 11
151.779907
 21
8.378652
  0
LINE
  8
001
  6
BYLAYER
 10
150.724828
 20
7.394283
 11
151.779907
 21
8.449363
  0
LINE
  8
001
  6
BYLAYER
 10
150.724828
 20
7.464994
 11
151.779907
 21
8.520073
  0
LINE
  8
001
  6
BYLAYER
 10
150.724828
 20
7.535705
 11
151.779907
 21
8.590784
  0
LINE
  8
001
  6
BYLAYER
 10
150.724828
 20
7.606415
 11
151.779907
 21
8.661495
  0
LINE
  8
001
  6
BYLAYER
 10
150.724828
 20
7.677126
 11
151.779907
 21
8.732205
  0
LINE
  8
001
  6
BYLAYER
 10
150.724828
 20
7.747837
 11
151.779907
 21
8.802916
  0
LINE
  8
001
  6
BYLAYER
 10
150.724828
 20
7.818547
 11
151.779907
 21
8.873627
  0
LINE
  8
001
  6
BYLAYER
 10
150.724828
 20
7.889258
 11
151.779907
 21
8.944337
  0
LINE
  8
001
  6
BYLAYER
 10
150.724828
 20
7.959969
 11
151.779907
 21
9.015048
  0
LINE
  8
001
  6
BYLAYER
 10
150.724828
 20
8.030679
 11
151.779907
 21
9.085759
  0
LINE
  8
001
  6
BYLAYER
 10
150.724828
 20
8.10139
 11
151.779907
 21
9.156469
  0
LINE
  8
001
  6
BYLAYER
 10
150.724828
 20
8.172101
 11
151.779907
 21
9.22718
  0
LINE
  8
001
  6
BYLAYER
 10
150.724828
 20
8.242811
 11
151.779907
 21
9.297891
  0
LINE
  8
001
  6
BYLAYER
 10
150.724828
 20
8.313522
 11
151.779907
 21
9.368601
  0
LINE
  8
001
  6
BYLAYER
 10
150.724828
 20
8.384233
 11
151.779907
 21
9.439312
  0
LINE
  8
001
  6
BYLAYER
 10
150.724828
 20
8.454943
 11
151.779907
 21
9.510023
  0
LINE
  8
001
  6
BYLAYER
 10
150.724828
 20
8.525654
 11
151.779907
 21
9.580733
  0
LINE
  8
001
  6
BYLAYER
 10
150.724828
 20
8.596365
 11
151.779907
 21
9.651444
  0
LINE
  8
001
  6
BYLAYER
 10
150.724828
 20
8.667075
 11
151.779907
 21
9.722155
  0
LINE
  8
001
  6
BYLAYER
 10
150.724828
 20
8.737786
 11
151.779907
 21
9.792865
  0
LINE
  8
001
  6
BYLAYER
 10
150.724828
 20
8.808497
 11
151.779907
 21
9.863576
  0
LINE
  8
001
  6
BYLAYER
 10
150.724828
 20
8.879207
 11
151.779907
 21
9.934287
  0
LINE
  8
001
  6
BYLAYER
 10
150.724828
 20
8.949918
 11
151.779907
 21
10.004997
  0
LINE
  8
001
  6
BYLAYER
 10
150.724828
 20
9.020629
 11
151.779907
 21
10.075708
  0
LINE
  8
001
  6
BYLAYER
 10
150.724828
 20
9.091339
 11
151.779907
 21
10.146419
  0
LINE
  8
001
  6
BYLAYER
 10
150.724828
 20
9.16205
 11
151.779907
 21
10.21713
  0
LINE
  8
001
  6
BYLAYER
 10
150.724828
 20
9.232761
 11
151.779907
 21
10.28784
  0
LINE
  8
001
  6
BYLAYER
 10
150.724828
 20
9.303471
 11
151.779907
 21
10.358551
  0
LINE
  8
001
  6
BYLAYER
 10
150.724828
 20
9.374182
 11
151.779907
 21
10.429262
  0
LINE
  8
001
  6
BYLAYER
 10
150.724828
 20
9.444893
 11
151.757389
 21
10.477454
  0
LINE
  8
001
  6
BYLAYER
 10
150.724828
 20
9.515603
 11
151.686678
 21
10.477454
  0
LINE
  8
001
  6
BYLAYER
 10
150.724828
 20
9.586314
 11
151.615968
 21
10.477454
  0
LINE
  8
001
  6
BYLAYER
 10
150.724828
 20
9.657025
 11
151.545257
 21
10.477454
  0
LINE
  8
001
  6
BYLAYER
 10
150.724828
 20
9.727736
 11
151.474546
 21
10.477454
  0
LINE
  8
001
  6
BYLAYER
 10
150.724828
 20
9.798446
 11
151.403836
 21
10.477454
  0
LINE
  8
001
  6
BYLAYER
 10
150.724828
 20
9.869157
 11
151.333125
 21
10.477454
  0
LINE
  8
001
  6
BYLAYER
 10
150.724828
 20
9.939868
 11
151.262414
 21
10.477454
  0
LINE
  8
001
  6
BYLAYER
 10
150.724828
 20
10.010578
 11
151.191704
 21
10.477454
  0
LINE
  8
001
  6
BYLAYER
 10
150.724828
 20
10.081289
 11
151.120993
 21
10.477454
  0
LINE
  8
001
  6
BYLAYER
 10
150.724828
 20
10.152
 11
151.050282
 21
10.477454
  0
LINE
  8
001
  6
BYLAYER
 10
150.724828
 20
10.22271
 11
150.979572
 21
10.477454
  0
LINE
  8
001
  6
BYLAYER
 10
150.724828
 20
10.293421
 11
150.908861
 21
10.477454
  0
LINE
  8
001
  6
BYLAYER
 10
150.724828
 20
10.364132
 11
150.83815
 21
10.477454
  0
LINE
  8
001
  6
BYLAYER
 10
150.724828
 20
10.434842
 11
150.76744
 21
10.477454
  0
LINE
  8
001
  6
BYLAYER
 10
151.722185
 20
10.725093
 11
151.779907
 21
10.782815
  0
LINE
  8
001
  6
BYLAYER
 10
151.651474
 20
10.725093
 11
151.779907
 21
10.853526
  0
LINE
  8
001
  6
BYLAYER
 10
151.580764
 20
10.725093
 11
151.779907
 21
10.924236
  0
LINE
  8
001
  6
BYLAYER
 10
151.510053
 20
10.725093
 11
151.779907
 21
10.994947
  0
LINE
  8
001
  6
BYLAYER
 10
151.439342
 20
10.725093
 11
151.779907
 21
11.065658
  0
LINE
  8
001
  6
BYLAYER
 10
151.368632
 20
10.725093
 11
151.779907
 21
11.136368
  0
LINE
  8
001
  6
BYLAYER
 10
151.297921
 20
10.725093
 11
151.779907
 21
11.207079
  0
LINE
  8
001
  6
BYLAYER
 10
151.22721
 20
10.725093
 11
151.779907
 21
11.27779
  0
LINE
  8
001
  6
BYLAYER
 10
151.1565
 20
10.725093
 11
151.779907
 21
11.3485
  0
LINE
  8
001
  6
BYLAYER
 10
151.085789
 20
10.725093
 11
151.779907
 21
11.419211
  0
LINE
  8
001
  6
BYLAYER
 10
151.015078
 20
10.725093
 11
151.779907
 21
11.489922
  0
LINE
  8
001
  6
BYLAYER
 10
150.944367
 20
10.725093
 11
151.740161
 21
11.520886
  0
LINE
  8
001
  6
BYLAYER
 10
150.873657
 20
10.725093
 11
151.66945
 21
11.520886
  0
LINE
  8
001
  6
BYLAYER
 10
150.802946
 20
10.725093
 11
151.59874
 21
11.520886
  0
LINE
  8
001
  6
BYLAYER
 10
150.732235
 20
10.725093
 11
151.528029
 21
11.520886
  0
LINE
  8
001
  6
BYLAYER
 10
150.724828
 20
10.788396
 11
151.457318
 21
11.520886
  0
LINE
  8
001
  6
BYLAYER
 10
150.724828
 20
10.859106
 11
151.386608
 21
11.520886
  0
LINE
  8
001
  6
BYLAYER
 10
150.724828
 20
10.929817
 11
151.315897
 21
11.520886
  0
LINE
  8
001
  6
BYLAYER
 10
150.724828
 20
11.000528
 11
151.245186
 21
11.520886
  0
LINE
  8
001
  6
BYLAYER
 10
150.724828
 20
11.071238
 11
151.174476
 21
11.520886
  0
LINE
  8
001
  6
BYLAYER
 10
150.724828
 20
11.141949
 11
151.103765
 21
11.520886
  0
LINE
  8
001
  6
BYLAYER
 10
150.724828
 20
11.21266
 11
151.033054
 21
11.520886
  0
LINE
  8
001
  6
BYLAYER
 10
150.724828
 20
11.28337
 11
150.962344
 21
11.520886
  0
LINE
  8
001
  6
BYLAYER
 10
150.724828
 20
11.354081
 11
150.891633
 21
11.520886
  0
LINE
  8
001
  6
BYLAYER
 10
150.724828
 20
11.424792
 11
150.820922
 21
11.520886
  0
LINE
  8
001
  6
BYLAYER
 10
150.724828
 20
11.495502
 11
150.750212
 21
11.520886
  0
LINE
  8
001
  6
BYLAYER
 10
157.543034
 20
7
 11
157.57551
 21
7.032476
  0
LINE
  8
001
  6
BYLAYER
 10
157.472323
 20
7
 11
157.57551
 21
7.103187
  0
LINE
  8
001
  6
BYLAYER
 10
157.401612
 20
7
 11
157.57551
 21
7.173897
  0
LINE
  8
001
  6
BYLAYER
 10
157.330902
 20
7
 11
157.57551
 21
7.244608
  0
LINE
  8
001
  6
BYLAYER
 10
157.260191
 20
7
 11
157.57551
 21
7.315319
  0
LINE
  8
001
  6
BYLAYER
 10
157.18948
 20
7
 11
157.57551
 21
7.386029
  0
LINE
  8
001
  6
BYLAYER
 10
157.11877
 20
7
 11
157.57551
 21
7.45674
  0
LINE
  8
001
  6
BYLAYER
 10
157.048059
 20
7
 11
157.57551
 21
7.527451
  0
LINE
  8
001
  6
BYLAYER
 10
156.977348
 20
7
 11
157.57551
 21
7.598161
  0
LINE
  8
001
  6
BYLAYER
 10
156.906638
 20
7
 11
157.57551
 21
7.668872
  0
LINE
  8
001
  6
BYLAYER
 10
156.835927
 20
7
 11
157.57551
 21
7.739583
  0
LINE
  8
001
  6
BYLAYER
 10
156.765216
 20
7
 11
157.57551
 21
7.810293
  0
LINE
  8
001
  6
BYLAYER
 10
156.694506
 20
7
 11
157.57551
 21
7.881004
  0
LINE
  8
001
  6
BYLAYER
 10
156.623795
 20
7
 11
157.57551
 21
7.951715
  0
LINE
  8
001
  6
BYLAYER
 10
156.553084
 20
7
 11
157.57551
 21
8.022425
  0
LINE
  8
001
  6
BYLAYER
 10
156.515629
 20
7.033256
 11
157.57551
 21
8.093136
  0
LINE
  8
001
  6
BYLAYER
 10
156.515629
 20
7.103966
 11
157.57551
 21
8.163847
  0
LINE
  8
001
  6
BYLAYER
 10
156.515629
 20
7.174677
 11
157.57551
 21
8.234557
  0
LINE
  8
001
  6
BYLAYER
 10
156.515629
 20
7.245388
 11
157.57551
 21
8.305268
  0
LINE
  8
001
  6
BYLAYER
 10
156.515629
 20
7.316098
 11
157.57551
 21
8.375979
  0
LINE
  8
001
  6
BYLAYER
 10
156.515629
 20
7.386809
 11
157.57551
 21
8.446689
  0
LINE
  8
001
  6
BYLAYER
 10
156.515629
 20
7.45752
 11
157.57551
 21
8.5174
  0
LINE
  8
001
  6
BYLAYER
 10
156.515629
 20
7.52823
 11
157.57551
 21
8.588111
  0
LINE
  8
001
  6
BYLAYER
 10
156.515629
 20
7.598941
 11
157.57551
 21
8.658821
  0
LINE
  8
001
  6
BYLAYER
 10
156.515629
 20
7.669652
 11
157.57551
 21
8.729532
  0
LINE
  8
001
  6
BYLAYER
 10
156.515629
 20
7.740362
 11
157.57551
 21
8.800243
  0
LINE
  8
001
  6
BYLAYER
 10
156.515629
 20
7.811073
 11
157.57551
 21
8.870953
  0
LINE
  8
001
  6
BYLAYER
 10
156.515629
 20
7.881784
 11
157.57551
 21
8.941664
  0
LINE
  8
001
  6
BYLAYER
 10
156.515629
 20
7.952495
 11
157.57551
 21
9.012375
  0
LINE
  8
001
  6
BYLAYER
 10
156.515629
 20
8.023205
 11
157.57551
 21
9.083085
  0
LINE
  8
001
  6
BYLAYER
 10
156.515629
 20
8.093916
 11
157.57551
 21
9.153796
  0
LINE
  8
001
  6
BYLAYER
 10
156.515629
 20
8.164627
 11
157.57551
 21
9.224507
  0
LINE
  8
001
  6
BYLAYER
 10
156.515629
 20
8.235337
 11
157.57551
 21
9.295218
  0
LINE
  8
001
  6
BYLAYER
 10
156.515629
 20
8.306048
 11
157.57551
 21
9.365928
  0
LINE
  8
001
  6
BYLAYER
 10
156.515629
 20
8.376759
 11
157.575472
 21
9.436601
  0
LINE
  8
001
  6
BYLAYER
 10
156.515629
 20
8.447469
 11
157.572695
 21
9.504535
  0
LINE
  8
001
  6
BYLAYER
 10
156.515629
 20
8.51818
 11
157.566017
 21
9.568568
  0
LINE
  8
001
  6
BYLAYER
 10
156.515629
 20
8.588891
 11
157.555983
 21
9.629245
  0
LINE
  8
001
  6
BYLAYER
 10
156.515629
 20
8.659601
 11
157.542993
 21
9.686965
  0
LINE
  8
001
  6
BYLAYER
 10
156.515629
 20
8.730312
 11
157.527349
 21
9.742031
  0
LINE
  8
001
  6
BYLAYER
 10
156.515629
 20
8.801023
 11
157.509281
 21
9.794675
  0
LINE
  8
001
  6
BYLAYER
 10
156.515629
 20
8.871733
 11
157.488974
 21
9.845078
  0
LINE
  8
001
  6
BYLAYER
 10
156.515629
 20
8.942444
 11
157.466571
 21
9.893385
  0
LINE
  8
001
  6
BYLAYER
 10
156.515629
 20
9.013155
 11
157.442185
 21
9.93971
  0
LINE
  8
001
  6
BYLAYER
 10
156.515629
 20
9.083865
 11
157.415907
 21
9.984143
  0
LINE
  8
001
  6
BYLAYER
 10
156.515629
 20
9.154576
 11
157.387807
 21
10.026754
  0
LINE
  8
001
  6
BYLAYER
 10
156.515629
 20
9.225287
 11
157.357939
 21
10.067597
  0
LINE
  8
001
  6
BYLAYER
 10
156.515629
 20
9.295997
 11
157.326344
 21
10.106712
  0
LINE
  8
001
  6
BYLAYER
 10
156.515629
 20
9.366708
 11
157.293046
 21
10.144125
  0
LINE
  8
001
  6
BYLAYER
 10
156.507259
 20
9.429049
 11
157.25806
 21
10.179849
  0
LINE
  8
001
  6
BYLAYER
 10
156.486127
 20
9.478628
 11
157.221389
 21
10.213889
  0
LINE
  8
001
  6
BYLAYER
 10
156.45581
 20
9.519021
 11
157.183023
 21
10.246234
  0
LINE
  8
001
  6
BYLAYER
 10
156.417235
 20
9.551157
 11
157.142942
 21
10.276864
  0
LINE
  8
001
  6
BYLAYER
 10
156.369825
 20
9.574458
 11
157.101112
 21
10.305744
  0
LINE
  8
001
  6
BYLAYER
 10
156.310827
 20
9.58617
 11
157.057486
 21
10.332829
  0
LINE
  8
001
  6
BYLAYER
 10
156.24047
 20
9.586524
 11
157.012002
 21
10.358055
  0
LINE
  8
001
  6
BYLAYER
 10
156.169759
 20
9.586524
 11
156.964577
 21
10.381341
  0
LINE
  8
001
  6
BYLAYER
 10
156.099049
 20
9.586524
 11
156.915109
 21
10.402584
  0
LINE
  8
001
  6
BYLAYER
 10
153.441814
 20
7
 11
153.45643
 21
7.014615
  0
LINE
  8
001
  6
BYLAYER
 10
156.028338
 20
9.586524
 11
156.863468
 21
10.421654
  0
LINE
  8
001
  6
BYLAYER
 10
153.371104
 20
7
 11
153.45643
 21
7.085326
  0
LINE
  8
001
  6
BYLAYER
 10
155.957627
 20
9.586524
 11
156.80949
 21
10.438386
  0
LINE
  8
001
  6
BYLAYER
 10
153.300393
 20
7
 11
153.45643
 21
7.156037
  0
LINE
  8
001
  6
BYLAYER
 10
155.886917
 20
9.586524
 11
156.752967
 21
10.452574
  0
LINE
  8
001
  6
BYLAYER
 10
153.229682
 20
7
 11
153.45643
 21
7.226747
  0
LINE
  8
001
  6
BYLAYER
 10
155.816206
 20
9.586524
 11
156.693629
 21
10.463947
  0
LINE
  8
001
  6
BYLAYER
 10
153.158972
 20
7
 11
153.45643
 21
7.297458
  0
LINE
  8
001
  6
BYLAYER
 10
155.745495
 20
9.586524
 11
156.631126
 21
10.472154
  0
LINE
  8
001
  6
BYLAYER
 10
153.088261
 20
7
 11
153.45643
 21
7.368169
  0
LINE
  8
001
  6
BYLAYER
 10
155.674785
 20
9.586524
 11
156.564983
 21
10.476722
  0
LINE
  8
001
  6
BYLAYER
 10
153.01755
 20
7
 11
153.45643
 21
7.438879
  0
LINE
  8
001
  6
BYLAYER
 10
155.604074
 20
9.586524
 11
156.495005
 21
10.477454
  0
LINE
  8
001
  6
BYLAYER
 10
152.94684
 20
7
 11
153.45643
 21
7.50959
  0
LINE
  8
001
  6
BYLAYER
 10
155.533363
 20
9.586524
 11
156.424294
 21
10.477454
  0
LINE
  8
001
  6
BYLAYER
 10
152.876129
 20
7
 11
153.45643
 21
7.580301
  0
LINE
  8
001
  6
BYLAYER
 10
155.462653
 20
9.586524
 11
156.353583
 21
10.477454
  0
LINE
  8
001
  6
BYLAYER
 10
152.805418
 20
7
 11
153.45643
 21
7.651011
  0
LINE
  8
001
  6
BYLAYER
 10
155.391942
 20
9.586524
 11
156.282872
 21
10.477454
  0
LINE
  8
001
  6
BYLAYER
 10
152.734708
 20
7
 11
153.45643
 21
7.721722
  0
LINE
  8
001
  6
BYLAYER
 10
155.321231
 20
9.586524
 11
156.212162
 21
10.477454
  0
LINE
  8
001
  6
BYLAYER
 10
152.663997
 20
7
 11
153.45643
 21
7.792433
  0
LINE
  8
001
  6
BYLAYER
 10
155.250521
 20
9.586524
 11
156.141451
 21
10.477454
  0
LINE
  8
001
  6
BYLAYER
 10
152.593286
 20
7
 11
153.45643
 21
7.863143
  0
LINE
  8
001
  6
BYLAYER
 10
155.17981
 20
9.586524
 11
156.07074
 21
10.477454
  0
LINE
  8
001
  6
BYLAYER
 10
152.522576
 20
7
 11
153.45643
 21
7.933854
  0
LINE
  8
001
  6
BYLAYER
 10
155.109099
 20
9.586524
 11
156.00003
 21
10.477454
  0
LINE
  8
001
  6
BYLAYER
 10
152.451865
 20
7
 11
153.45643
 21
8.004565
  0
LINE
  8
001
  6
BYLAYER
 10
155.038389
 20
9.586524
 11
155.929319
 21
10.477454
  0
LINE
  8
001
  6
BYLAYER
 10
152.396549
 20
7.015395
 11
153.45643
 21
8.075275
  0
LINE
  8
001
  6
BYLAYER
 10
154.967678
 20
9.586524
 11
155.858608
 21
10.477454
  0
LINE
  8
001
  6
BYLAYER
 10
152.396549
 20
7.086106
 11
153.45643
 21
8.145986
  0
LINE
  8
001
  6
BYLAYER
 10
154.896967
 20
9.586524
 11
155.787898
 21
10.477454
  0
LINE
  8
001
  6
BYLAYER
 10
152.396549
 20
7.156817
 11
153.45643
 21
8.216697
  0
LINE
  8
001
  6
BYLAYER
 10
154.826257
 20
9.586524
 11
155.717187
 21
10.477454
  0
LINE
  8
001
  6
BYLAYER
 10
152.396549
 20
7.227527
 11
153.45643
 21
8.287407
  0
LINE
  8
001
  6
BYLAYER
 10
154.755546
 20
9.586524
 11
155.646476
 21
10.477454
  0
LINE
  8
001
  6
BYLAYER
 10
152.396549
 20
7.298238
 11
153.45643
 21
8.358118
  0
LINE
  8
001
  6
BYLAYER
 10
154.684835
 20
9.586524
 11
155.575766
 21
10.477454
  0
LINE
  8
001
  6
BYLAYER
 10
152.396549
 20
7.368949
 11
153.45643
 21
8.428829
  0
LINE
  8
001
  6
BYLAYER
 10
154.614124
 20
9.586524
 11
155.505055
 21
10.477454
  0
LINE
  8
001
  6
BYLAYER
 10
152.396549
 20
7.439659
 11
153.45643
 21
8.49954
  0
LINE
  8
001
  6
BYLAYER
 10
154.543414
 20
9.586524
 11
155.434344
 21
10.477454
  0
LINE
  8
001
  6
BYLAYER
 10
152.396549
 20
7.51037
 11
153.45643
 21
8.57025
  0
LINE
  8
001
  6
BYLAYER
 10
154.472703
 20
9.586524
 11
155.363634
 21
10.477454
  0
LINE
  8
001
  6
BYLAYER
 10
152.396549
 20
7.581081
 11
153.45643
 21
8.640961
  0
LINE
  8
001
  6
BYLAYER
 10
154.401992
 20
9.586524
 11
155.292923
 21
10.477454
  0
LINE
  8
001
  6
BYLAYER
 10
152.396549
 20
7.651791
 11
153.45643
 21
8.711672
  0
LINE
  8
001
  6
BYLAYER
 10
154.331282
 20
9.586524
 11
155.222212
 21
10.477454
  0
LINE
  8
001
  6
BYLAYER
 10
152.396549
 20
7.722502
 11
153.45643
 21
8.782382
  0
LINE
  8
001
  6
BYLAYER
 10
154.260571
 20
9.586524
 11
155.151502
 21
10.477454
  0
LINE
  8
001
  6
BYLAYER
 10
152.396549
 20
7.793213
 11
153.45643
 21
8.853093
  0
LINE
  8
001
  6
BYLAYER
 10
154.18986
 20
9.586524
 11
155.080791
 21
10.477454
  0
LINE
  8
001
  6
BYLAYER
 10
152.396549
 20
7.863923
 11
153.45643
 21
8.923804
  0
LINE
  8
001
  6
BYLAYER
 10
154.11915
 20
9.586524
 11
155.01008
 21
10.477454
  0
LINE
  8
001
  6
BYLAYER
 10
152.396549
 20
7.934634
 11
153.45643
 21
8.994514
  0
LINE
  8
001
  6
BYLAYER
 10
154.048439
 20
9.586524
 11
154.93937
 21
10.477454
  0
LINE
  8
001
  6
BYLAYER
 10
152.396549
 20
8.005345
 11
153.45643
 21
9.065225
  0
LINE
  8
001
  6
BYLAYER
 10
153.977728
 20
9.586524
 11
154.868659
 21
10.477454
  0
LINE
  8
001
  6
BYLAYER
 10
152.396549
 20
8.076055
 11
153.45643
 21
9.135936
  0
LINE
  8
001
  6
BYLAYER
 10
153.907018
 20
9.586524
 11
154.797948
 21
10.477454
  0
LINE
  8
001
  6
BYLAYER
 10
152.396549
 20
8.146766
 11
153.45643
 21
9.206646
  0
LINE
  8
001
  6
BYLAYER
 10
153.836307
 20
9.586524
 11
154.727238
 21
10.477454
  0
LINE
  8
001
  6
BYLAYER
 10
152.396549
 20
8.217477
 11
153.45643
 21
9.277357
  0
LINE
  8
001
  6
BYLAYER
 10
153.765596
 20
9.586524
 11
154.656527
 21
10.477454
  0
LINE
  8
001
  6
BYLAYER
 10
152.396549
 20
8.288187
 11
153.45643
 21
9.348068
  0
LINE
  8
001
  6
BYLAYER
 10
153.694886
 20
9.586524
 11
154.585816
 21
10.477454
  0
LINE
  8
001
  6
BYLAYER
 10
152.396549
 20
8.358898
 11
153.45643
 21
9.418778
  0
LINE
  8
001
  6
BYLAYER
 10
153.624175
 20
9.586524
 11
154.515106
 21
10.477454
  0
LINE
  8
001
  6
BYLAYER
 10
152.396549
 20
8.429609
 11
153.45643
 21
9.489489
  0
LINE
  8
001
  6
BYLAYER
 10
153.553464
 20
9.586524
 11
154.444395
 21
10.477454
  0
LINE
  8
001
  6
BYLAYER
 10
152.396549
 20
8.500319
 11
153.45643
 21
9.5602
  0
LINE
  8
001
  6
BYLAYER
 10
153.482754
 20
9.586524
 11
154.373684
 21
10.477454
  0
LINE
  8
001
  6
BYLAYER
 10
152.396549
 20
8.57103
 11
154.302973
 21
10.477454
  0
LINE
  8
001
  6
BYLAYER
 10
152.396549
 20
8.641741
 11
154.232263
 21
10.477454
  0
LINE
  8
001
  6
BYLAYER
 10
152.396549
 20
8.712451
 11
154.161552
 21
10.477454
  0
LINE
  8
001
  6
BYLAYER
 10
152.396549
 20
8.783162
 11
154.090841
 21
10.477454
  0
LINE
  8
001
  6
BYLAYER
 10
152.396549
 20
8.853873
 11
154.020131
 21
10.477454
  0
LINE
  8
001
  6
BYLAYER
 10
152.396549
 20
8.924583
 11
153.94942
 21
10.477454
  0
LINE
  8
001
  6
BYLAYER
 10
152.396549
 20
8.995294
 11
153.878709
 21
10.477454
  0
LINE
  8
001
  6
BYLAYER
 10
152.396549
 20
9.066005
 11
153.807999
 21
10.477454
  0
LINE
  8
001
  6
BYLAYER
 10
152.396549
 20
9.136715
 11
153.737288
 21
10.477454
  0
LINE
  8
001
  6
BYLAYER
 10
152.396549
 20
9.207426
 11
153.666577
 21
10.477454
  0
LINE
  8
001
  6
BYLAYER
 10
152.396549
 20
9.278137
 11
153.595867
 21
10.477454
  0
LINE
  8
001
  6
BYLAYER
 10
152.396549
 20
9.348848
 11
153.525156
 21
10.477454
  0
LINE
  8
001
  6
BYLAYER
 10
152.396549
 20
9.419558
 11
153.454445
 21
10.477454
  0
LINE
  8
001
  6
BYLAYER
 10
152.396549
 20
9.490269
 11
153.383735
 21
10.477454
  0
LINE
  8
001
  6
BYLAYER
 10
152.396549
 20
9.56098
 11
153.313024
 21
10.477454
  0
LINE
  8
001
  6
BYLAYER
 10
152.396549
 20
9.63169
 11
153.242313
 21
10.477454
  0
LINE
  8
001
  6
BYLAYER
 10
152.396549
 20
9.702401
 11
153.171603
 21
10.477454
  0
LINE
  8
001
  6
BYLAYER
 10
152.396549
 20
9.773112
 11
153.100892
 21
10.477454
  0
LINE
  8
001
  6
BYLAYER
 10
152.396549
 20
9.843822
 11
153.030181
 21
10.477454
  0
LINE
  8
001
  6
BYLAYER
 10
152.396549
 20
9.914533
 11
152.959471
 21
10.477454
  0
LINE
  8
001
  6
BYLAYER
 10
152.396549
 20
9.985244
 11
152.88876
 21
10.477454
  0
LINE
  8
001
  6
BYLAYER
 10
152.396549
 20
10.055954
 11
152.818049
 21
10.477454
  0
LINE
  8
001
  6
BYLAYER
 10
152.396549
 20
10.126665
 11
152.747339
 21
10.477454
  0
LINE
  8
001
  6
BYLAYER
 10
152.396549
 20
10.197376
 11
152.676628
 21
10.477454
  0
LINE
  8
001
  6
BYLAYER
 10
152.396549
 20
10.268086
 11
152.605917
 21
10.477454
  0
LINE
  8
001
  6
BYLAYER
 10
152.396549
 20
10.338797
 11
152.535207
 21
10.477454
  0
LINE
  8
001
  6
BYLAYER
 10
152.396549
 20
10.409508
 11
152.464496
 21
10.477454
  0
LINE
  8
001
  6
BYLAYER
 10
163.482731
 20
7
 11
163.500011
 21
7.01728
  0
LINE
  8
001
  6
BYLAYER
 10
163.41202
 20
7
 11
163.500011
 21
7.087991
  0
LINE
  8
001
  6
BYLAYER
 10
163.341309
 20
7
 11
163.500011
 21
7.158702
  0
LINE
  8
001
  6
BYLAYER
 10
163.270599
 20
7
 11
163.500011
 21
7.229412
  0
LINE
  8
001
  6
BYLAYER
 10
163.199888
 20
7
 11
163.500011
 21
7.300123
  0
LINE
  8
001
  6
BYLAYER
 10
163.129177
 20
7
 11
163.500011
 21
7.370834
  0
LINE
  8
001
  6
BYLAYER
 10
163.058467
 20
7
 11
163.500011
 21
7.441544
  0
LINE
  8
001
  6
BYLAYER
 10
162.987756
 20
7
 11
163.500011
 21
7.512255
  0
LINE
  8
001
  6
BYLAYER
 10
162.917045
 20
7
 11
163.500011
 21
7.582966
  0
LINE
  8
001
  6
BYLAYER
 10
162.846335
 20
7
 11
163.500011
 21
7.653676
  0
LINE
  8
001
  6
BYLAYER
 10
162.775624
 20
7
 11
163.500011
 21
7.724387
  0
LINE
  8
001
  6
BYLAYER
 10
162.704913
 20
7
 11
163.500011
 21
7.795098
  0
LINE
  8
001
  6
BYLAYER
 10
162.634203
 20
7
 11
163.500011
 21
7.865808
  0
LINE
  8
001
  6
BYLAYER
 10
162.563492
 20
7
 11
163.500011
 21
7.936519
  0
LINE
  8
001
  6
BYLAYER
 10
162.492781
 20
7
 11
163.500011
 21
8.00723
  0
LINE
  8
001
  6
BYLAYER
 10
162.422071
 20
7
 11
163.500011
 21
8.07794
  0
LINE
  8
001
  6
BYLAYER
 10
162.35136
 20
7
 11
163.500011
 21
8.148651
  0
LINE
  8
001
  6
BYLAYER
 10
162.280649
 20
7
 11
163.500011
 21
8.219362
  0
LINE
  8
001
  6
BYLAYER
 10
162.209938
 20
7
 11
163.500011
 21
8.290072
  0
LINE
  8
001
  6
BYLAYER
 10
162.139228
 20
7
 11
163.500011
 21
8.360783
  0
LINE
  8
001
  6
BYLAYER
 10
162.068517
 20
7
 11
163.500011
 21
8.431494
  0
LINE
  8
001
  6
BYLAYER
 10
161.997806
 20
7
 11
163.500011
 21
8.502204
  0
LINE
  8
001
  6
BYLAYER
 10
161.927096
 20
7
 11
163.500011
 21
8.572915
  0
LINE
  8
001
  6
BYLAYER
 10
161.856385
 20
7
 11
163.500011
 21
8.643626
  0
LINE
  8
001
  6
BYLAYER
 10
161.785674
 20
7
 11
163.500011
 21
8.714336
  0
LINE
  8
001
  6
BYLAYER
 10
161.714964
 20
7
 11
163.500011
 21
8.785047
  0
LINE
  8
001
  6
BYLAYER
 10
161.644253
 20
7
 11
162.423309
 21
7.779056
  0
LINE
  8
001
  6
BYLAYER
 10
162.438187
 20
7.793934
 11
163.500011
 21
8.855758
  0
LINE
  8
001
  6
BYLAYER
 10
161.573542
 20
7
 11
162.352598
 21
7.779056
  0
LINE
  8
001
  6
BYLAYER
 10
162.438187
 20
7.864644
 11
163.500011
 21
8.926469
  0
LINE
  8
001
  6
BYLAYER
 10
161.502832
 20
7
 11
162.281887
 21
7.779056
  0
LINE
  8
001
  6
BYLAYER
 10
162.438187
 20
7.935355
 11
163.500011
 21
8.997179
  0
LINE
  8
001
  6
BYLAYER
 10
161.432121
 20
7
 11
162.211177
 21
7.779056
  0
LINE
  8
001
  6
BYLAYER
 10
162.438187
 20
8.006066
 11
163.500011
 21
9.06789
  0
LINE
  8
001
  6
BYLAYER
 10
161.36141
 20
7
 11
162.140466
 21
7.779056
  0
LINE
  8
001
  6
BYLAYER
 10
162.438187
 20
8.076776
 11
163.500011
 21
9.138601
  0
LINE
  8
001
  6
BYLAYER
 10
161.2907
 20
7
 11
162.069755
 21
7.779056
  0
LINE
  8
001
  6
BYLAYER
 10
162.438187
 20
8.147487
 11
163.500011
 21
9.209311
  0
LINE
  8
001
  6
BYLAYER
 10
161.219989
 20
7
 11
161.999045
 21
7.779056
  0
LINE
  8
001
  6
BYLAYER
 10
162.438187
 20
8.218198
 11
163.500011
 21
9.280022
  0
LINE
  8
001
  6
BYLAYER
 10
161.149278
 20
7
 11
161.928334
 21
7.779056
  0
LINE
  8
001
  6
BYLAYER
 10
162.438187
 20
8.288908
 11
163.497687
 21
9.348408
  0
LINE
  8
001
  6
BYLAYER
 10
161.078568
 20
7
 11
161.857623
 21
7.779056
  0
LINE
  8
001
  6
BYLAYER
 10
162.387366
 20
8.308798
 11
163.493913
 21
9.415345
  0
LINE
  8
001
  6
BYLAYER
 10
161.007857
 20
7
 11
161.786913
 21
7.779056
  0
LINE
  8
001
  6
BYLAYER
 10
162.316655
 20
8.308798
 11
163.489324
 21
9.481467
  0
LINE
  8
001
  6
BYLAYER
 10
160.937146
 20
7
 11
161.716202
 21
7.779056
  0
LINE
  8
001
  6
BYLAYER
 10
162.245944
 20
8.308798
 11
163.483467
 21
9.546321
  0
LINE
  8
001
  6
BYLAYER
 10
160.866436
 20
7
 11
161.645491
 21
7.779056
  0
LINE
  8
001
  6
BYLAYER
 10
162.175234
 20
8.308798
 11
163.476044
 21
9.609608
  0
LINE
  8
001
  6
BYLAYER
 10
160.795725
 20
7
 11
161.574781
 21
7.779056
  0
LINE
  8
001
  6
BYLAYER
 10
162.104523
 20
8.308798
 11
163.466768
 21
9.671043
  0
LINE
  8
001
  6
BYLAYER
 10
160.725014
 20
7
 11
161.50407
 21
7.779056
  0
LINE
  8
001
  6
BYLAYER
 10
162.033812
 20
8.308798
 11
163.455417
 21
9.730403
  0
LINE
  8
001
  6
BYLAYER
 10
160.654304
 20
7
 11
161.433359
 21
7.779056
  0
LINE
  8
001
  6
BYLAYER
 10
161.963102
 20
8.308798
 11
163.441736
 21
9.787433
  0
LINE
  8
001
  6
BYLAYER
 10
160.583593
 20
7
 11
161.362649
 21
7.779056
  0
LINE
  8
001
  6
BYLAYER
 10
161.892391
 20
8.308798
 11
163.425856
 21
9.842263
  0
LINE
  8
001
  6
BYLAYER
 10
160.512882
 20
7
 11
161.291938
 21
7.779056
  0
LINE
  8
001
  6
BYLAYER
 10
161.82168
 20
8.308798
 11
163.407583
 21
9.894701
  0
LINE
  8
001
  6
BYLAYER
 10
160.442172
 20
7
 11
161.221227
 21
7.779056
  0
LINE
  8
001
  6
BYLAYER
 10
161.75097
 20
8.308798
 11
163.385985
 21
9.943814
  0
LINE
  8
001
  6
BYLAYER
 10
160.371461
 20
7
 11
161.150517
 21
7.779056
  0
LINE
  8
001
  6
BYLAYER
 10
161.680259
 20
8.308798
 11
163.35885
 21
9.98739
  0
LINE
  8
001
  6
BYLAYER
 10
160.30075
 20
7
 11
161.079806
 21
7.779056
  0
LINE
  8
001
  6
BYLAYER
 10
161.609548
 20
8.308798
 11
162.404162
 21
9.103412
  0
LINE
  8
001
  6
BYLAYER
 10
162.438187
 20
9.137437
 11
163.329997
 21
10.029247
  0
LINE
  8
001
  6
BYLAYER
 10
160.230039
 20
7
 11
161.009095
 21
7.779056
  0
LINE
  8
001
  6
BYLAYER
 10
161.538838
 20
8.308798
 11
162.333452
 21
9.103412
  0
LINE
  8
001
  6
BYLAYER
 10
162.438187
 20
9.208147
 11
163.301143
 21
10.071104
  0
LINE
  8
001
  6
BYLAYER
 10
160.159329
 20
7
 11
160.938385
 21
7.779056
  0
LINE
  8
001
  6
BYLAYER
 10
161.468127
 20
8.308798
 11
162.262741
 21
9.103412
  0
LINE
  8
001
  6
BYLAYER
 10
162.438187
 20
9.278858
 11
163.27229
 21
10.112961
  0
LINE
  8
001
  6
BYLAYER
 10
160.088618
 20
7
 11
160.867674
 21
7.779056
  0
LINE
  8
001
  6
BYLAYER
 10
161.397416
 20
8.308798
 11
162.19203
 21
9.103412
  0
LINE
  8
001
  6
BYLAYER
 10
162.438187
 20
9.349569
 11
163.240558
 21
10.15194
  0
LINE
  8
001
  6
BYLAYER
 10
160.017907
 20
7
 11
160.796963
 21
7.779056
  0
LINE
  8
001
  6
BYLAYER
 10
161.326706
 20
8.308798
 11
162.121319
 21
9.103412
  0
LINE
  8
001
  6
BYLAYER
 10
162.438187
 20
9.420279
 11
163.202865
 21
10.184958
  0
LINE
  8
001
  6
BYLAYER
 10
159.947197
 20
7
 11
160.726253
 21
7.779056
  0
LINE
  8
001
  6
BYLAYER
 10
161.255995
 20
8.308798
 11
162.050609
 21
9.103412
  0
LINE
  8
001
  6
BYLAYER
 10
162.438187
 20
9.49099
 11
163.165172
 21
10.217975
  0
LINE
  8
001
  6
BYLAYER
 10
159.876486
 20
7
 11
160.655542
 21
7.779056
  0
LINE
  8
001
  6
BYLAYER
 10
161.185284
 20
8.308798
 11
161.979898
 21
9.103412
  0
LINE
  8
001
  6
BYLAYER
 10
162.431999
 20
9.555513
 11
163.127479
 21
10.250993
  0
LINE
  8
001
  6
BYLAYER
 10
159.805775
 20
7
 11
160.584831
 21
7.779056
  0
LINE
  8
001
  6
BYLAYER
 10
161.114574
 20
8.308798
 11
161.909187
 21
9.103412
  0
LINE
  8
001
  6
BYLAYER
 10
162.410529
 20
9.604754
 11
163.087542
 21
10.281767
  0
LINE
  8
001
  6
BYLAYER
 10
159.735065
 20
7
 11
160.514121
 21
7.779056
  0
LINE
  8
001
  6
BYLAYER
 10
161.043863
 20
8.308798
 11
161.838477
 21
9.103412
  0
LINE
  8
001
  6
BYLAYER
 10
162.378228
 20
9.643163
 11
163.042549
 21
10.307485
  0
LINE
  8
001
  6
BYLAYER
 10
159.664354
 20
7
 11
160.44341
 21
7.779056
  0
LINE
  8
001
  6
BYLAYER
 10
160.973152
 20
8.308798
 11
161.767766
 21
9.103412
  0
LINE
  8
001
  6
BYLAYER
 10
162.33592
 20
9.671566
 11
162.996604
 21
10.33225
  0
LINE
  8
001
  6
BYLAYER
 10
159.593643
 20
7
 11
160.372699
 21
7.779056
  0
LINE
  8
001
  6
BYLAYER
 10
160.902442
 20
8.308798
 11
161.697055
 21
9.103412
  0
LINE
  8
001
  6
BYLAYER
 10
162.281577
 20
9.687934
 11
162.946967
 21
10.353324
  0
LINE
  8
001
  6
BYLAYER
 10
159.522933
 20
7
 11
160.301989
 21
7.779056
  0
LINE
  8
001
  6
BYLAYER
 10
160.831731
 20
8.308798
 11
161.626345
 21
9.103412
  0
LINE
  8
001
  6
BYLAYER
 10
162.212516
 20
9.689584
 11
162.896779
 21
10.373846
  0
LINE
  8
001
  6
BYLAYER
 10
159.452222
 20
7
 11
160.231278
 21
7.779056
  0
LINE
  8
001
  6
BYLAYER
 10
160.76102
 20
8.308798
 11
161.555634
 21
9.103412
  0
LINE
  8
001
  6
BYLAYER
 10
162.141806
 20
9.689584
 11
162.844056
 21
10.391834
  0
LINE
  8
001
  6
BYLAYER
 10
159.381511
 20
7
 11
160.160567
 21
7.779056
  0
LINE
  8
001
  6
BYLAYER
 10
160.69031
 20
8.308798
 11
161.484923
 21
9.103412
  0
LINE
  8
001
  6
BYLAYER
 10
162.071095
 20
9.689584
 11
162.789301
 21
10.40779
  0
LINE
  8
001
  6
BYLAYER
 10
159.311265
 20
7.000465
 11
160.089856
 21
7.779056
  0
LINE
  8
001
  6
BYLAYER
 10
160.619599
 20
8.308798
 11
161.414213
 21
9.103412
  0
LINE
  8
001
  6
BYLAYER
 10
162.000384
 20
9.689584
 11
162.732955
 21
10.422155
  0
LINE
  8
001
  6
BYLAYER
 10
159.24195
 20
7.00186
 11
160.019146
 21
7.779056
  0
LINE
  8
001
  6
BYLAYER
 10
160.548888
 20
8.308798
 11
161.343502
 21
9.103412
  0
LINE
  8
001
  6
BYLAYER
 10
161.929674
 20
9.689584
 11
162.67509
 21
10.435
  0
LINE
  8
001
  6
BYLAYER
 10
159.173417
 20
7.004037
 11
159.948435
 21
7.779056
  0
LINE
  8
001
  6
BYLAYER
 10
160.478178
 20
8.308798
 11
161.272791
 21
9.103412
  0
LINE
  8
001
  6
BYLAYER
 10
161.858963
 20
9.689584
 11
162.615842
 21
10.446463
  0
LINE
  8
001
  6
BYLAYER
 10
159.106123
 20
7.007455
 11
159.877724
 21
7.779056
  0
LINE
  8
001
  6
BYLAYER
 10
160.407467
 20
8.308798
 11
161.202081
 21
9.103412
  0
LINE
  8
001
  6
BYLAYER
 10
161.788252
 20
9.689584
 11
162.555019
 21
10.45635
  0
LINE
  8
001
  6
BYLAYER
 10
159.040424
 20
7.012466
 11
159.807014
 21
7.779056
  0
LINE
  8
001
  6
BYLAYER
 10
160.336756
 20
8.308798
 11
161.13137
 21
9.103412
  0
LINE
  8
001
  6
BYLAYER
 10
161.717542
 20
9.689584
 11
162.492466
 21
10.464508
  0
LINE
  8
001
  6
BYLAYER
 10
158.976296
 20
7.019049
 11
159.736303
 21
7.779056
  0
LINE
  8
001
  6
BYLAYER
 10
160.266045
 20
8.308798
 11
161.060659
 21
9.103412
  0
LINE
  8
001
  6
BYLAYER
 10
161.646831
 20
9.689584
 11
162.427994
 21
10.470747
  0
LINE
  8
001
  6
BYLAYER
 10
158.913722
 20
7.027185
 11
159.665592
 21
7.779056
  0
LINE
  8
001
  6
BYLAYER
 10
160.195335
 20
8.308798
 11
160.989949
 21
9.103412
  0
LINE
  8
001
  6
BYLAYER
 10
161.57612
 20
9.689584
 11
162.361852
 21
10.475316
  0
LINE
  8
001
  6
BYLAYER
 10
158.852716
 20
7.03689
 11
159.594882
 21
7.779056
  0
LINE
  8
001
  6
BYLAYER
 10
160.124624
 20
8.308798
 11
160.919238
 21
9.103412
  0
LINE
  8
001
  6
BYLAYER
 10
161.50541
 20
9.689584
 11
162.29328
 21
10.477454
  0
LINE
  8
001
  6
BYLAYER
 10
158.793291
 20
7.048175
 11
159.524171
 21
7.779056
  0
LINE
  8
001
  6
BYLAYER
 10
160.053913
 20
8.308798
 11
160.848527
 21
9.103412
  0
LINE
  8
001
  6
BYLAYER
 10
161.434699
 20
9.689584
 11
162.222569
 21
10.477454
  0
LINE
  8
001
  6
BYLAYER
 10
158.735575
 20
7.06117
 11
159.45346
 21
7.779056
  0
LINE
  8
001
  6
BYLAYER
 10
159.983203
 20
8.308798
 11
160.777817
 21
9.103412
  0
LINE
  8
001
  6
BYLAYER
 10
161.363988
 20
9.689584
 11
162.151859
 21
10.477454
  0
LINE
  8
001
  6
BYLAYER
 10
158.679658
 20
7.075964
 11
159.38275
 21
7.779056
  0
LINE
  8
001
  6
BYLAYER
 10
159.912492
 20
8.308798
 11
160.707106
 21
9.103412
  0
LINE
  8
001
  6
BYLAYER
 10
161.293278
 20
9.689584
 11
162.081148
 21
10.477454
  0
LINE
  8
001
  6
BYLAYER
 10
158.625608
 20
7.092625
 11
159.33884
 21
7.805857
  0
LINE
  8
001
  6
BYLAYER
 10
159.841781
 20
8.308798
 11
160.636395
 21
9.103412
  0
LINE
  8
001
  6
BYLAYER
 10
161.222567
 20
9.689584
 11
162.010437
 21
10.477454
  0
LINE
  8
001
  6
BYLAYER
 10
158.573635
 20
7.111363
 11
159.33884
 21
7.876567
  0
LINE
  8
001
  6
BYLAYER
 10
159.771071
 20
8.308798
 11
160.565685
 21
9.103412
  0
LINE
  8
001
  6
BYLAYER
 10
161.151856
 20
9.689584
 11
161.939727
 21
10.477454
  0
LINE
  8
001
  6
BYLAYER
 10
158.52407
 20
7.132508
 11
159.33884
 21
7.947278
  0
LINE
  8
001
  6
BYLAYER
 10
159.70036
 20
8.308798
 11
160.494974
 21
9.103412
  0
LINE
  8
001
  6
BYLAYER
 10
161.081145
 20
9.689584
 11
161.869016
 21
10.477454
  0
LINE
  8
001
  6
BYLAYER
 10
158.479022
 20
7.158171
 11
159.33884
 21
8.017989
  0
LINE
  8
001
  6
BYLAYER
 10
159.629649
 20
8.308798
 11
160.424263
 21
9.103412
  0
LINE
  8
001
  6
BYLAYER
 10
161.010435
 20
9.689584
 11
161.798305
 21
10.477454
  0
LINE
  8
001
  6
BYLAYER
 10
158.433974
 20
7.183834
 11
159.33884
 21
8.088699
  0
LINE
  8
001
  6
BYLAYER
 10
159.558939
 20
8.308798
 11
160.353553
 21
9.103412
  0
LINE
  8
001
  6
BYLAYER
 10
160.939724
 20
9.689584
 11
161.727595
 21
10.477454
  0
LINE
  8
001
  6
BYLAYER
 10
158.392332
 20
7.212902
 11
159.33884
 21
8.15941
  0
LINE
  8
001
  6
BYLAYER
 10
159.488228
 20
8.308798
 11
160.282842
 21
9.103412
  0
LINE
  8
001
  6
BYLAYER
 10
160.869013
 20
9.689584
 11
161.656884
 21
10.477454
  0
LINE
  8
001
  6
BYLAYER
 10
158.353603
 20
7.244884
 11
159.33884
 21
8.230121
  0
LINE
  8
001
  6
BYLAYER
 10
159.417517
 20
8.308798
 11
160.212131
 21
9.103412
  0
LINE
  8
001
  6
BYLAYER
 10
160.798303
 20
9.689584
 11
161.586173
 21
10.477454
  0
LINE
  8
001
  6
BYLAYER
 10
158.314874
 20
7.276865
 11
159.33884
 21
8.300832
  0
LINE
  8
001
  6
BYLAYER
 10
159.346807
 20
8.308798
 11
160.14142
 21
9.103412
  0
LINE
  8
001
  6
BYLAYER
 10
160.727592
 20
9.689584
 11
161.515463
 21
10.477454
  0
LINE
  8
001
  6
BYLAYER
 10
158.280968
 20
7.31367
 11
160.07071
 21
9.103412
  0
LINE
  8
001
  6
BYLAYER
 10
160.656881
 20
9.689584
 11
161.444752
 21
10.477454
  0
LINE
  8
001
  6
BYLAYER
 10
158.24932
 20
7.352733
 11
159.999999
 21
9.103412
  0
LINE
  8
001
  6
BYLAYER
 10
160.586171
 20
9.689584
 11
161.374041
 21
10.477454
  0
LINE
  8
001
  6
BYLAYER
 10
158.222591
 20
7.396715
 11
159.929288
 21
9.103412
  0
LINE
  8
001
  6
BYLAYER
 10
160.51546
 20
9.689584
 11
161.303331
 21
10.477454
  0
LINE
  8
001
  6
BYLAYER
 10
158.196303
 20
7.441137
 11
159.858578
 21
9.103412
  0
LINE
  8
001
  6
BYLAYER
 10
160.444749
 20
9.689584
 11
161.23262
 21
10.477454
  0
LINE
  8
001
  6
BYLAYER
 10
158.175944
 20
7.491489
 11
159.787867
 21
9.103412
  0
LINE
  8
001
  6
BYLAYER
 10
160.374039
 20
9.689584
 11
161.161909
 21
10.477454
  0
LINE
  8
001
  6
BYLAYER
 10
158.159625
 20
7.545881
 11
159.717156
 21
9.103412
  0
LINE
  8
001
  6
BYLAYER
 10
160.303328
 20
9.689584
 11
161.091199
 21
10.477454
  0
LINE
  8
001
  6
BYLAYER
 10
158.147164
 20
7.604131
 11
159.646446
 21
9.103412
  0
LINE
  8
001
  6
BYLAYER
 10
160.232617
 20
9.689584
 11
161.020488
 21
10.477454
  0
LINE
  8
001
  6
BYLAYER
 10
158.138577
 20
7.666254
 11
159.575735
 21
9.103412
  0
LINE
  8
001
  6
BYLAYER
 10
160.161907
 20
9.689584
 11
160.949777
 21
10.477454
  0
LINE
  8
001
  6
BYLAYER
 10
158.135364
 20
7.733752
 11
159.505024
 21
9.103412
  0
LINE
  8
001
  6
BYLAYER
 10
160.091196
 20
9.689584
 11
160.879067
 21
10.477454
  0
LINE
  8
001
  6
BYLAYER
 10
158.134431
 20
7.803529
 11
159.434314
 21
9.103412
  0
LINE
  8
001
  6
BYLAYER
 10
160.020485
 20
9.689584
 11
160.808356
 21
10.477454
  0
LINE
  8
001
  6
BYLAYER
 10
158.134431
 20
7.87424
 11
159.363603
 21
9.103412
  0
LINE
  8
001
  6
BYLAYER
 10
159.949775
 20
9.689584
 11
160.737645
 21
10.477454
  0
LINE
  8
001
  6
BYLAYER
 10
158.134431
 20
7.94495
 11
159.292098
 21
9.102618
  0
LINE
  8
001
  6
BYLAYER
 10
159.879064
 20
9.689584
 11
160.666935
 21
10.477454
  0
LINE
  8
001
  6
BYLAYER
 10
158.134431
 20
8.015661
 11
159.219718
 21
9.100949
  0
LINE
  8
001
  6
BYLAYER
 10
159.808353
 20
9.689584
 11
160.596224
 21
10.477454
  0
LINE
  8
001
  6
BYLAYER
 10
158.134431
 20
8.086372
 11
159.146235
 21
9.098176
  0
LINE
  8
001
  6
BYLAYER
 10
159.737643
 20
9.689584
 11
160.525513
 21
10.477454
  0
LINE
  8
001
  6
BYLAYER
 10
158.134431
 20
8.157082
 11
159.070808
 21
9.09346
  0
LINE
  8
001
  6
BYLAYER
 10
159.666932
 20
9.689584
 11
160.454802
 21
10.477454
  0
LINE
  8
001
  6
BYLAYER
 10
158.134431
 20
8.227793
 11
158.992999
 21
9.086362
  0
LINE
  8
001
  6
BYLAYER
 10
159.596221
 20
9.689584
 11
160.384092
 21
10.477454
  0
LINE
  8
001
  6
BYLAYER
 10
158.134431
 20
8.298504
 11
158.911885
 21
9.075958
  0
LINE
  8
001
  6
BYLAYER
 10
159.525511
 20
9.689584
 11
160.313381
 21
10.477454
  0
LINE
  8
001
  6
BYLAYER
 10
158.135372
 20
8.370155
 11
158.827283
 21
9.062066
  0
LINE
  8
001
  6
BYLAYER
 10
159.4548
 20
9.689584
 11
160.24267
 21
10.477454
  0
LINE
  8
001
  6
BYLAYER
 10
158.139499
 20
8.444994
 11
158.737139
 21
9.042634
  0
LINE
  8
001
  6
BYLAYER
 10
159.384089
 20
9.689584
 11
160.17196
 21
10.477454
  0
LINE
  8
001
  6
BYLAYER
 10
158.153063
 20
8.529268
 11
158.639249
 21
9.015454
  0
LINE
  8
001
  6
BYLAYER
 10
159.313379
 20
9.689584
 11
160.101249
 21
10.477454
  0
LINE
  8
001
  6
BYLAYER
 10
158.183345
 20
8.63026
 11
158.523881
 21
8.970796
  0
LINE
  8
001
  6
BYLAYER
 10
159.242668
 20
9.689584
 11
160.030538
 21
10.477454
  0
LINE
  8
001
  6
BYLAYER
 10
159.171957
 20
9.689584
 11
159.959828
 21
10.477454
  0
LINE
  8
001
  6
BYLAYER
 10
159.101246
 20
9.689584
 11
159.889117
 21
10.477454
  0
LINE
  8
001
  6
BYLAYER
 10
159.030536
 20
9.689584
 11
159.818406
 21
10.477454
  0
LINE
  8
001
  6
BYLAYER
 10
158.959825
 20
9.689584
 11
159.747696
 21
10.477454
  0
LINE
  8
001
  6
BYLAYER
 10
158.889114
 20
9.689584
 11
159.676985
 21
10.477454
  0
LINE
  8
001
  6
BYLAYER
 10
158.818404
 20
9.689584
 11
159.606274
 21
10.477454
  0
LINE
  8
001
  6
BYLAYER
 10
158.747693
 20
9.689584
 11
159.535564
 21
10.477454
  0
LINE
  8
001
  6
BYLAYER
 10
158.676982
 20
9.689584
 11
159.464853
 21
10.477454
  0
LINE
  8
001
  6
BYLAYER
 10
158.606272
 20
9.689584
 11
159.394142
 21
10.477454
  0
LINE
  8
001
  6
BYLAYER
 10
158.535561
 20
9.689584
 11
159.323432
 21
10.477454
  0
LINE
  8
001
  6
BYLAYER
 10
158.46485
 20
9.689584
 11
159.252721
 21
10.477454
  0
LINE
  8
001
  6
BYLAYER
 10
158.39414
 20
9.689584
 11
159.18201
 21
10.477454
  0
LINE
  8
001
  6
BYLAYER
 10
158.323429
 20
9.689584
 11
159.1113
 21
10.477454
  0
LINE
  8
001
  6
BYLAYER
 10
158.252718
 20
9.689584
 11
159.040589
 21
10.477454
  0
LINE
  8
001
  6
BYLAYER
 10
158.214725
 20
9.7223
 11
158.969878
 21
10.477454
  0
LINE
  8
001
  6
BYLAYER
 10
158.214725
 20
9.793011
 11
158.899168
 21
10.477454
  0
LINE
  8
001
  6
BYLAYER
 10
158.214725
 20
9.863722
 11
158.828457
 21
10.477454
  0
LINE
  8
001
  6
BYLAYER
 10
158.214725
 20
9.934433
 11
158.757746
 21
10.477454
  0
LINE
  8
001
  6
BYLAYER
 10
158.214725
 20
10.005143
 11
158.687036
 21
10.477454
  0
LINE
  8
001
  6
BYLAYER
 10
158.214725
 20
10.075854
 11
158.616325
 21
10.477454
  0
LINE
  8
001
  6
BYLAYER
 10
158.214725
 20
10.146565
 11
158.545614
 21
10.477454
  0
LINE
  8
001
  6
BYLAYER
 10
158.214725
 20
10.217275
 11
158.474904
 21
10.477454
  0
LINE
  8
001
  6
BYLAYER
 10
158.214725
 20
10.287986
 11
158.404193
 21
10.477454
  0
LINE
  8
001
  6
BYLAYER
 10
158.214725
 20
10.358697
 11
158.333482
 21
10.477454
  0
LINE
  8
001
  6
BYLAYER
 10
158.214725
 20
10.429407
 11
158.262771
 21
10.477454
  0
LINE
  8
001
  6
BYLAYER
 10
143.704513
 20
7.162194
 11
144.135862
 21
7.593543
  0
LINE
  8
001
  6
BYLAYER
 10
143.563878
 20
7.092269
 11
144.205787
 21
7.734179
  0
LINE
  8
001
  6
BYLAYER
 10
143.453234
 20
7.052336
 11
144.24572
 21
7.844822
  0
LINE
  8
001
  6
BYLAYER
 10
143.357498
 20
7.027311
 11
144.270746
 21
7.940558
  0
LINE
  8
001
  6
BYLAYER
 10
143.27132
 20
7.011843
 11
144.286213
 21
8.026736
  0
LINE
  8
001
  6
BYLAYER
 10
143.192051
 20
7.003285
 11
144.294772
 21
8.106006
  0
LINE
  8
001
  6
BYLAYER
 10
143.118145
 20
7.000089
 11
144.297967
 21
8.179911
  0
LINE
  8
001
  6
BYLAYER
 10
143.047345
 20
7
 11
144.298056
 21
8.250711
  0
LINE
  8
001
  6
BYLAYER
 10
142.976634
 20
7
 11
144.298056
 21
8.321422
  0
LINE
  8
001
  6
BYLAYER
 10
142.905923
 20
7
 11
144.298056
 21
8.392133
  0
LINE
  8
001
  6
BYLAYER
 10
142.835213
 20
7
 11
144.298056
 21
8.462844
  0
LINE
  8
001
  6
BYLAYER
 10
142.764502
 20
7
 11
144.298056
 21
8.533554
  0
LINE
  8
001
  6
BYLAYER
 10
142.693791
 20
7
 11
144.298056
 21
8.604265
  0
LINE
  8
001
  6
BYLAYER
 10
142.623081
 20
7
 11
144.298056
 21
8.674976
  0
LINE
  8
001
  6
BYLAYER
 10
142.55237
 20
7
 11
144.298056
 21
8.745686
  0
LINE
  8
001
  6
BYLAYER
 10
142.481659
 20
7
 11
144.298056
 21
8.816397
  0
LINE
  8
001
  6
BYLAYER
 10
142.410949
 20
7
 11
144.298056
 21
8.887108
  0
LINE
  8
001
  6
BYLAYER
 10
142.340238
 20
7
 11
144.298056
 21
8.957818
  0
LINE
  8
001
  6
BYLAYER
 10
142.269527
 20
7
 11
144.298056
 21
9.028529
  0
LINE
  8
001
  6
BYLAYER
 10
142.198817
 20
7
 11
144.298056
 21
9.09924
  0
LINE
  8
001
  6
BYLAYER
 10
142.128106
 20
7
 11
143.023263
 21
7.895157
  0
LINE
  8
001
  6
BYLAYER
 10
143.183996
 20
8.05589
 11
144.298056
 21
9.16995
  0
LINE
  8
001
  6
BYLAYER
 10
142.057395
 20
7
 11
142.952538
 21
7.895143
  0
LINE
  8
001
  6
BYLAYER
 10
143.18401
 20
8.126615
 11
144.298056
 21
9.240661
  0
LINE
  8
001
  6
BYLAYER
 10
141.986685
 20
7
 11
142.881828
 21
7.895143
  0
LINE
  8
001
  6
BYLAYER
 10
143.18401
 20
8.197326
 11
144.297879
 21
9.311194
  0
LINE
  8
001
  6
BYLAYER
 10
141.915974
 20
7
 11
142.811117
 21
7.895143
  0
LINE
  8
001
  6
BYLAYER
 10
143.18401
 20
8.268036
 11
144.294795
 21
9.378821
  0
LINE
  8
001
  6
BYLAYER
 10
141.845263
 20
7
 11
142.740406
 21
7.895143
  0
LINE
  8
001
  6
BYLAYER
 10
143.18401
 20
8.338747
 11
144.288292
 21
9.443029
  0
LINE
  8
001
  6
BYLAYER
 10
141.774552
 20
7
 11
142.669696
 21
7.895143
  0
LINE
  8
001
  6
BYLAYER
 10
143.18401
 20
8.409458
 11
144.278798
 21
9.504245
  0
LINE
  8
001
  6
BYLAYER
 10
141.703842
 20
7
 11
142.598985
 21
7.895143
  0
LINE
  8
001
  6
BYLAYER
 10
143.18401
 20
8.480168
 11
144.266634
 21
9.562792
  0
LINE
  8
001
  6
BYLAYER
 10
141.633131
 20
7
 11
142.528274
 21
7.895143
  0
LINE
  8
001
  6
BYLAYER
 10
143.18401
 20
8.550879
 11
144.252053
 21
9.618922
  0
LINE
  8
001
  6
BYLAYER
 10
141.56242
 20
7
 11
142.457564
 21
7.895143
  0
LINE
  8
001
  6
BYLAYER
 10
143.18401
 20
8.62159
 11
144.235254
 21
9.672834
  0
LINE
  8
001
  6
BYLAYER
 10
141.49171
 20
7
 11
142.386853
 21
7.895143
  0
LINE
  8
001
  6
BYLAYER
 10
143.18401
 20
8.692301
 11
144.216397
 21
9.724687
  0
LINE
  8
001
  6
BYLAYER
 10
141.420999
 20
7
 11
142.316142
 21
7.895143
  0
LINE
  8
001
  6
BYLAYER
 10
143.18401
 20
8.763011
 11
144.19561
 21
9.774611
  0
LINE
  8
001
  6
BYLAYER
 10
141.350288
 20
7
 11
142.245432
 21
7.895143
  0
LINE
  8
001
  6
BYLAYER
 10
143.18401
 20
8.833722
 11
144.173
 21
9.822711
  0
LINE
  8
001
  6
BYLAYER
 10
141.279578
 20
7
 11
142.174721
 21
7.895143
  0
LINE
  8
001
  6
BYLAYER
 10
143.18401
 20
8.904433
 11
144.148651
 21
9.869073
  0
LINE
  8
001
  6
BYLAYER
 10
141.208867
 20
7
 11
142.10401
 21
7.895143
  0
LINE
  8
001
  6
BYLAYER
 10
143.18401
 20
8.975143
 11
144.122634
 21
9.913767
  0
LINE
  8
001
  6
BYLAYER
 10
141.138156
 20
7
 11
142.033299
 21
7.895143
  0
LINE
  8
001
  6
BYLAYER
 10
143.18401
 20
9.045854
 11
144.095005
 21
9.956849
  0
LINE
  8
001
  6
BYLAYER
 10
141.067446
 20
7
 11
141.962589
 21
7.895143
  0
LINE
  8
001
  6
BYLAYER
 10
143.18401
 20
9.116565
 11
144.06581
 21
9.998364
  0
LINE
  8
001
  6
BYLAYER
 10
140.996735
 20
7
 11
141.891878
 21
7.895143
  0
LINE
  8
001
  6
BYLAYER
 10
143.18401
 20
9.187275
 11
144.035082
 21
10.038347
  0
LINE
  8
001
  6
BYLAYER
 10
140.926024
 20
7
 11
141.821167
 21
7.895143
  0
LINE
  8
001
  6
BYLAYER
 10
143.18401
 20
9.257986
 11
144.002846
 21
10.076822
  0
LINE
  8
001
  6
BYLAYER
 10
140.855314
 20
7
 11
141.750457
 21
7.895143
  0
LINE
  8
001
  6
BYLAYER
 10
143.18401
 20
9.328697
 11
143.96912
 21
10.113807
  0
LINE
  8
001
  6
BYLAYER
 10
140.784603
 20
7
 11
141.679746
 21
7.895143
  0
LINE
  8
001
  6
BYLAYER
 10
143.18401
 20
9.399407
 11
143.933912
 21
10.149309
  0
LINE
  8
001
  6
BYLAYER
 10
140.713892
 20
7
 11
141.609035
 21
7.895143
  0
LINE
  8
001
  6
BYLAYER
 10
143.180651
 20
9.466759
 11
143.897223
 21
10.183331
  0
LINE
  8
001
  6
BYLAYER
 10
140.643182
 20
7
 11
141.538325
 21
7.895143
  0
LINE
  8
001
  6
BYLAYER
 10
143.160813
 20
9.517631
 11
143.859046
 21
10.215864
  0
LINE
  8
001
  6
BYLAYER
 10
140.572471
 20
7
 11
141.467614
 21
7.895143
  0
LINE
  8
001
  6
BYLAYER
 10
143.128663
 20
9.556192
 11
143.819366
 21
10.246895
  0
LINE
  8
001
  6
BYLAYER
 10
140.50176
 20
7
 11
141.396903
 21
7.895143
  0
LINE
  8
001
  6
BYLAYER
 10
143.085317
 20
9.583556
 11
143.778158
 21
10.276398
  0
LINE
  8
001
  6
BYLAYER
 10
140.43105
 20
7
 11
141.326193
 21
7.895143
  0
LINE
  8
001
  6
BYLAYER
 10
143.027659
 20
9.596609
 11
143.735392
 21
10.304342
  0
LINE
  8
001
  6
BYLAYER
 10
140.360339
 20
7
 11
141.255482
 21
7.895143
  0
LINE
  8
001
  6
BYLAYER
 10
142.957079
 20
9.59674
 11
143.691023
 21
10.330684
  0
LINE
  8
001
  6
BYLAYER
 10
140.289628
 20
7
 11
141.184771
 21
7.895143
  0
LINE
  8
001
  6
BYLAYER
 10
142.886369
 20
9.59674
 11
143.644998
 21
10.35537
  0
LINE
  8
001
  6
BYLAYER
 10
140.218918
 20
7
 11
141.114061
 21
7.895143
  0
LINE
  8
001
  6
BYLAYER
 10
142.815658
 20
9.59674
 11
143.597251
 21
10.378333
  0
LINE
  8
001
  6
BYLAYER
 10
140.148207
 20
7
 11
141.04335
 21
7.895143
  0
LINE
  8
001
  6
BYLAYER
 10
142.744947
 20
9.59674
 11
143.547698
 21
10.399491
  0
LINE
  8
001
  6
BYLAYER
 10
140.079304
 20
7.001808
 11
140.972639
 21
7.895143
  0
LINE
  8
001
  6
BYLAYER
 10
142.674236
 20
9.59674
 11
143.496239
 21
10.418743
  0
LINE
  8
001
  6
BYLAYER
 10
140.013992
 20
7.007207
 11
140.901929
 21
7.895143
  0
LINE
  8
001
  6
BYLAYER
 10
142.603526
 20
9.59674
 11
143.442749
 21
10.435963
  0
LINE
  8
001
  6
BYLAYER
 10
139.951803
 20
7.015728
 11
140.831218
 21
7.895143
  0
LINE
  8
001
  6
BYLAYER
 10
142.532815
 20
9.59674
 11
143.387075
 21
10.451
  0
LINE
  8
001
  6
BYLAYER
 10
139.892383
 20
7.027019
 11
140.760507
 21
7.895143
  0
LINE
  8
001
  6
BYLAYER
 10
142.462104
 20
9.59674
 11
143.329028
 21
10.463664
  0
LINE
  8
001
  6
BYLAYER
 10
139.835458
 20
7.040805
 11
140.689797
 21
7.895143
  0
LINE
  8
001
  6
BYLAYER
 10
142.391394
 20
9.59674
 11
143.268367
 21
10.473713
  0
LINE
  8
001
  6
BYLAYER
 10
139.780815
 20
7.056872
 11
140.619086
 21
7.895143
  0
LINE
  8
001
  6
BYLAYER
 10
142.320683
 20
9.59674
 11
143.204785
 21
10.480842
  0
LINE
  8
001
  6
BYLAYER
 10
139.72828
 20
7.075048
 11
140.548375
 21
7.895143
  0
LINE
  8
001
  6
BYLAYER
 10
142.249972
 20
9.59674
 11
143.137879
 21
10.484647
  0
LINE
  8
001
  6
BYLAYER
 10
139.677715
 20
7.095194
 11
140.477665
 21
7.895143
  0
LINE
  8
001
  6
BYLAYER
 10
142.179262
 20
9.59674
 11
143.067663
 21
10.485141
  0
LINE
  8
001
  6
BYLAYER
 10
139.629008
 20
7.117197
 11
140.406954
 21
7.895143
  0
LINE
  8
001
  6
BYLAYER
 10
142.108551
 20
9.59674
 11
142.996952
 21
10.485141
  0
LINE
  8
001
  6
BYLAYER
 10
139.582065
 20
7.140965
 11
140.336243
 21
7.895143
  0
LINE
  8
001
  6
BYLAYER
 10
142.03784
 20
9.59674
 11
142.926241
 21
10.485141
  0
LINE
  8
001
  6
BYLAYER
 10
139.536813
 20
7.166424
 11
140.265533
 21
7.895143
  0
LINE
  8
001
  6
BYLAYER
 10
141.96713
 20
9.59674
 11
142.855531
 21
10.485141
  0
LINE
  8
001
  6
BYLAYER
 10
139.493191
 20
7.193512
 11
140.194822
 21
7.895143
  0
LINE
  8
001
  6
BYLAYER
 10
141.896419
 20
9.59674
 11
142.78482
 21
10.485141
  0
LINE
  8
001
  6
BYLAYER
 10
139.451149
 20
7.222181
 11
140.124111
 21
7.895143
  0
LINE
  8
001
  6
BYLAYER
 10
141.825708
 20
9.59674
 11
142.714109
 21
10.485141
  0
LINE
  8
001
  6
BYLAYER
 10
139.410651
 20
7.252393
 11
140.055991
 21
7.897734
  0
LINE
  8
001
  6
BYLAYER
 10
141.754998
 20
9.59674
 11
142.643399
 21
10.485141
  0
LINE
  8
001
  6
BYLAYER
 10
139.371667
 20
7.28412
 11
140.004136
 21
7.91659
  0
LINE
  8
001
  6
BYLAYER
 10
141.684287
 20
9.59674
 11
142.572688
 21
10.485141
  0
LINE
  8
001
  6
BYLAYER
 10
139.334178
 20
7.317342
 11
139.964827
 21
7.947991
  0
LINE
  8
001
  6
BYLAYER
 10
141.613576
 20
9.59674
 11
142.501977
 21
10.485141
  0
LINE
  8
001
  6
BYLAYER
 10
139.298174
 20
7.352049
 11
139.936673
 21
7.990548
  0
LINE
  8
001
  6
BYLAYER
 10
141.542866
 20
9.59674
 11
142.431267
 21
10.485141
  0
LINE
  8
001
  6
BYLAYER
 10
139.26365
 20
7.388235
 11
139.92241
 21
8.046995
  0
LINE
  8
001
  6
BYLAYER
 10
141.472155
 20
9.59674
 11
142.360556
 21
10.485141
  0
LINE
  8
001
  6
BYLAYER
 10
139.230611
 20
7.425907
 11
139.922035
 21
8.117331
  0
LINE
  8
001
  6
BYLAYER
 10
141.401444
 20
9.59674
 11
142.289845
 21
10.485141
  0
LINE
  8
001
  6
BYLAYER
 10
139.19907
 20
7.465076
 11
139.922035
 21
8.188042
  0
LINE
  8
001
  6
BYLAYER
 10
141.330734
 20
9.59674
 11
142.219135
 21
10.485141
  0
LINE
  8
001
  6
BYLAYER
 10
139.169046
 20
7.505763
 11
139.922035
 21
8.258753
  0
LINE
  8
001
  6
BYLAYER
 10
141.260023
 20
9.59674
 11
142.148424
 21
10.485141
  0
LINE
  8
001
  6
BYLAYER
 10
139.140569
 20
7.547997
 11
139.922035
 21
8.329464
  0
LINE
  8
001
  6
BYLAYER
 10
141.189312
 20
9.59674
 11
142.077713
 21
10.485141
  0
LINE
  8
001
  6
BYLAYER
 10
139.113679
 20
7.591818
 11
139.922035
 21
8.400174
  0
LINE
  8
001
  6
BYLAYER
 10
141.118602
 20
9.59674
 11
142.007003
 21
10.485141
  0
LINE
  8
001
  6
BYLAYER
 10
139.088425
 20
7.637274
 11
139.922035
 21
8.470885
  0
LINE
  8
001
  6
BYLAYER
 10
141.047891
 20
9.59674
 11
141.936292
 21
10.485141
  0
LINE
  8
001
  6
BYLAYER
 10
139.064869
 20
7.684429
 11
139.922035
 21
8.541596
  0
LINE
  8
001
  6
BYLAYER
 10
140.97718
 20
9.59674
 11
141.865581
 21
10.485141
  0
LINE
  8
001
  6
BYLAYER
 10
139.04309
 20
7.73336
 11
139.922035
 21
8.612306
  0
LINE
  8
001
  6
BYLAYER
 10
140.90647
 20
9.59674
 11
141.794871
 21
10.485141
  0
LINE
  8
001
  6
BYLAYER
 10
139.02318
 20
7.784161
 11
139.922035
 21
8.683017
  0
LINE
  8
001
  6
BYLAYER
 10
140.835759
 20
9.59674
 11
141.72416
 21
10.485141
  0
LINE
  8
001
  6
BYLAYER
 10
139.005255
 20
7.836947
 11
139.922035
 21
8.753728
  0
LINE
  8
001
  6
BYLAYER
 10
140.765048
 20
9.59674
 11
141.653449
 21
10.485141
  0
LINE
  8
001
  6
BYLAYER
 10
138.989459
 20
7.891862
 11
139.922035
 21
8.824438
  0
LINE
  8
001
  6
BYLAYER
 10
140.694338
 20
9.59674
 11
141.582739
 21
10.485141
  0
LINE
  8
001
  6
BYLAYER
 10
138.975967
 20
7.949081
 11
139.922035
 21
8.895149
  0
LINE
  8
001
  6
BYLAYER
 10
140.623627
 20
9.59674
 11
141.512028
 21
10.485141
  0
LINE
  8
001
  6
BYLAYER
 10
138.965002
 20
8.008826
 11
139.922035
 21
8.96586
  0
LINE
  8
001
  6
BYLAYER
 10
140.552916
 20
9.59674
 11
141.441317
 21
10.485141
  0
LINE
  8
001
  6
BYLAYER
 10
138.956844
 20
8.071378
 11
139.922035
 21
9.03657
  0
LINE
  8
001
  6
BYLAYER
 10
140.482205
 20
9.59674
 11
141.370607
 21
10.485141
  0
LINE
  8
001
  6
BYLAYER
 10
138.95186
 20
8.137105
 11
139.922035
 21
9.107281
  0
LINE
  8
001
  6
BYLAYER
 10
140.411495
 20
9.59674
 11
141.299896
 21
10.485141
  0
LINE
  8
001
  6
BYLAYER
 10
138.950479
 20
8.206435
 11
139.922035
 21
9.177992
  0
LINE
  8
001
  6
BYLAYER
 10
140.340784
 20
9.59674
 11
141.229185
 21
10.485141
  0
LINE
  8
001
  6
BYLAYER
 10
138.950479
 20
8.277145
 11
139.922035
 21
9.248702
  0
LINE
  8
001
  6
BYLAYER
 10
140.270073
 20
9.59674
 11
141.158475
 21
10.485141
  0
LINE
  8
001
  6
BYLAYER
 10
138.950479
 20
8.347856
 11
139.922035
 21
9.319413
  0
LINE
  8
001
  6
BYLAYER
 10
140.199363
 20
9.59674
 11
141.087764
 21
10.485141
  0
LINE
  8
001
  6
BYLAYER
 10
138.950479
 20
8.418567
 11
139.922035
 21
9.390124
  0
LINE
  8
001
  6
BYLAYER
 10
140.128652
 20
9.59674
 11
141.017053
 21
10.485141
  0
LINE
  8
001
  6
BYLAYER
 10
138.950479
 20
8.489277
 11
139.924769
 21
9.463568
  0
LINE
  8
001
  6
BYLAYER
 10
140.055208
 20
9.594006
 11
140.946342
 21
10.485141
  0
LINE
  8
001
  6
BYLAYER
 10
138.950479
 20
8.559988
 11
140.875632
 21
10.485141
  0
LINE
  8
001
  6
BYLAYER
 10
138.950479
 20
8.630699
 11
140.804921
 21
10.485141
  0
LINE
  8
001
  6
BYLAYER
 10
138.950479
 20
8.701409
 11
140.73421
 21
10.485141
  0
LINE
  8
001
  6
BYLAYER
 10
138.950479
 20
8.77212
 11
140.6635
 21
10.485141
  0
LINE
  8
001
  6
BYLAYER
 10
138.950479
 20
8.842831
 11
140.592789
 21
10.485141
  0
LINE
  8
001
  6
BYLAYER
 10
138.950479
 20
8.913542
 11
140.522078
 21
10.485141
  0
LINE
  8
001
  6
BYLAYER
 10
138.950479
 20
8.984252
 11
140.451368
 21
10.485141
  0
LINE
  8
001
  6
BYLAYER
 10
138.950479
 20
9.054963
 11
140.380657
 21
10.485141
  0
LINE
  8
001
  6
BYLAYER
 10
138.950479
 20
9.125674
 11
140.309946
 21
10.485141
  0
LINE
  8
001
  6
BYLAYER
 10
138.950479
 20
9.196384
 11
140.239236
 21
10.485141
  0
LINE
  8
001
  6
BYLAYER
 10
138.950479
 20
9.267095
 11
140.168525
 21
10.485141
  0
LINE
  8
001
  6
BYLAYER
 10
138.95145
 20
9.338777
 11
140.096843
 21
10.48417
  0
LINE
  8
001
  6
BYLAYER
 10
138.956974
 20
9.415011
 11
140.020609
 21
10.478646
  0
LINE
  8
001
  6
BYLAYER
 10
138.968484
 20
9.497232
 11
139.938388
 21
10.467136
  0
LINE
  8
001
  6
BYLAYER
 10
138.987933
 20
9.587392
 11
139.848228
 21
10.447687
  0
LINE
  8
001
  6
BYLAYER
 10
139.018891
 20
9.68906
 11
139.746559
 21
10.416729
  0
LINE
  8
001
  6
BYLAYER
 10
139.069478
 20
9.810358
 11
139.625262
 21
10.366142
  0
LINE
  8
001
  6
BYLAYER
 10
139.172113
 20
9.983704
 11
139.451916
 21
10.263507
  0
LINE
  8
001
  6
BYLAYER
 10
60
 20
195
 11
60
 21
131
  0
LINE
  8
001
  6
BYLAYER
 10
90
 20
131
 11
90
 21
195
  0
LINE
  8
001
  6
BYLAYER
 10
90
 20
195
 11
18
 21
195
  0
LINE
  8
001
  6
BYLAYER
 10
18
 20
195
 11
18
 21
131
  0
LINE
  8
001
  6
BYLAYER
 10
18
 20
188.6
 11
90
 21
188.6
  0
LINE
  8
001
  6
BYLAYER
 10
90
 20
182.2
 11
18
 21
182.2
  0
LINE
  8
001
  6
BYLAYER
 10
18
 20
175.8
 11
90
 21
175.8
  0
LINE
  8
001
  6
BYLAYER
 10
90
 20
169.4
 11
18
 21
169.4
  0
LINE
  8
001
  6
BYLAYER
 10
18
 20
163
 11
90
 21
163
  0
LINE
  8
001
  6
BYLAYER
 10
90
 20
156.6
 11
18
 21
156.6
  0
LINE
  8
001
  6
BYLAYER
 10
18
 20
150.2
 11
90
 21
150.2
  0
LINE
  8
001
  6
BYLAYER
 10
90
 20
143.8
 11
18
 21
143.8
  0
LINE
  8
001
  6
BYLAYER
 10
90
 20
137.4
 11
18
 21
137.4
  0
LINE
  8
001
  6
BYLAYER
 10
90
 20
131
 11
18
 21
131
  0
TEXT
  8
001
  6
BYLAYER
 10
20
 20
145.4
 40
3.2
 41
0.850013
  1
ＴＶディストーション
  7
Font_0
  0
TEXT
  8
001
  6
BYLAYER
 10
20
 20
190.2
 40
3.2
 41
0.850013
  1
倍率
  7
Font_0
  0
TEXT
  8
001
  6
BYLAYER
 10
20
 20
183.8
 40
3.2
 41
0.850013
  1
Ｏ／Ｉ
  7
Font_0
  0
TEXT
  8
001
  6
BYLAYER
 10
20
 20
177.4
 40
3.2
 41
0.850013
  1
Ｗ．Ｄ．
  7
Font_0
  0
TEXT
  8
001
  6
BYLAYER
 10
20
 20
171
 40
3.2
 41
0.850013
  1
被写界深度
  7
Font_0
  0
TEXT
  8
001
  6
BYLAYER
 10
20
 20
164.6
 40
3.2
 41
0.850013
  1
分解能
  7
Font_0
  0
TEXT
  8
001
  6
BYLAYER
 10
20
 20
158.2
 40
3.2
 41
0.850013
  1
有効Ｆナンバー
  7
Font_0
  0
TEXT
  8
001
  6
BYLAYER
 10
20
 20
151.8
 40
3.2
 41
0.850013
  1
Ｎ．Ａ．
  7
Font_0
  0
TEXT
  8
001
  6
BYLAYER
 10
20
 20
139
 40
3.2
 41
0.850013
  1
重量
  7
Font_0
  0
TEXT
  8
001
  6
BYLAYER
 10
20
 20
132.6
 40
3.2
 41
0.850013
  1
対応素子サイズ
  7
Font_0
  0
TEXT
  8
001
  6
BYLAYER
 10
69.24
 20
190.2
 40
3.2
 41
0.859091
  1
４．０
  7
Font_0
  0
TEXT
  8
001
  6
BYLAYER
 10
63.820813
 20
183.8
 40
3.2
 41
0.850013
  1
２１８．９ｍｍ
  7
Font_0
  0
TEXT
  8
001
  6
BYLAYER
 10
67.32
 20
171
 40
3.2
 41
0.850013
  1
２１０μ
  7
Font_0
  0
TEXT
  8
001
  6
BYLAYER
 10
65.831106
 20
164.6
 40
3.2
 41
0.850013
  1
６．９９μ
  7
Font_0
  0
TEXT
  8
001
  6
BYLAYER
 10
65.930365
 20
158.2
 40
3.2
 41
0.850013
  1
４１．４９
  7
Font_0
  0
TEXT
  8
001
  6
BYLAYER
 10
65.4
 20
151.8
 40
3.2
 41
0.850013
  1
０．０４８
  7
Font_0
  0
TEXT
  8
001
  6
BYLAYER
 10
65.862231
 20
145.4
 40
3.2
 41
0.850013
  1
０．０６％
  7
Font_0
  0
TEXT
  8
001
  6
BYLAYER
 10
71.16
 20
139
 40
3.2
 41
0.850013
  1
４５
  7
Font_0
  0
TEXT
  8
001
  6
BYLAYER
 10
67.885203
 20
132.6
 40
3.2
 41
0.850013
  1
２／３″
  7
Font_0
  0
TEXT
  8
001
  6
BYLAYER
 10
67.101625
 20
177.4
 40
3.2
 41
0.827935
  1
１１０ｍｍ
  7
Font_0
  0
TEXT
  8
001
  6
BYLAYER
 10
101.02
 20
40.95
 40
3.6
 41
0.983072
  1
０００
  7
Font_0
  0
TEXT
  8
001
  6
BYLAYER
 10
172.799999
 20
40.95
 40
3.6
 41
1.095492
  1
１
  7
Font_0
  0
TEXT
  8
001
  6
BYLAYER
 10
242.8251
 20
41
 40
3.5
 41
0.847805
  1
サテン黒アルマイト
  7
Font_0
  0
TEXT
  8
001
  6
BYLAYER
 10
192.202114
 20
41
 40
3.5
 41
0.847805
  1
Ａ５０５２ＴＤ
  7
Font_0
  0
TEXT
  8
001
  6
BYLAYER
 10
133.36
 20
41.082297
 40
3.6
 41
0.834642
  1
組　立　図
  7
Font_0
  0
TEXT
  8
013
  6
BYLAYER
 10
99.94
 20
34.925
 40
3.15
 41
1.000734
  1
部品番号
  7
Font_0
  0
TEXT
  8
013
  6
BYLAYER
 10
130.66
 20
34.925
 40
3.2
 41
0.850013
  1
部　　品　　名
  7
Font_0
  0
TEXT
  8
013
  6
BYLAYER
 10
170.22
 20
34.925
 40
3.15
 41
0.980081
  1
個数
  7
Font_0
  0
TEXT
  8
013
  6
BYLAYER
 10
196.94
 20
34.925
 40
3.15
 41
0.980081
  1
材　　質
  7
Font_0
  0
TEXT
  8
013
  6
BYLAYER
 10
247.477734
 20
34.925
 40
3.15
 41
0.829034
  1
表　面　処　理
  7
Font_0
  0
TEXT
  8
001
  6
BYLAYER
 10
244.297420708675
 20
27.6725387113181
 40
3.2
 41
0.828623
  1
ＫＣＭ－４－１１０Ｃ
  7
Font_0
  0
TEXT
  8
001
  6
BYLAYER
 10
241.793121
 20
16.98311
 40
4
 41
0.833333
  1
ＫＶＴ－１０２４
  7
Font_0
  0
TEXT
  8
013
  6
BYLAYER
 10
100.696
 20
15.15
 40
2.7
 41
1.195283
  1
　三角法
  7
Font_0
  0
TEXT
  8
013
  6
BYLAYER
 10
103.742355
 20
29.925
 40
3.15
 41
1.210481
  1
尺度
  7
Font_0
  0
TEXT
  8
013
  6
BYLAYER
 10
121.275
 20
29.925
 40
3.15
 41
0.843884
  1
製　図
  7
Font_0
  0
TEXT
  8
013
  6
BYLAYER
 10
137.275
 20
29.925
 40
3.15
 41
0.843884
  1
設　計
  7
Font_0
  0
TEXT
  8
013
  6
BYLAYER
 10
153.275
 20
29.925
 40
3.15
 41
0.843884
  1
検　図
  7
Font_0
  0
TEXT
  8
013
  6
BYLAYER
 10
169.275
 20
29.925
 40
3.15
 41
0.858752
  1
承　認
  7
Font_0
  0
TEXT
  8
013
  6
BYLAYER
 10
16.91912
 20
17.674294
 40
3.15
 41
0.980081
  1
日付
  7
Font_0
  0
TEXT
  8
013
  6
BYLAYER
 10
12.899486
 20
24.849449
 40
1.8
 41
0.846731
  1
符号
  7
Font_0
  0
TEXT
  8
013
  6
BYLAYER
 10
19.928051
 20
24.482618
 40
2.4
 41
0.845893
  1
年月日
  7
Font_0
  0
TEXT
  8
013
  6
BYLAYER
 10
31.612385
 20
24.549449
 40
2.4
 41
0.828965
  1
担当
  7
Font_0
  0
TEXT
  8
001
  6
BYLAYER
 10
40.862
 20
17.285
 40
3.43
 41
1.020239
  1
２０１２年　２月　８日
  7
Font_0
  0
TEXT
  8
013
  6
BYLAYER
 10
55.053437
 20
24.510829
 40
2.4
 41
0.816405
  1
訂　正　記　事
  7
Font_0
  0
TEXT
  8
001
  6
BYLAYER
 10
124.026146
 20
20.5
 40
4
 41
0.990922
  1
原
  7
Font_0
  0
TEXT
  8
001
  6
BYLAYER
 10
140.026146
 20
20.5
 40
4
 41
0.990922
  1
関
  7
Font_0
  0
TEXT
  8
001
  6
BYLAYER
 10
121.8
 20
17
 40
1.5
 41
0.583333
  1
１２／０２／０８
  7
Font_0
  0
TEXT
  8
001
  6
BYLAYER
 10
137.8
 20
17
 40
1.5
 41
0.583333
  1
１２／０２／０８
  7
Font_0
  0
TEXT
  8
001
  6
BYLAYER
 10
156.026146
 20
20.5
 40
4
 41
0.990922
  1
関
  7
Font_0
  0
TEXT
  8
001
  6
BYLAYER
 10
153.8
 20
17
 40
1.5
 41
0.583333
  1
１２／０２／０８
  7
Font_0
  0
TEXT
  8
001
  6
BYLAYER
 10
172.026146
 20
20.5
 40
4
 41
0.990922
  1
関
  7
Font_0
  0
TEXT
  8
001
  6
BYLAYER
 10
169.8
 20
17
 40
1.5
 41
0.583333
  1
１２／０２／０８
  7
Font_0
  0
TEXT
  8
001
  6
BYLAYER
 10
200.200001
 20
17
 40
3.2
 41
1.2
  1
C0.1
  7
Font_0
  0
TEXT
  8
001
  6
BYLAYER
 10
101.695832
 20
21.966
 40
3.5
 41
1.222971
  1
1/1
  7
Font_0
  0
LINE
  8
001
  6
BYLAYER
 10
239.371946
 20
101.111398
 11
239.371946
 21
88.411398
  0
LINE
  8
001
  6
BYLAYER
 10
238.371946
 20
101.111398
 11
238.371946
 21
85.911398
  0
LINE
  8
001
  6
BYLAYER
 10
231.871946
 20
101.111398
 11
231.871946
 21
86.111398
  0
LINE
  8
001
  6
BYLAYER
 10
241.771946
 20
88.411398
 11
239.371946
 21
88.411398
  0
LINE
  8
001
  6
BYLAYER
 10
241.771946
 20
88.411398
 11
242.371946
 21
89.011398
  0
LINE
  8
001
  6
BYLAYER
 10
241.771946
 20
88.411398
 11
241.771946
 21
101.111398
  0
LINE
  8
001
  6
BYLAYER
 10
238.071946
 20
85.611398
 11
232.371946
 21
85.611398
  0
LINE
  8
001
  6
BYLAYER
 10
238.371946
 20
85.911398
 11
238.071946
 21
85.611398
  0
LINE
  8
001
  6
BYLAYER
 10
232.371946
 20
85.611398
 11
231.871946
 21
86.111398
  0
LINE
  8
001
  6
BYLAYER
 10
232.371946
 20
85.611398
 11
232.371946
 21
101.111398
  0
LINE
  8
001
  6
BYLAYER
 10
238.071946
 20
85.611398
 11
238.071946
 21
101.111398
  0
LINE
  8
003
  6
BYLAYER
 10
147.252946
 20
93.411398
 11
147.552946
 21
93.111398
  0
LINE
  8
004
  6
BYLAYER
 10
187.782946
 20
93.211398
 11
187.682946
 21
93.111398
  0
LINE
  8
004
  6
BYLAYER
 10
171.882946
 20
93.111398
 11
187.682946
 21
93.111398
  0
LINE
  8
004
  6
BYLAYER
 10
171.782946
 20
93.211398
 11
171.882946
 21
93.111398
  0
LINE
  8
003
  6
BYLAYER
 10
171.682946
 20
93.111398
 11
171.782946
 21
93.211398
  0
LINE
  8
003
  6
BYLAYER
 10
147.252946
 20
101.111398
 11
147.252946
 21
93.411398
  0
LINE
  8
003
  6
BYLAYER
 10
147.552946
 20
93.111398
 11
147.552946
 21
101.111398
  0
LINE
  8
004
  6
BYLAYER
 10
171.782946
 20
101.111398
 11
171.782946
 21
93.211398
  0
LINE
  8
004
  6
BYLAYER
 10
187.782946
 20
101.111398
 11
187.782946
 21
93.211398
  0
LINE
  8
003
  6
BYLAYER
 10
171.782946
 20
93.211398
 11
171.782946
 21
101.111398
  0
LINE
  8
005
  6
BYLAYER
 10
187.781946
 20
93.211398
 11
187.881946
 21
93.111398
  0
LINE
  8
005
  6
BYLAYER
 10
187.781946
 20
93.211398
 11
187.781946
 21
101.111398
  0
LINE
  8
003
  6
BYLAYER
 10
171.682946
 20
93.111398
 11
147.552946
 21
93.111398
  0
LINE
  8
001
  6
BYLAYER
 10
239.371946
 20
88.861398
 11
238.371946
 21
88.861398
  0
LINE
  8
001
  6
BYLAYER
 10
239.371946
 20
88.861398
 11
242.221946
 21
88.861398
  0
LINE
  8
001
  6
BYLAYER
 10
242.371946
 20
89.011398
 11
242.371946
 21
101.111398
  0
LINE
  8
005
  6
BYLAYER
 10
231.871946
 20
93.111398
 11
187.881946
 21
93.111398
  0
LINE
  8
001
  6
BYLAYER
 10
37.252946
 20
104.709128
 11
37.252946
 21
101.111398
  0
LINE
  8
001
  6
BYLAYER
 10
37.252946
 20
97.513668
 11
37.252946
 21
101.111398
  0
LINE
  8
001
  6
BYLAYER
 10
239.371946
 20
101.111398
 11
239.371946
 21
113.811398
  0
LINE
  8
001
  6
BYLAYER
 10
238.371946
 20
101.111398
 11
238.371946
 21
116.311398
  0
LINE
  8
001
  6
BYLAYER
 10
231.871946
 20
101.111398
 11
231.871946
 21
116.111398
  0
LINE
  8
001
  6
BYLAYER
 10
241.771946
 20
113.811398
 11
239.371946
 21
113.811398
  0
LINE
  8
001
  6
BYLAYER
 10
241.771946
 20
113.811398
 11
242.371946
 21
113.211398
  0
LINE
  8
001
  6
BYLAYER
 10
241.771946
 20
113.811398
 11
241.771946
 21
101.111398
  0
LINE
  8
001
  6
BYLAYER
 10
238.071946
 20
116.611398
 11
232.371946
 21
116.611398
  0
LINE
  8
001
  6
BYLAYER
 10
238.371946
 20
116.311398
 11
238.071946
 21
116.611398
  0
LINE
  8
001
  6
BYLAYER
 10
232.371946
 20
116.611398
 11
231.871946
 21
116.111398
  0
LINE
  8
001
  6
BYLAYER
 10
232.371946
 20
116.611398
 11
232.371946
 21
101.111398
  0
LINE
  8
001
  6
BYLAYER
 10
238.071946
 20
116.611398
 11
238.071946
 21
101.111398
  0
LINE
  8
003
  6
BYLAYER
 10
147.252946
 20
108.811398
 11
147.552946
 21
109.111398
  0
LINE
  8
004
  6
BYLAYER
 10
187.782946
 20
109.011398
 11
187.682946
 21
109.111398
  0
LINE
  8
004
  6
BYLAYER
 10
171.882946
 20
109.111398
 11
187.682946
 21
109.111398
  0
LINE
  8
004
  6
BYLAYER
 10
171.782946
 20
109.011398
 11
171.882946
 21
109.111398
  0
LINE
  8
003
  6
BYLAYER
 10
171.682946
 20
109.111398
 11
171.782946
 21
109.011398
  0
LINE
  8
003
  6
BYLAYER
 10
147.252946
 20
101.111398
 11
147.252946
 21
108.811398
  0
LINE
  8
003
  6
BYLAYER
 10
147.552946
 20
109.111398
 11
147.552946
 21
101.111398
  0
LINE
  8
004
  6
BYLAYER
 10
171.782946
 20
101.111398
 11
171.782946
 21
109.011398
  0
LINE
  8
004
  6
BYLAYER
 10
187.782946
 20
101.111398
 11
187.782946
 21
109.011398
  0
LINE
  8
003
  6
BYLAYER
 10
171.782946
 20
109.011398
 11
171.782946
 21
101.111398
  0
LINE
  8
005
  6
BYLAYER
 10
187.781946
 20
109.011398
 11
187.881946
 21
109.111398
  0
LINE
  8
005
  6
BYLAYER
 10
187.781946
 20
109.011398
 11
187.781946
 21
101.111398
  0
LINE
  8
003
  6
BYLAYER
 10
171.682946
 20
109.111398
 11
147.552946
 21
109.111398
  0
LINE
  8
001
  6
BYLAYER
 10
239.371946
 20
113.361398
 11
238.371946
 21
113.361398
  0
LINE
  8
001
  6
BYLAYER
 10
239.371946
 20
113.361398
 11
242.221946
 21
113.361398
  0
LINE
  8
001
  6
BYLAYER
 10
242.371946
 20
113.211398
 11
242.371946
 21
101.111398
  0
LINE
  8
005
  6
BYLAYER
 10
231.871946
 20
109.111398
 11
187.881946
 21
109.111398
  0
CIRCLE
  8
001
  6
BYLAYER
 10
235.171946
 20
101.111398
 40
1.25
  0
CIRCLE
  8
001
  6
BYLAYER
 10
235.171946
 20
101.111398
 40
1.50000000000011
  0
LINE
  8
001
  6
CENTER
 10
235.171946
 20
104.111398
 11
235.171946
 21
98.111398
  0
LINE
  8
001
  6
CENTER
 10
33.129579
 20
101.111398
 11
247.472231
 21
101.111398
  0
ENDSEC
  0
EOF
