999
Outputted By AR_CAD Ver.1.5.4a
  0
SECTION
  2
HEADER
  9
$ACADVER
  1
AC1014
  9
$DWGCODEPAGE
  3
ANSI_932
  9
$EXTMIN
 10
0
 20
0
  9
$EXTMAX
 10
297
 20
210
  9
$INSBASE
 10
0.0
 20
0.0
 30
0.0
  9
$HANDLING
 70
     1
  9
$HANDSEED
  5
34B
  9
$LTSCALE
 40
1
  0
ENDSEC
  0
SECTION
  2
TABLES
  0
TABLE
  2
VPORT
  5
1
100
AcDbSymbolTable
 70
     1
  0
VPORT
  5
30
100
AcDbSymbolTableRecord
100
AcDbViewportTableRecord
  2
*ACTIVE
 70
     0
 10
0.0
 20
0.0
 11
1.0
 21
1.0
 12
210.0
 22
148.5
 13
0.0
 23
0.0
 14
10.0
 24
10.0
 15
10.0
 25
10.0
 16
0.0
 26
0.0
 36
1.0
 17
0.0
 27
0.0
 37
0.0
 40
302.94
 41
1.333333
 42
50.0
 43
0.0
 44
0.0
 50
0.0
 51
0.0
 71
     0
 72
   100
 73
     1
 74
     1
 75
     0
 76
     0
 77
     0
 78
     0
  0
ENDTAB
  0
TABLE
  2
LTYPE
  5
2
100
AcDbSymbolTable
 70
     8
  0
LTYPE
  5
31
100
AcDbSymbolTableRecord
100
AcDbLinetypeTableRecord
  2
BYBLOCK
 70
    64
 3

 72
    65
 73
    0
 40
    0
  0
LTYPE
  5
32
100
AcDbSymbolTableRecord
100
AcDbLinetypeTableRecord
  2
BYLAYER
 70
    64
 3

 72
    65
 73
    0
 40
    0
  0
LTYPE
  5
33
100
AcDbSymbolTableRecord
100
AcDbLinetypeTableRecord
  2
CONTINUOUS
 70
    64
 3
CONTINUOUS
 72
    65
 73
    0
 40
    0
  0
LTYPE
  5
34
100
AcDbSymbolTableRecord
100
AcDbLinetypeTableRecord
  2
DASHED
 70
    64
 3

 72
    65
 73
    2
 40
    3.5
 49
    2.917
 74
    0
 49
    -0.583
 74
    0
  0
LTYPE
  5
35
100
AcDbSymbolTableRecord
100
AcDbLinetypeTableRecord
  2
DOT
 70
    64
 3

 72
    65
 73
    2
 40
    0.5
 49
    0.25
 74
    0
 49
    -0.25
 74
    0
  0
LTYPE
  5
36
100
AcDbSymbolTableRecord
100
AcDbLinetypeTableRecord
  2
DASHDOT
 70
    64
 3

 72
    65
 73
    4
 40
    3.5
 49
    1.84147386461011
 74
    0
 49
    -0.552842045129963
 74
    0
 49
    0.552842045129963
 74
    0
 49
    -0.552842045129963
 74
    0
  0
LTYPE
  5
37
100
AcDbSymbolTableRecord
100
AcDbLinetypeTableRecord
  2
DIVIDE
 70
    64
 3

 72
    65
 73
    6
 40
    3.5
 49
    1.4
 74
    0
 49
    -0.42
 74
    0
 49
    0.42
 74
    0
 49
    -0.42
 74
    0
 49
    0.42
 74
    0
 49
    -0.42
 74
    0
  0
LTYPE
  5
38
100
AcDbSymbolTableRecord
100
AcDbLinetypeTableRecord
  2
HIDDEN
 70
    64
 3

 72
    65
 73
    2
 40
    4
 49
    2
 74
    0
 49
    -2
 74
    0
  0
LTYPE
  5
39
100
AcDbSymbolTableRecord
100
AcDbLinetypeTableRecord
  2
CENTER
 70
    64
 3

 72
    65
 73
    4
 40
    2
 49
    1.25
 74
    0
 49
    -0.25
 74
    0
 49
    0.25
 74
    0
 49
    -0.25
 74
    0
  0
ENDTAB
  0
TABLE
  2
LAYER
  5
3
100
AcDbSymbolTable
 70
   257
  0
LAYER
  5
3A
100
AcDbSymbolTableRecord
100
AcDbLayerTableRecord
  2
画層0
 70
    0
 62
7
  6
CONTINUOUS
  0
LAYER
  5
3B
100
AcDbSymbolTableRecord
100
AcDbLayerTableRecord
  2
画層1
 70
    0
 62
3
  6
CONTINUOUS
  0
LAYER
  5
3C
100
AcDbSymbolTableRecord
100
AcDbLayerTableRecord
  2
画層2
 70
    0
 62
9
  6
CONTINUOUS
  0
LAYER
  5
3D
100
AcDbSymbolTableRecord
100
AcDbLayerTableRecord
  2
画層3
 70
    0
 62
7
  6
CONTINUOUS
  0
LAYER
  5
3E
100
AcDbSymbolTableRecord
100
AcDbLayerTableRecord
  2
画層4
 70
    0
 62
6
  6
CONTINUOUS
  0
LAYER
  5
3F
100
AcDbSymbolTableRecord
100
AcDbLayerTableRecord
  2
画層5
 70
    0
 62
1
  6
CONTINUOUS
  0
LAYER
  5
40
100
AcDbSymbolTableRecord
100
AcDbLayerTableRecord
  2
画層6
 70
    0
 62
7
  6
CONTINUOUS
  0
LAYER
  5
41
100
AcDbSymbolTableRecord
100
AcDbLayerTableRecord
  2
画層7
 70
    0
 62
51
  6
CONTINUOUS
  0
LAYER
  5
42
100
AcDbSymbolTableRecord
100
AcDbLayerTableRecord
  2
画層8
 70
    0
 62
61
  6
CONTINUOUS
  0
LAYER
  5
43
100
AcDbSymbolTableRecord
100
AcDbLayerTableRecord
  2
画層9
 70
    0
 62
111
  6
CONTINUOUS
  0
LAYER
  5
44
100
AcDbSymbolTableRecord
100
AcDbLayerTableRecord
  2
画層10
 70
    0
 62
91
  6
CONTINUOUS
  0
LAYER
  5
45
100
AcDbSymbolTableRecord
100
AcDbLayerTableRecord
  2
画層11
 70
    0
 62
131
  6
CONTINUOUS
  0
LAYER
  5
46
100
AcDbSymbolTableRecord
100
AcDbLayerTableRecord
  2
画層12
 70
    0
 62
161
  6
CONTINUOUS
  0
LAYER
  5
47
100
AcDbSymbolTableRecord
100
AcDbLayerTableRecord
  2
画層13
 70
    0
 62
5
  6
CONTINUOUS
  0
LAYER
  5
48
100
AcDbSymbolTableRecord
100
AcDbLayerTableRecord
  2
画層14
 70
    0
 62
7
  6
CONTINUOUS
  0
LAYER
  5
49
100
AcDbSymbolTableRecord
100
AcDbLayerTableRecord
  2
画層15
 70
    0
 62
11
  6
CONTINUOUS
  0
LAYER
  5
4A
100
AcDbSymbolTableRecord
100
AcDbLayerTableRecord
  2
画層16
 70
    0
 62
7
  6
CONTINUOUS
  0
LAYER
  5
4B
100
AcDbSymbolTableRecord
100
AcDbLayerTableRecord
  2
画層17
 70
    0
 62
70
  6
CONTINUOUS
  0
LAYER
  5
4C
100
AcDbSymbolTableRecord
100
AcDbLayerTableRecord
  2
画層18
 70
    0
 62
211
  6
CONTINUOUS
  0
LAYER
  5
4D
100
AcDbSymbolTableRecord
100
AcDbLayerTableRecord
  2
画層19
 70
    0
 62
137
  6
CONTINUOUS
  0
LAYER
  5
4E
100
AcDbSymbolTableRecord
100
AcDbLayerTableRecord
  2
画層20
 70
    0
 62
4
  6
CONTINUOUS
  0
LAYER
  5
4F
100
AcDbSymbolTableRecord
100
AcDbLayerTableRecord
  2
画層21
 70
    0
 62
131
  6
CONTINUOUS
  0
LAYER
  5
50
100
AcDbSymbolTableRecord
100
AcDbLayerTableRecord
  2
画層22
 70
    0
 62
4
  6
CONTINUOUS
  0
LAYER
  5
51
100
AcDbSymbolTableRecord
100
AcDbLayerTableRecord
  2
画層23
 70
    0
 62
4
  6
CONTINUOUS
  0
LAYER
  5
52
100
AcDbSymbolTableRecord
100
AcDbLayerTableRecord
  2
画層24
 70
    0
 62
7
  6
CONTINUOUS
  0
LAYER
  5
53
100
AcDbSymbolTableRecord
100
AcDbLayerTableRecord
  2
画層25
 70
    0
 62
7
  6
CONTINUOUS
  0
LAYER
  5
54
100
AcDbSymbolTableRecord
100
AcDbLayerTableRecord
  2
画層26
 70
    0
 62
7
  6
CONTINUOUS
  0
LAYER
  5
55
100
AcDbSymbolTableRecord
100
AcDbLayerTableRecord
  2
画層27
 70
    0
 62
7
  6
CONTINUOUS
  0
LAYER
  5
56
100
AcDbSymbolTableRecord
100
AcDbLayerTableRecord
  2
画層28
 70
    0
 62
7
  6
CONTINUOUS
  0
LAYER
  5
57
100
AcDbSymbolTableRecord
100
AcDbLayerTableRecord
  2
画層29
 70
    0
 62
7
  6
CONTINUOUS
  0
LAYER
  5
58
100
AcDbSymbolTableRecord
100
AcDbLayerTableRecord
  2
画層30
 70
    0
 62
7
  6
CONTINUOUS
  0
LAYER
  5
59
100
AcDbSymbolTableRecord
100
AcDbLayerTableRecord
  2
画層31
 70
    0
 62
7
  6
CONTINUOUS
  0
LAYER
  5
5A
100
AcDbSymbolTableRecord
100
AcDbLayerTableRecord
  2
画層32
 70
    0
 62
7
  6
CONTINUOUS
  0
LAYER
  5
5B
100
AcDbSymbolTableRecord
100
AcDbLayerTableRecord
  2
画層33
 70
    0
 62
7
  6
CONTINUOUS
  0
LAYER
  5
5C
100
AcDbSymbolTableRecord
100
AcDbLayerTableRecord
  2
画層34
 70
    0
 62
7
  6
CONTINUOUS
  0
LAYER
  5
5D
100
AcDbSymbolTableRecord
100
AcDbLayerTableRecord
  2
画層35
 70
    0
 62
7
  6
CONTINUOUS
  0
LAYER
  5
5E
100
AcDbSymbolTableRecord
100
AcDbLayerTableRecord
  2
画層36
 70
    0
 62
7
  6
CONTINUOUS
  0
LAYER
  5
5F
100
AcDbSymbolTableRecord
100
AcDbLayerTableRecord
  2
画層37
 70
    0
 62
7
  6
CONTINUOUS
  0
LAYER
  5
60
100
AcDbSymbolTableRecord
100
AcDbLayerTableRecord
  2
画層38
 70
    0
 62
7
  6
CONTINUOUS
  0
LAYER
  5
61
100
AcDbSymbolTableRecord
100
AcDbLayerTableRecord
  2
画層39
 70
    0
 62
7
  6
CONTINUOUS
  0
LAYER
  5
62
100
AcDbSymbolTableRecord
100
AcDbLayerTableRecord
  2
画層40
 70
    0
 62
7
  6
CONTINUOUS
  0
LAYER
  5
63
100
AcDbSymbolTableRecord
100
AcDbLayerTableRecord
  2
画層41
 70
    0
 62
7
  6
CONTINUOUS
  0
LAYER
  5
64
100
AcDbSymbolTableRecord
100
AcDbLayerTableRecord
  2
画層42
 70
    0
 62
7
  6
CONTINUOUS
  0
LAYER
  5
65
100
AcDbSymbolTableRecord
100
AcDbLayerTableRecord
  2
画層43
 70
    0
 62
7
  6
CONTINUOUS
  0
LAYER
  5
66
100
AcDbSymbolTableRecord
100
AcDbLayerTableRecord
  2
画層44
 70
    0
 62
7
  6
CONTINUOUS
  0
LAYER
  5
67
100
AcDbSymbolTableRecord
100
AcDbLayerTableRecord
  2
画層45
 70
    0
 62
7
  6
CONTINUOUS
  0
LAYER
  5
68
100
AcDbSymbolTableRecord
100
AcDbLayerTableRecord
  2
画層46
 70
    0
 62
7
  6
CONTINUOUS
  0
LAYER
  5
69
100
AcDbSymbolTableRecord
100
AcDbLayerTableRecord
  2
画層47
 70
    0
 62
7
  6
CONTINUOUS
  0
LAYER
  5
6A
100
AcDbSymbolTableRecord
100
AcDbLayerTableRecord
  2
画層48
 70
    0
 62
7
  6
CONTINUOUS
  0
LAYER
  5
6B
100
AcDbSymbolTableRecord
100
AcDbLayerTableRecord
  2
画層49
 70
    0
 62
7
  6
CONTINUOUS
  0
LAYER
  5
6C
100
AcDbSymbolTableRecord
100
AcDbLayerTableRecord
  2
画層50
 70
    0
 62
7
  6
CONTINUOUS
  0
LAYER
  5
6D
100
AcDbSymbolTableRecord
100
AcDbLayerTableRecord
  2
画層51
 70
    0
 62
7
  6
CONTINUOUS
  0
LAYER
  5
6E
100
AcDbSymbolTableRecord
100
AcDbLayerTableRecord
  2
画層52
 70
    0
 62
7
  6
CONTINUOUS
  0
LAYER
  5
6F
100
AcDbSymbolTableRecord
100
AcDbLayerTableRecord
  2
画層53
 70
    0
 62
7
  6
CONTINUOUS
  0
LAYER
  5
70
100
AcDbSymbolTableRecord
100
AcDbLayerTableRecord
  2
画層54
 70
    0
 62
7
  6
CONTINUOUS
  0
LAYER
  5
71
100
AcDbSymbolTableRecord
100
AcDbLayerTableRecord
  2
画層55
 70
    0
 62
7
  6
CONTINUOUS
  0
LAYER
  5
72
100
AcDbSymbolTableRecord
100
AcDbLayerTableRecord
  2
画層56
 70
    0
 62
7
  6
CONTINUOUS
  0
LAYER
  5
73
100
AcDbSymbolTableRecord
100
AcDbLayerTableRecord
  2
画層57
 70
    0
 62
7
  6
CONTINUOUS
  0
LAYER
  5
74
100
AcDbSymbolTableRecord
100
AcDbLayerTableRecord
  2
画層58
 70
    0
 62
7
  6
CONTINUOUS
  0
LAYER
  5
75
100
AcDbSymbolTableRecord
100
AcDbLayerTableRecord
  2
画層59
 70
    0
 62
7
  6
CONTINUOUS
  0
LAYER
  5
76
100
AcDbSymbolTableRecord
100
AcDbLayerTableRecord
  2
画層60
 70
    0
 62
7
  6
CONTINUOUS
  0
LAYER
  5
77
100
AcDbSymbolTableRecord
100
AcDbLayerTableRecord
  2
画層61
 70
    0
 62
7
  6
CONTINUOUS
  0
LAYER
  5
78
100
AcDbSymbolTableRecord
100
AcDbLayerTableRecord
  2
画層62
 70
    0
 62
7
  6
CONTINUOUS
  0
LAYER
  5
79
100
AcDbSymbolTableRecord
100
AcDbLayerTableRecord
  2
画層63
 70
    0
 62
7
  6
CONTINUOUS
  0
LAYER
  5
7A
100
AcDbSymbolTableRecord
100
AcDbLayerTableRecord
  2
画層64
 70
    0
 62
7
  6
CONTINUOUS
  0
LAYER
  5
7B
100
AcDbSymbolTableRecord
100
AcDbLayerTableRecord
  2
画層65
 70
    0
 62
7
  6
CONTINUOUS
  0
LAYER
  5
7C
100
AcDbSymbolTableRecord
100
AcDbLayerTableRecord
  2
画層66
 70
    0
 62
7
  6
CONTINUOUS
  0
LAYER
  5
7D
100
AcDbSymbolTableRecord
100
AcDbLayerTableRecord
  2
画層67
 70
    0
 62
7
  6
CONTINUOUS
  0
LAYER
  5
7E
100
AcDbSymbolTableRecord
100
AcDbLayerTableRecord
  2
画層68
 70
    0
 62
7
  6
CONTINUOUS
  0
LAYER
  5
7F
100
AcDbSymbolTableRecord
100
AcDbLayerTableRecord
  2
画層69
 70
    0
 62
7
  6
CONTINUOUS
  0
LAYER
  5
80
100
AcDbSymbolTableRecord
100
AcDbLayerTableRecord
  2
画層70
 70
    0
 62
7
  6
CONTINUOUS
  0
LAYER
  5
81
100
AcDbSymbolTableRecord
100
AcDbLayerTableRecord
  2
画層71
 70
    0
 62
7
  6
CONTINUOUS
  0
LAYER
  5
82
100
AcDbSymbolTableRecord
100
AcDbLayerTableRecord
  2
画層72
 70
    0
 62
7
  6
CONTINUOUS
  0
LAYER
  5
83
100
AcDbSymbolTableRecord
100
AcDbLayerTableRecord
  2
画層73
 70
    0
 62
7
  6
CONTINUOUS
  0
LAYER
  5
84
100
AcDbSymbolTableRecord
100
AcDbLayerTableRecord
  2
画層74
 70
    0
 62
7
  6
CONTINUOUS
  0
LAYER
  5
85
100
AcDbSymbolTableRecord
100
AcDbLayerTableRecord
  2
画層75
 70
    0
 62
7
  6
CONTINUOUS
  0
LAYER
  5
86
100
AcDbSymbolTableRecord
100
AcDbLayerTableRecord
  2
画層76
 70
    0
 62
7
  6
CONTINUOUS
  0
LAYER
  5
87
100
AcDbSymbolTableRecord
100
AcDbLayerTableRecord
  2
画層77
 70
    0
 62
7
  6
CONTINUOUS
  0
LAYER
  5
88
100
AcDbSymbolTableRecord
100
AcDbLayerTableRecord
  2
画層78
 70
    0
 62
7
  6
CONTINUOUS
  0
LAYER
  5
89
100
AcDbSymbolTableRecord
100
AcDbLayerTableRecord
  2
画層79
 70
    0
 62
7
  6
CONTINUOUS
  0
LAYER
  5
8A
100
AcDbSymbolTableRecord
100
AcDbLayerTableRecord
  2
画層80
 70
    0
 62
7
  6
CONTINUOUS
  0
LAYER
  5
8B
100
AcDbSymbolTableRecord
100
AcDbLayerTableRecord
  2
画層81
 70
    0
 62
7
  6
CONTINUOUS
  0
LAYER
  5
8C
100
AcDbSymbolTableRecord
100
AcDbLayerTableRecord
  2
画層82
 70
    0
 62
7
  6
CONTINUOUS
  0
LAYER
  5
8D
100
AcDbSymbolTableRecord
100
AcDbLayerTableRecord
  2
画層83
 70
    0
 62
7
  6
CONTINUOUS
  0
LAYER
  5
8E
100
AcDbSymbolTableRecord
100
AcDbLayerTableRecord
  2
画層84
 70
    0
 62
7
  6
CONTINUOUS
  0
LAYER
  5
8F
100
AcDbSymbolTableRecord
100
AcDbLayerTableRecord
  2
画層85
 70
    0
 62
7
  6
CONTINUOUS
  0
LAYER
  5
90
100
AcDbSymbolTableRecord
100
AcDbLayerTableRecord
  2
画層86
 70
    0
 62
7
  6
CONTINUOUS
  0
LAYER
  5
91
100
AcDbSymbolTableRecord
100
AcDbLayerTableRecord
  2
画層87
 70
    0
 62
7
  6
CONTINUOUS
  0
LAYER
  5
92
100
AcDbSymbolTableRecord
100
AcDbLayerTableRecord
  2
画層88
 70
    0
 62
7
  6
CONTINUOUS
  0
LAYER
  5
93
100
AcDbSymbolTableRecord
100
AcDbLayerTableRecord
  2
画層89
 70
    0
 62
7
  6
CONTINUOUS
  0
LAYER
  5
94
100
AcDbSymbolTableRecord
100
AcDbLayerTableRecord
  2
画層90
 70
    0
 62
7
  6
CONTINUOUS
  0
LAYER
  5
95
100
AcDbSymbolTableRecord
100
AcDbLayerTableRecord
  2
画層91
 70
    0
 62
7
  6
CONTINUOUS
  0
LAYER
  5
96
100
AcDbSymbolTableRecord
100
AcDbLayerTableRecord
  2
画層92
 70
    0
 62
7
  6
CONTINUOUS
  0
LAYER
  5
97
100
AcDbSymbolTableRecord
100
AcDbLayerTableRecord
  2
画層93
 70
    0
 62
7
  6
CONTINUOUS
  0
LAYER
  5
98
100
AcDbSymbolTableRecord
100
AcDbLayerTableRecord
  2
画層94
 70
    0
 62
7
  6
CONTINUOUS
  0
LAYER
  5
99
100
AcDbSymbolTableRecord
100
AcDbLayerTableRecord
  2
画層95
 70
    0
 62
7
  6
CONTINUOUS
  0
LAYER
  5
9A
100
AcDbSymbolTableRecord
100
AcDbLayerTableRecord
  2
画層96
 70
    0
 62
7
  6
CONTINUOUS
  0
LAYER
  5
9B
100
AcDbSymbolTableRecord
100
AcDbLayerTableRecord
  2
画層97
 70
    0
 62
7
  6
CONTINUOUS
  0
LAYER
  5
9C
100
AcDbSymbolTableRecord
100
AcDbLayerTableRecord
  2
画層98
 70
    0
 62
7
  6
CONTINUOUS
  0
LAYER
  5
9D
100
AcDbSymbolTableRecord
100
AcDbLayerTableRecord
  2
画層99
 70
    0
 62
7
  6
CONTINUOUS
  0
LAYER
  5
9E
100
AcDbSymbolTableRecord
100
AcDbLayerTableRecord
  2
画層100
 70
    0
 62
7
  6
CONTINUOUS
  0
LAYER
  5
9F
100
AcDbSymbolTableRecord
100
AcDbLayerTableRecord
  2
画層101
 70
    0
 62
7
  6
CONTINUOUS
  0
LAYER
  5
A0
100
AcDbSymbolTableRecord
100
AcDbLayerTableRecord
  2
画層102
 70
    0
 62
7
  6
CONTINUOUS
  0
LAYER
  5
A1
100
AcDbSymbolTableRecord
100
AcDbLayerTableRecord
  2
画層103
 70
    0
 62
7
  6
CONTINUOUS
  0
LAYER
  5
A2
100
AcDbSymbolTableRecord
100
AcDbLayerTableRecord
  2
画層104
 70
    0
 62
7
  6
CONTINUOUS
  0
LAYER
  5
A3
100
AcDbSymbolTableRecord
100
AcDbLayerTableRecord
  2
画層105
 70
    0
 62
7
  6
CONTINUOUS
  0
LAYER
  5
A4
100
AcDbSymbolTableRecord
100
AcDbLayerTableRecord
  2
画層106
 70
    0
 62
7
  6
CONTINUOUS
  0
LAYER
  5
A5
100
AcDbSymbolTableRecord
100
AcDbLayerTableRecord
  2
画層107
 70
    0
 62
7
  6
CONTINUOUS
  0
LAYER
  5
A6
100
AcDbSymbolTableRecord
100
AcDbLayerTableRecord
  2
画層108
 70
    0
 62
7
  6
CONTINUOUS
  0
LAYER
  5
A7
100
AcDbSymbolTableRecord
100
AcDbLayerTableRecord
  2
画層109
 70
    0
 62
7
  6
CONTINUOUS
  0
LAYER
  5
A8
100
AcDbSymbolTableRecord
100
AcDbLayerTableRecord
  2
画層110
 70
    0
 62
7
  6
CONTINUOUS
  0
LAYER
  5
A9
100
AcDbSymbolTableRecord
100
AcDbLayerTableRecord
  2
画層111
 70
    0
 62
7
  6
CONTINUOUS
  0
LAYER
  5
AA
100
AcDbSymbolTableRecord
100
AcDbLayerTableRecord
  2
画層112
 70
    0
 62
7
  6
CONTINUOUS
  0
LAYER
  5
AB
100
AcDbSymbolTableRecord
100
AcDbLayerTableRecord
  2
画層113
 70
    0
 62
7
  6
CONTINUOUS
  0
LAYER
  5
AC
100
AcDbSymbolTableRecord
100
AcDbLayerTableRecord
  2
画層114
 70
    0
 62
7
  6
CONTINUOUS
  0
LAYER
  5
AD
100
AcDbSymbolTableRecord
100
AcDbLayerTableRecord
  2
画層115
 70
    0
 62
7
  6
CONTINUOUS
  0
LAYER
  5
AE
100
AcDbSymbolTableRecord
100
AcDbLayerTableRecord
  2
画層116
 70
    0
 62
7
  6
CONTINUOUS
  0
LAYER
  5
AF
100
AcDbSymbolTableRecord
100
AcDbLayerTableRecord
  2
画層117
 70
    0
 62
7
  6
CONTINUOUS
  0
LAYER
  5
B0
100
AcDbSymbolTableRecord
100
AcDbLayerTableRecord
  2
画層118
 70
    0
 62
7
  6
CONTINUOUS
  0
LAYER
  5
B1
100
AcDbSymbolTableRecord
100
AcDbLayerTableRecord
  2
画層119
 70
    0
 62
7
  6
CONTINUOUS
  0
LAYER
  5
B2
100
AcDbSymbolTableRecord
100
AcDbLayerTableRecord
  2
画層120
 70
    0
 62
7
  6
CONTINUOUS
  0
LAYER
  5
B3
100
AcDbSymbolTableRecord
100
AcDbLayerTableRecord
  2
画層121
 70
    0
 62
7
  6
CONTINUOUS
  0
LAYER
  5
B4
100
AcDbSymbolTableRecord
100
AcDbLayerTableRecord
  2
画層122
 70
    0
 62
7
  6
CONTINUOUS
  0
LAYER
  5
B5
100
AcDbSymbolTableRecord
100
AcDbLayerTableRecord
  2
画層123
 70
    0
 62
7
  6
CONTINUOUS
  0
LAYER
  5
B6
100
AcDbSymbolTableRecord
100
AcDbLayerTableRecord
  2
画層124
 70
    0
 62
7
  6
CONTINUOUS
  0
LAYER
  5
B7
100
AcDbSymbolTableRecord
100
AcDbLayerTableRecord
  2
画層125
 70
    0
 62
7
  6
CONTINUOUS
  0
LAYER
  5
B8
100
AcDbSymbolTableRecord
100
AcDbLayerTableRecord
  2
画層126
 70
    0
 62
7
  6
CONTINUOUS
  0
LAYER
  5
B9
100
AcDbSymbolTableRecord
100
AcDbLayerTableRecord
  2
画層127
 70
    0
 62
7
  6
CONTINUOUS
  0
LAYER
  5
BA
100
AcDbSymbolTableRecord
100
AcDbLayerTableRecord
  2
画層128
 70
    0
 62
7
  6
CONTINUOUS
  0
LAYER
  5
BB
100
AcDbSymbolTableRecord
100
AcDbLayerTableRecord
  2
画層129
 70
    0
 62
7
  6
CONTINUOUS
  0
LAYER
  5
BC
100
AcDbSymbolTableRecord
100
AcDbLayerTableRecord
  2
画層130
 70
    0
 62
7
  6
CONTINUOUS
  0
LAYER
  5
BD
100
AcDbSymbolTableRecord
100
AcDbLayerTableRecord
  2
画層131
 70
    0
 62
7
  6
CONTINUOUS
  0
LAYER
  5
BE
100
AcDbSymbolTableRecord
100
AcDbLayerTableRecord
  2
画層132
 70
    0
 62
7
  6
CONTINUOUS
  0
LAYER
  5
BF
100
AcDbSymbolTableRecord
100
AcDbLayerTableRecord
  2
画層133
 70
    0
 62
7
  6
CONTINUOUS
  0
LAYER
  5
C0
100
AcDbSymbolTableRecord
100
AcDbLayerTableRecord
  2
画層134
 70
    0
 62
7
  6
CONTINUOUS
  0
LAYER
  5
C1
100
AcDbSymbolTableRecord
100
AcDbLayerTableRecord
  2
画層135
 70
    0
 62
7
  6
CONTINUOUS
  0
LAYER
  5
C2
100
AcDbSymbolTableRecord
100
AcDbLayerTableRecord
  2
画層136
 70
    0
 62
7
  6
CONTINUOUS
  0
LAYER
  5
C3
100
AcDbSymbolTableRecord
100
AcDbLayerTableRecord
  2
画層137
 70
    0
 62
7
  6
CONTINUOUS
  0
LAYER
  5
C4
100
AcDbSymbolTableRecord
100
AcDbLayerTableRecord
  2
画層138
 70
    0
 62
7
  6
CONTINUOUS
  0
LAYER
  5
C5
100
AcDbSymbolTableRecord
100
AcDbLayerTableRecord
  2
画層139
 70
    0
 62
7
  6
CONTINUOUS
  0
LAYER
  5
C6
100
AcDbSymbolTableRecord
100
AcDbLayerTableRecord
  2
画層140
 70
    0
 62
7
  6
CONTINUOUS
  0
LAYER
  5
C7
100
AcDbSymbolTableRecord
100
AcDbLayerTableRecord
  2
画層141
 70
    0
 62
7
  6
CONTINUOUS
  0
LAYER
  5
C8
100
AcDbSymbolTableRecord
100
AcDbLayerTableRecord
  2
画層142
 70
    0
 62
7
  6
CONTINUOUS
  0
LAYER
  5
C9
100
AcDbSymbolTableRecord
100
AcDbLayerTableRecord
  2
画層143
 70
    0
 62
7
  6
CONTINUOUS
  0
LAYER
  5
CA
100
AcDbSymbolTableRecord
100
AcDbLayerTableRecord
  2
画層144
 70
    0
 62
7
  6
CONTINUOUS
  0
LAYER
  5
CB
100
AcDbSymbolTableRecord
100
AcDbLayerTableRecord
  2
画層145
 70
    0
 62
7
  6
CONTINUOUS
  0
LAYER
  5
CC
100
AcDbSymbolTableRecord
100
AcDbLayerTableRecord
  2
画層146
 70
    0
 62
7
  6
CONTINUOUS
  0
LAYER
  5
CD
100
AcDbSymbolTableRecord
100
AcDbLayerTableRecord
  2
画層147
 70
    0
 62
7
  6
CONTINUOUS
  0
LAYER
  5
CE
100
AcDbSymbolTableRecord
100
AcDbLayerTableRecord
  2
画層148
 70
    0
 62
7
  6
CONTINUOUS
  0
LAYER
  5
CF
100
AcDbSymbolTableRecord
100
AcDbLayerTableRecord
  2
画層149
 70
    0
 62
7
  6
CONTINUOUS
  0
LAYER
  5
D0
100
AcDbSymbolTableRecord
100
AcDbLayerTableRecord
  2
画層150
 70
    0
 62
7
  6
CONTINUOUS
  0
LAYER
  5
D1
100
AcDbSymbolTableRecord
100
AcDbLayerTableRecord
  2
画層151
 70
    0
 62
7
  6
CONTINUOUS
  0
LAYER
  5
D2
100
AcDbSymbolTableRecord
100
AcDbLayerTableRecord
  2
画層152
 70
    0
 62
7
  6
CONTINUOUS
  0
LAYER
  5
D3
100
AcDbSymbolTableRecord
100
AcDbLayerTableRecord
  2
画層153
 70
    0
 62
7
  6
CONTINUOUS
  0
LAYER
  5
D4
100
AcDbSymbolTableRecord
100
AcDbLayerTableRecord
  2
画層154
 70
    0
 62
7
  6
CONTINUOUS
  0
LAYER
  5
D5
100
AcDbSymbolTableRecord
100
AcDbLayerTableRecord
  2
画層155
 70
    0
 62
7
  6
CONTINUOUS
  0
LAYER
  5
D6
100
AcDbSymbolTableRecord
100
AcDbLayerTableRecord
  2
画層156
 70
    0
 62
7
  6
CONTINUOUS
  0
LAYER
  5
D7
100
AcDbSymbolTableRecord
100
AcDbLayerTableRecord
  2
画層157
 70
    0
 62
7
  6
CONTINUOUS
  0
LAYER
  5
D8
100
AcDbSymbolTableRecord
100
AcDbLayerTableRecord
  2
画層158
 70
    0
 62
7
  6
CONTINUOUS
  0
LAYER
  5
D9
100
AcDbSymbolTableRecord
100
AcDbLayerTableRecord
  2
画層159
 70
    0
 62
7
  6
CONTINUOUS
  0
LAYER
  5
DA
100
AcDbSymbolTableRecord
100
AcDbLayerTableRecord
  2
画層160
 70
    0
 62
7
  6
CONTINUOUS
  0
LAYER
  5
DB
100
AcDbSymbolTableRecord
100
AcDbLayerTableRecord
  2
画層161
 70
    0
 62
7
  6
CONTINUOUS
  0
LAYER
  5
DC
100
AcDbSymbolTableRecord
100
AcDbLayerTableRecord
  2
画層162
 70
    0
 62
7
  6
CONTINUOUS
  0
LAYER
  5
DD
100
AcDbSymbolTableRecord
100
AcDbLayerTableRecord
  2
画層163
 70
    0
 62
7
  6
CONTINUOUS
  0
LAYER
  5
DE
100
AcDbSymbolTableRecord
100
AcDbLayerTableRecord
  2
画層164
 70
    0
 62
7
  6
CONTINUOUS
  0
LAYER
  5
DF
100
AcDbSymbolTableRecord
100
AcDbLayerTableRecord
  2
画層165
 70
    0
 62
7
  6
CONTINUOUS
  0
LAYER
  5
E0
100
AcDbSymbolTableRecord
100
AcDbLayerTableRecord
  2
画層166
 70
    0
 62
7
  6
CONTINUOUS
  0
LAYER
  5
E1
100
AcDbSymbolTableRecord
100
AcDbLayerTableRecord
  2
画層167
 70
    0
 62
7
  6
CONTINUOUS
  0
LAYER
  5
E2
100
AcDbSymbolTableRecord
100
AcDbLayerTableRecord
  2
画層168
 70
    0
 62
7
  6
CONTINUOUS
  0
LAYER
  5
E3
100
AcDbSymbolTableRecord
100
AcDbLayerTableRecord
  2
画層169
 70
    0
 62
7
  6
CONTINUOUS
  0
LAYER
  5
E4
100
AcDbSymbolTableRecord
100
AcDbLayerTableRecord
  2
画層170
 70
    0
 62
7
  6
CONTINUOUS
  0
LAYER
  5
E5
100
AcDbSymbolTableRecord
100
AcDbLayerTableRecord
  2
画層171
 70
    0
 62
7
  6
CONTINUOUS
  0
LAYER
  5
E6
100
AcDbSymbolTableRecord
100
AcDbLayerTableRecord
  2
画層172
 70
    0
 62
7
  6
CONTINUOUS
  0
LAYER
  5
E7
100
AcDbSymbolTableRecord
100
AcDbLayerTableRecord
  2
画層173
 70
    0
 62
7
  6
CONTINUOUS
  0
LAYER
  5
E8
100
AcDbSymbolTableRecord
100
AcDbLayerTableRecord
  2
画層174
 70
    0
 62
7
  6
CONTINUOUS
  0
LAYER
  5
E9
100
AcDbSymbolTableRecord
100
AcDbLayerTableRecord
  2
画層175
 70
    0
 62
7
  6
CONTINUOUS
  0
LAYER
  5
EA
100
AcDbSymbolTableRecord
100
AcDbLayerTableRecord
  2
画層176
 70
    0
 62
7
  6
CONTINUOUS
  0
LAYER
  5
EB
100
AcDbSymbolTableRecord
100
AcDbLayerTableRecord
  2
画層177
 70
    0
 62
7
  6
CONTINUOUS
  0
LAYER
  5
EC
100
AcDbSymbolTableRecord
100
AcDbLayerTableRecord
  2
画層178
 70
    0
 62
7
  6
CONTINUOUS
  0
LAYER
  5
ED
100
AcDbSymbolTableRecord
100
AcDbLayerTableRecord
  2
画層179
 70
    0
 62
7
  6
CONTINUOUS
  0
LAYER
  5
EE
100
AcDbSymbolTableRecord
100
AcDbLayerTableRecord
  2
画層180
 70
    0
 62
7
  6
CONTINUOUS
  0
LAYER
  5
EF
100
AcDbSymbolTableRecord
100
AcDbLayerTableRecord
  2
画層181
 70
    0
 62
7
  6
CONTINUOUS
  0
LAYER
  5
F0
100
AcDbSymbolTableRecord
100
AcDbLayerTableRecord
  2
画層182
 70
    0
 62
7
  6
CONTINUOUS
  0
LAYER
  5
F1
100
AcDbSymbolTableRecord
100
AcDbLayerTableRecord
  2
画層183
 70
    0
 62
7
  6
CONTINUOUS
  0
LAYER
  5
F2
100
AcDbSymbolTableRecord
100
AcDbLayerTableRecord
  2
画層184
 70
    0
 62
7
  6
CONTINUOUS
  0
LAYER
  5
F3
100
AcDbSymbolTableRecord
100
AcDbLayerTableRecord
  2
画層185
 70
    0
 62
7
  6
CONTINUOUS
  0
LAYER
  5
F4
100
AcDbSymbolTableRecord
100
AcDbLayerTableRecord
  2
画層186
 70
    0
 62
7
  6
CONTINUOUS
  0
LAYER
  5
F5
100
AcDbSymbolTableRecord
100
AcDbLayerTableRecord
  2
画層187
 70
    0
 62
7
  6
CONTINUOUS
  0
LAYER
  5
F6
100
AcDbSymbolTableRecord
100
AcDbLayerTableRecord
  2
画層188
 70
    0
 62
7
  6
CONTINUOUS
  0
LAYER
  5
F7
100
AcDbSymbolTableRecord
100
AcDbLayerTableRecord
  2
画層189
 70
    0
 62
7
  6
CONTINUOUS
  0
LAYER
  5
F8
100
AcDbSymbolTableRecord
100
AcDbLayerTableRecord
  2
画層190
 70
    0
 62
7
  6
CONTINUOUS
  0
LAYER
  5
F9
100
AcDbSymbolTableRecord
100
AcDbLayerTableRecord
  2
画層191
 70
    0
 62
7
  6
CONTINUOUS
  0
LAYER
  5
FA
100
AcDbSymbolTableRecord
100
AcDbLayerTableRecord
  2
画層192
 70
    0
 62
7
  6
CONTINUOUS
  0
LAYER
  5
FB
100
AcDbSymbolTableRecord
100
AcDbLayerTableRecord
  2
画層193
 70
    0
 62
7
  6
CONTINUOUS
  0
LAYER
  5
FC
100
AcDbSymbolTableRecord
100
AcDbLayerTableRecord
  2
画層194
 70
    0
 62
7
  6
CONTINUOUS
  0
LAYER
  5
FD
100
AcDbSymbolTableRecord
100
AcDbLayerTableRecord
  2
画層195
 70
    0
 62
7
  6
CONTINUOUS
  0
LAYER
  5
FE
100
AcDbSymbolTableRecord
100
AcDbLayerTableRecord
  2
画層196
 70
    0
 62
7
  6
CONTINUOUS
  0
LAYER
  5
FF
100
AcDbSymbolTableRecord
100
AcDbLayerTableRecord
  2
画層197
 70
    0
 62
7
  6
CONTINUOUS
  0
LAYER
  5
100
100
AcDbSymbolTableRecord
100
AcDbLayerTableRecord
  2
画層198
 70
    0
 62
7
  6
CONTINUOUS
  0
LAYER
  5
101
100
AcDbSymbolTableRecord
100
AcDbLayerTableRecord
  2
画層199
 70
    0
 62
7
  6
CONTINUOUS
  0
LAYER
  5
102
100
AcDbSymbolTableRecord
100
AcDbLayerTableRecord
  2
画層200
 70
    0
 62
7
  6
CONTINUOUS
  0
LAYER
  5
103
100
AcDbSymbolTableRecord
100
AcDbLayerTableRecord
  2
画層201
 70
    0
 62
7
  6
CONTINUOUS
  0
LAYER
  5
104
100
AcDbSymbolTableRecord
100
AcDbLayerTableRecord
  2
画層202
 70
    0
 62
7
  6
CONTINUOUS
  0
LAYER
  5
105
100
AcDbSymbolTableRecord
100
AcDbLayerTableRecord
  2
画層203
 70
    0
 62
7
  6
CONTINUOUS
  0
LAYER
  5
106
100
AcDbSymbolTableRecord
100
AcDbLayerTableRecord
  2
画層204
 70
    0
 62
7
  6
CONTINUOUS
  0
LAYER
  5
107
100
AcDbSymbolTableRecord
100
AcDbLayerTableRecord
  2
画層205
 70
    0
 62
7
  6
CONTINUOUS
  0
LAYER
  5
108
100
AcDbSymbolTableRecord
100
AcDbLayerTableRecord
  2
画層206
 70
    0
 62
7
  6
CONTINUOUS
  0
LAYER
  5
109
100
AcDbSymbolTableRecord
100
AcDbLayerTableRecord
  2
画層207
 70
    0
 62
7
  6
CONTINUOUS
  0
LAYER
  5
10A
100
AcDbSymbolTableRecord
100
AcDbLayerTableRecord
  2
画層208
 70
    0
 62
7
  6
CONTINUOUS
  0
LAYER
  5
10B
100
AcDbSymbolTableRecord
100
AcDbLayerTableRecord
  2
画層209
 70
    0
 62
7
  6
CONTINUOUS
  0
LAYER
  5
10C
100
AcDbSymbolTableRecord
100
AcDbLayerTableRecord
  2
画層210
 70
    0
 62
7
  6
CONTINUOUS
  0
LAYER
  5
10D
100
AcDbSymbolTableRecord
100
AcDbLayerTableRecord
  2
画層211
 70
    0
 62
7
  6
CONTINUOUS
  0
LAYER
  5
10E
100
AcDbSymbolTableRecord
100
AcDbLayerTableRecord
  2
画層212
 70
    0
 62
7
  6
CONTINUOUS
  0
LAYER
  5
10F
100
AcDbSymbolTableRecord
100
AcDbLayerTableRecord
  2
画層213
 70
    0
 62
7
  6
CONTINUOUS
  0
LAYER
  5
110
100
AcDbSymbolTableRecord
100
AcDbLayerTableRecord
  2
画層214
 70
    0
 62
7
  6
CONTINUOUS
  0
LAYER
  5
111
100
AcDbSymbolTableRecord
100
AcDbLayerTableRecord
  2
画層215
 70
    0
 62
7
  6
CONTINUOUS
  0
LAYER
  5
112
100
AcDbSymbolTableRecord
100
AcDbLayerTableRecord
  2
画層216
 70
    0
 62
7
  6
CONTINUOUS
  0
LAYER
  5
113
100
AcDbSymbolTableRecord
100
AcDbLayerTableRecord
  2
画層217
 70
    0
 62
7
  6
CONTINUOUS
  0
LAYER
  5
114
100
AcDbSymbolTableRecord
100
AcDbLayerTableRecord
  2
画層218
 70
    0
 62
7
  6
CONTINUOUS
  0
LAYER
  5
115
100
AcDbSymbolTableRecord
100
AcDbLayerTableRecord
  2
画層219
 70
    0
 62
7
  6
CONTINUOUS
  0
LAYER
  5
116
100
AcDbSymbolTableRecord
100
AcDbLayerTableRecord
  2
画層220
 70
    0
 62
7
  6
CONTINUOUS
  0
LAYER
  5
117
100
AcDbSymbolTableRecord
100
AcDbLayerTableRecord
  2
画層221
 70
    0
 62
7
  6
CONTINUOUS
  0
LAYER
  5
118
100
AcDbSymbolTableRecord
100
AcDbLayerTableRecord
  2
画層222
 70
    0
 62
7
  6
CONTINUOUS
  0
LAYER
  5
119
100
AcDbSymbolTableRecord
100
AcDbLayerTableRecord
  2
画層223
 70
    0
 62
7
  6
CONTINUOUS
  0
LAYER
  5
11A
100
AcDbSymbolTableRecord
100
AcDbLayerTableRecord
  2
画層224
 70
    0
 62
7
  6
CONTINUOUS
  0
LAYER
  5
11B
100
AcDbSymbolTableRecord
100
AcDbLayerTableRecord
  2
画層225
 70
    0
 62
7
  6
CONTINUOUS
  0
LAYER
  5
11C
100
AcDbSymbolTableRecord
100
AcDbLayerTableRecord
  2
画層226
 70
    0
 62
7
  6
CONTINUOUS
  0
LAYER
  5
11D
100
AcDbSymbolTableRecord
100
AcDbLayerTableRecord
  2
画層227
 70
    0
 62
7
  6
CONTINUOUS
  0
LAYER
  5
11E
100
AcDbSymbolTableRecord
100
AcDbLayerTableRecord
  2
画層228
 70
    0
 62
7
  6
CONTINUOUS
  0
LAYER
  5
11F
100
AcDbSymbolTableRecord
100
AcDbLayerTableRecord
  2
画層229
 70
    0
 62
7
  6
CONTINUOUS
  0
LAYER
  5
120
100
AcDbSymbolTableRecord
100
AcDbLayerTableRecord
  2
画層230
 70
    0
 62
7
  6
CONTINUOUS
  0
LAYER
  5
121
100
AcDbSymbolTableRecord
100
AcDbLayerTableRecord
  2
画層231
 70
    0
 62
7
  6
CONTINUOUS
  0
LAYER
  5
122
100
AcDbSymbolTableRecord
100
AcDbLayerTableRecord
  2
画層232
 70
    0
 62
7
  6
CONTINUOUS
  0
LAYER
  5
123
100
AcDbSymbolTableRecord
100
AcDbLayerTableRecord
  2
画層233
 70
    0
 62
7
  6
CONTINUOUS
  0
LAYER
  5
124
100
AcDbSymbolTableRecord
100
AcDbLayerTableRecord
  2
画層234
 70
    0
 62
7
  6
CONTINUOUS
  0
LAYER
  5
125
100
AcDbSymbolTableRecord
100
AcDbLayerTableRecord
  2
画層235
 70
    0
 62
7
  6
CONTINUOUS
  0
LAYER
  5
126
100
AcDbSymbolTableRecord
100
AcDbLayerTableRecord
  2
画層236
 70
    0
 62
7
  6
CONTINUOUS
  0
LAYER
  5
127
100
AcDbSymbolTableRecord
100
AcDbLayerTableRecord
  2
画層237
 70
    0
 62
7
  6
CONTINUOUS
  0
LAYER
  5
128
100
AcDbSymbolTableRecord
100
AcDbLayerTableRecord
  2
画層238
 70
    0
 62
7
  6
CONTINUOUS
  0
LAYER
  5
129
100
AcDbSymbolTableRecord
100
AcDbLayerTableRecord
  2
画層239
 70
    0
 62
7
  6
CONTINUOUS
  0
LAYER
  5
12A
100
AcDbSymbolTableRecord
100
AcDbLayerTableRecord
  2
画層240
 70
    0
 62
7
  6
CONTINUOUS
  0
LAYER
  5
12B
100
AcDbSymbolTableRecord
100
AcDbLayerTableRecord
  2
画層241
 70
    0
 62
7
  6
CONTINUOUS
  0
LAYER
  5
12C
100
AcDbSymbolTableRecord
100
AcDbLayerTableRecord
  2
画層242
 70
    0
 62
7
  6
CONTINUOUS
  0
LAYER
  5
12D
100
AcDbSymbolTableRecord
100
AcDbLayerTableRecord
  2
画層243
 70
    0
 62
7
  6
CONTINUOUS
  0
LAYER
  5
12E
100
AcDbSymbolTableRecord
100
AcDbLayerTableRecord
  2
画層244
 70
    0
 62
7
  6
CONTINUOUS
  0
LAYER
  5
12F
100
AcDbSymbolTableRecord
100
AcDbLayerTableRecord
  2
画層245
 70
    0
 62
7
  6
CONTINUOUS
  0
LAYER
  5
130
100
AcDbSymbolTableRecord
100
AcDbLayerTableRecord
  2
画層246
 70
    0
 62
7
  6
CONTINUOUS
  0
LAYER
  5
131
100
AcDbSymbolTableRecord
100
AcDbLayerTableRecord
  2
画層247
 70
    0
 62
7
  6
CONTINUOUS
  0
LAYER
  5
132
100
AcDbSymbolTableRecord
100
AcDbLayerTableRecord
  2
画層248
 70
    0
 62
7
  6
CONTINUOUS
  0
LAYER
  5
133
100
AcDbSymbolTableRecord
100
AcDbLayerTableRecord
  2
画層249
 70
    0
 62
7
  6
CONTINUOUS
  0
LAYER
  5
134
100
AcDbSymbolTableRecord
100
AcDbLayerTableRecord
  2
画層250
 70
    0
 62
7
  6
CONTINUOUS
  0
LAYER
  5
135
100
AcDbSymbolTableRecord
100
AcDbLayerTableRecord
  2
画層251
 70
    0
 62
7
  6
CONTINUOUS
  0
LAYER
  5
136
100
AcDbSymbolTableRecord
100
AcDbLayerTableRecord
  2
画層252
 70
    0
 62
7
  6
CONTINUOUS
  0
LAYER
  5
137
100
AcDbSymbolTableRecord
100
AcDbLayerTableRecord
  2
画層253
 70
    0
 62
7
  6
CONTINUOUS
  0
LAYER
  5
138
100
AcDbSymbolTableRecord
100
AcDbLayerTableRecord
  2
画層254
 70
    0
 62
7
  6
CONTINUOUS
  0
LAYER
  5
139
100
AcDbSymbolTableRecord
100
AcDbLayerTableRecord
  2
画層255
 70
    0
 62
7
  6
CONTINUOUS
  0
LAYER
  5
13A
100
AcDbSymbolTableRecord
100
AcDbLayerTableRecord
  2
0
 70
   64
 62
    7
  6
CONTINUOUS
  0
ENDTAB
  0
TABLE
  2
STYLE
  5
4
100
AcDbSymbolTable
 70
     1
  0
STYLE
  5
13B
100
AcDbSymbolTableRecord
100
AcDbTextStyleTableRecord
  2
Standard
 70
     0
 40
0.0
 41
1.0
 50
0.0
 71
     0
 42
3.2
  3
TXT
  4
BIGFONT
  0
STYLE
  5
13C
100
AcDbSymbolTableRecord
100
AcDbTextStyleTableRecord
  2
Font_0
 70
     0
 40
0.0
 41
1.0
 50
0.0
 71
     0
 42
3.2
  3
MS Gothic.ttf
  4

1001
ACAD
1000
MS Gothic
1071
  32817
  0
ENDTAB
  0
TABLE
  2
VIEW
  5
5
100
AcDbSymbolTable
 70
     0
  0
ENDTAB
  0
TABLE
  2
UCS
  5
6
100
AcDbSymbolTable
 70
     0
  0
ENDTAB
  0
TABLE
  2
APPID
  5
7
100
AcDbSymbolTable
 70
     1
  0
APPID
  5
13D
100
AcDbSymbolTableRecord
100
AcDbRegAppTableRecord
  2
ACAD
 70
     0
  0
ENDTAB
  0
TABLE
  2
DIMSTYLE
  5
8
100
AcDbSymbolTable
 70
     1
  0
DIMSTYLE
105
2A
100
AcDbSymbolTableRecord
100
AcDbDimStyleTableRecord
  2
STANDARD
 70
     0
  3

  4

  5

  6

  7

 40
1.0
 41
2.5
 42
2.0
 43
7.0
 44
1.25
 45
0.0
 46
0.0
 47
0.0
 48
0.0
 71
     0
 72
     0
 73
     0
 74
     0
 75
     0
 76
     0
 77
     1
 78
     0
140
2.5
141
2.5
142
0.0
143
0.0394
144
1.0
145
0.0
146
1.0
147
1.0
170
     0
171
     2
172
     0
173
     0
174
     1
175
     0
176
     0
177
     0
178
     0
270
     2
271
     2
272
     4
273
     2
274
     2
275
     0
280
     0
281
     0
282
     0
283
     1
284
     0
285
     0
286
     0
287
     3
288
     0
  0
ENDTAB
  0
TABLE
  2
BLOCK_RECORD
  5
9
100
AcDbSymbolTable
 70
     0
  0
BLOCK_RECORD
  5
13E
100
AcDbSymbolTableRecord
100
AcDbBlockTableRecord
  2
*MODEL_SPACE
  0
BLOCK_RECORD
  5
13F
100
AcDbSymbolTableRecord
100
AcDbBlockTableRecord
  2
*PAPER_SPACE
  0
BLOCK_RECORD
  5
140
100
AcDbSymbolTableRecord
100
AcDbBlockTableRecord
  2
13462_KCAD_FINI-2
  0
BLOCK_RECORD
  5
141
100
AcDbSymbolTableRecord
100
AcDbBlockTableRecord
  2
MTEXT-3
  0
BLOCK_RECORD
  5
142
100
AcDbSymbolTableRecord
100
AcDbBlockTableRecord
  2
MTEXT-4
  0
BLOCK_RECORD
  5
143
100
AcDbSymbolTableRecord
100
AcDbBlockTableRecord
  2
DIM-5
  0
BLOCK_RECORD
  5
144
100
AcDbSymbolTableRecord
100
AcDbBlockTableRecord
  2
DIM-6
  0
BLOCK_RECORD
  5
145
100
AcDbSymbolTableRecord
100
AcDbBlockTableRecord
  2
DIM-7
  0
BLOCK_RECORD
  5
146
100
AcDbSymbolTableRecord
100
AcDbBlockTableRecord
  2
DIM-10
  0
ENDTAB
  0
ENDSEC
  0
SECTION
  2
BLOCKS
  0
BLOCK
  5
148
100
AcDbEntity
  8
0
100
AcDbBlockBegin
2
*MODEL_SPACE
 70
     0
 10
0.0
 20
0.0
 30
0.0
  3
*MODEL_SPACE
  1

  0
ENDBLK
  5
149
100
AcDbEntity
  8
画層0
100
AcDbBlockEnd
  0
BLOCK
  5
14A
100
AcDbEntity
 67
     1
  8
画層0
100
AcDbBlockBegin
  2
*PAPER_SPACE
 70
     0
 10
0.0
 20
0.0
 30
0.0
  3
*PAPER_SPACE
  1

  0
ENDBLK
  5
14B
100
AcDbEntity
 67
     1
  8
画層0
100
AcDbBlockEnd
  0
BLOCK
  5
14C
100
AcDbEntity
  8
画層0
100
AcDbBlockBegin
  2
13462_KCAD_FINI-2
 70
    0
 10
0
 20
0
 30
0.0
  3
13462_KCAD_FINI-2
  1

  0
LINE
  5
14D
100
AcDbEntity
  8
画層1
100
AcDbLine
  6
BYLAYER
 62
134
 10
366.567794
 20
-100.225767
 11
368.415315
 21
-97.025767
  0
LINE
  5
14E
100
AcDbEntity
  8
画層1
100
AcDbLine
  6
BYLAYER
 62
134
 10
368.415315
 20
-97.025767
 11
364.720273
 21
-97.025767
  0
LINE
  5
14F
100
AcDbEntity
  8
画層1
100
AcDbLine
  6
BYLAYER
 62
134
 10
364.720273
 20
-97.025767
 11
366.567794
 21
-100.225767
  0
LINE
  5
150
100
AcDbEntity
  8
画層1
100
AcDbLine
  6
BYLAYER
 62
134
 10
370.262836
 20
-100.225767
 11
372.110357
 21
-97.025767
  0
LINE
  5
151
100
AcDbEntity
  8
画層1
100
AcDbLine
  6
BYLAYER
 62
134
 10
372.110357
 20
-97.025767
 11
368.415315
 21
-97.025767
  0
LINE
  5
152
100
AcDbEntity
  8
画層1
100
AcDbLine
  6
BYLAYER
 62
134
 10
368.415315
 20
-97.025767
 11
370.262836
 21
-100.225767
  0
LINE
  5
153
100
AcDbEntity
  8
画層1
100
AcDbLine
  6
BYLAYER
 62
134
 10
373.957878
 20
-100.225767
 11
375.805398
 21
-97.025767
  0
LINE
  5
154
100
AcDbEntity
  8
画層1
100
AcDbLine
  6
BYLAYER
 62
134
 10
375.805398
 20
-97.025767
 11
372.110357
 21
-97.025767
  0
LINE
  5
155
100
AcDbEntity
  8
画層1
100
AcDbLine
  6
BYLAYER
 62
134
 10
372.110357
 20
-97.025767
 11
373.957878
 21
-100.225767
  0
ENDBLK
  5
156
100
AcDbEntity
  8
画層0
 67
     1
100
AcDbBlockEnd
  0
BLOCK
  5
157
100
AcDbEntity
  8
画層0
100
AcDbBlockBegin
  2
MTEXT-3
 70
    0
 10
0
 20
0
 30
0.0
  3
MTEXT-3
  1

  0
TEXT
  5
158
100
AcDbEntity
  8
画層1
 62
134
100
AcDbText
  6
BYLAYER
 62
134
 10
326.243426
 20
10.718725
 40
3.2
  1
Φ
  7
Font_0
100
AcDbText
  0
TEXT
  5
159
100
AcDbEntity
  8
画層1
 62
134
100
AcDbText
  6
BYLAYER
 62
134
 10
329.443426
 20
10.718725
 40
3.2
  1
8ライトガイド用
  7
Font_0
100
AcDbText
  0
ENDBLK
  5
15A
100
AcDbEntity
  8
画層0
 67
     1
100
AcDbBlockEnd
  0
BLOCK
  5
15B
100
AcDbEntity
  8
画層0
100
AcDbBlockBegin
  2
MTEXT-4
 70
    0
 10
0
 20
0
 30
0.0
  3
MTEXT-4
  1

  0
TEXT
  5
15C
100
AcDbEntity
  8
画層1
 62
134
100
AcDbText
  6
BYLAYER
 62
134
 10
394.875057
 20
32.205851
 40
3.2
  1
Φ
  7
Font_0
100
AcDbText
  0
TEXT
  5
15D
100
AcDbEntity
  8
画層1
 62
134
100
AcDbText
  6
BYLAYER
 62
134
 10
398.075057
 20
32.205851
 40
3.2
  1
12ライトガイド用
  7
Font_0
100
AcDbText
  0
ENDBLK
  5
15E
100
AcDbEntity
  8
画層0
 67
     1
100
AcDbBlockEnd
  0
BLOCK
  5
15F
100
AcDbEntity
  8
画層0
100
AcDbBlockBegin
  2
DIM-5
 70
    0
 10
0
 20
0
 30
0.0
  3
DIM-5
  1

  0
CIRCLE
  5
160
100
AcDbEntity
  8
画層1
100
AcDbCircle
  6
BYLAYER
 62
134
 10
315.545505
 20
1.273356
 40
0.375419999999993
  0
LINE
  5
161
100
AcDbEntity
  8
画層1
100
AcDbLine
  6
BYLAYER
 62
134
 10
315.545399
 20
1.27325
 11
317.666719
 21
3.39457
  0
LINE
  5
162
100
AcDbEntity
  8
画層1
100
AcDbLine
  6
BYLAYER
 62
134
 10
317.666719
 20
3.39457
 11
324.590874
 21
10.318725
  0
ENDBLK
  5
163
100
AcDbEntity
  8
画層0
 67
     1
100
AcDbBlockEnd
  0
BLOCK
  5
164
100
AcDbEntity
  8
画層0
100
AcDbBlockBegin
  2
DIM-6
 70
    0
 10
0
 20
0
 30
0.0
  3
DIM-6
  1

  0
CIRCLE
  5
165
100
AcDbEntity
  8
画層1
100
AcDbCircle
  6
BYLAYER
 62
134
 10
422.737546
 20
9.24074
 40
0.375419999999993
  0
LINE
  5
166
100
AcDbEntity
  8
画層1
100
AcDbLine
  6
BYLAYER
 62
134
 10
422.737491
 20
9.240601
 11
423.84057
 21
12.030443
  0
LINE
  5
167
100
AcDbEntity
  8
画層1
100
AcDbLine
  6
BYLAYER
 62
134
 10
423.84057
 20
12.030443
 11
431.65959
 21
31.805851
  0
ENDBLK
  5
168
100
AcDbEntity
  8
画層0
 67
     1
100
AcDbBlockEnd
  0
BLOCK
  5
169
100
AcDbEntity
  8
画層0
100
AcDbBlockBegin
  2
DIM-7
 70
    0
 10
0
 20
0
 30
0.0
  3
DIM-7
  1

  0
LINE
  5
16A
100
AcDbEntity
  8
画層2
100
AcDbLine
  6
BYLAYER
 62
134
 10
355.920734
 20
-51.595401
 11
355.920734
 21
-31.359399
  0
LINE
  5
16B
100
AcDbEntity
  8
画層2
100
AcDbLine
  6
BYLAYER
 62
134
 10
351.920734
 20
-50.595401
 11
349.920734
 21
-50.595401
  0
LINE
  5
16C
100
AcDbEntity
  8
画層2
100
AcDbLine
  6
BYLAYER
 62
134
 10
358.920734
 20
-51.399248
 11
355.920734
 21
-50.595401
  0
LINE
  5
16D
100
AcDbEntity
  8
画層2
100
AcDbLine
  6
BYLAYER
 62
134
 10
355.920734
 20
-50.595401
 11
358.920734
 21
-49.791554
  0
LINE
  5
16E
100
AcDbEntity
  8
画層2
100
AcDbLine
  6
BYLAYER
 62
134
 10
355.920734
 20
-50.595401
 11
358.920734
 21
-50.595401
  0
LINE
  5
16F
100
AcDbEntity
  8
画層2
100
AcDbLine
  6
BYLAYER
 62
134
 10
351.920734
 20
-50.595401
 11
355.920734
 21
-50.595401
  0
LINE
  5
170
100
AcDbEntity
  8
画層2
100
AcDbLine
  6
BYLAYER
 62
134
 10
349.920734
 20
-50.595401
 11
347.920734
 21
-50.595401
  0
LINE
  5
171
100
AcDbEntity
  8
画層2
100
AcDbLine
  6
BYLAYER
 62
134
 10
358.920734
 20
-50.595401
 11
362.587367
 21
-50.595401
  0
TEXT
  5
172
100
AcDbEntity
  8
画層2
 62
134
100
AcDbText
  6
BYLAYER
 62
134
 10
359.920701
 20
-50.062101
 40
3.2
  1
4
  7
Font_0
100
AcDbText
  0
ENDBLK
  5
173
100
AcDbEntity
  8
画層0
 67
     1
100
AcDbBlockEnd
  0
BLOCK
  5
174
100
AcDbEntity
  8
画層0
100
AcDbBlockBegin
  2
DIM-10
 70
    0
 10
0
 20
0
 30
0.0
  3
DIM-10
  1

  0
LINE
  5
175
100
AcDbEntity
  8
画層5
100
AcDbLine
  6
BYLAYER
 10
296.762836
 20
-116.178401
 11
302.438138
 21
-116.178401
  0
LINE
  5
176
100
AcDbEntity
  8
画層5
100
AcDbLine
  6
BYLAYER
 10
308.10634
 20
-116.178401
 11
309.162006
 21
-116.178401
  0
LINE
  5
177
100
AcDbEntity
  8
画層5
100
AcDbLine
  6
BYLAYER
 10
313.987664
 20
-116.178401
 11
315.042743
 21
-116.178401
  0
LINE
  5
178
100
AcDbEntity
  8
画層5
100
AcDbLine
  6
BYLAYER
 10
298.988528
 20
-118.438844
 11
300.176879
 21
-118.438844
  0
LINE
  5
179
100
AcDbEntity
  8
画層5
100
AcDbLine
  6
BYLAYER
 10
302.213314
 20
-118.438844
 11
303.185211
 21
-118.438844
  0
LINE
  5
17A
100
AcDbEntity
  8
画層5
100
AcDbLine
  6
BYLAYER
 10
306.446573
 20
-118.438844
 11
307.560892
 21
-118.438844
  0
LINE
  5
17B
100
AcDbEntity
  8
画層5
100
AcDbLine
  6
BYLAYER
 10
308.10634
 20
-118.438844
 11
310.780061
 21
-118.438844
  0
LINE
  5
17C
100
AcDbEntity
  8
画層5
100
AcDbLine
  6
BYLAYER
 10
313.987664
 20
-118.438844
 11
315.042743
 21
-118.438844
  0
LINE
  5
17D
100
AcDbEntity
  8
画層5
100
AcDbLine
  6
BYLAYER
 10
315.659385
 20
-118.438844
 11
316.719266
 21
-118.438844
  0
LINE
  5
17E
100
AcDbEntity
  8
画層5
100
AcDbLine
  6
BYLAYER
 10
319.778465
 20
-118.438844
 11
320.838345
 21
-118.438844
  0
LINE
  5
17F
100
AcDbEntity
  8
画層5
100
AcDbLine
  6
BYLAYER
 10
321.569425
 20
-118.438844
 11
326.762847
 21
-118.438844
  0
ENDBLK
  5
180
100
AcDbEntity
  8
画層0
 67
     1
100
AcDbBlockEnd
  0
ENDSEC
  0
SECTION
  2
ENTITIES
  0
INSERT
  5
181
100
AcDbEntity
  8
画層1
100
AcDbBlockReference
  6
BYBLOCK
 62
7
  2
13462_KCAD_FINI-2
 10
-164.262836
 20
126.823775674816
 30
0.0
  0
INSERT
  5
182
100
AcDbEntity
  8
画層2
100
AcDbBlockReference
  6
BYBLOCK
 62
7
  2
DIM-7
 10
-164.262836
 20
126.823775674816
 30
0.0
  0
INSERT
  5
183
100
AcDbEntity
  8
画層5
100
AcDbBlockReference
  6
BYBLOCK
 62
7
  2
DIM-10
 10
-164.262836
 20
126.823775674816
 30
0.0
  0
LINE
  5
184
100
AcDbEntity
  8
画層2
100
AcDbLine
  6
BYLAYER
 62
7
 10
29.107898
 20
104.795549674816
 11
29.107898
 21
75.2283746748159
  0
LINE
  5
185
100
AcDbEntity
  8
画層2
100
AcDbLine
  6
BYLAYER
 62
7
 10
105.107898
 20
99.8643766748159
 11
105.107898
 21
75.2283746748159
  0
LINE
  5
186
100
AcDbEntity
  8
画層2
100
AcDbLine
  6
BYLAYER
 62
7
 10
29.107898
 20
76.2283746748159
 11
105.107898
 21
76.2283746748159
  0
LWPOLYLINE
  5
187
100
AcDbEntity
  8
画層2
 62
7
100
AcDbPolyline
  6
BYLAYER
 90
     3
 10
32.107898
  20
75.4245276748159
 10
29.107898
  20
76.2283746748159
 10
32.107898
  20
77.0322216748159
  0
LWPOLYLINE
  5
188
100
AcDbEntity
  8
画層2
 62
7
100
AcDbPolyline
  6
BYLAYER
 90
     3
 10
102.107898
  20
77.0322216748159
 10
105.107898
  20
76.2283746748159
 10
102.107898
  20
75.4245276748159
  0
TEXT
  5
189
100
AcDbEntity
  8
画層2
 62
7
100
AcDbText
  6
BYLAYER
 62
7
 10
55.106832
 20
77.5616746748159
 40
3.2
 41
0.642361
  1
Ｗ．Ｄ．＝１１０
  7
Font_0
100
AcDbText
  0
TEXT
  5
18A
100
AcDbEntity
  8
画層2
 62
7
100
AcDbText
  6
BYLAYER
 62
7
 10
74.840164
 20
78.0944746748159
 40
2.1344
 41
0.909091
  1
±２
  7
Font_0
100
AcDbText
  0
LINE
  5
18B
100
AcDbEntity
  8
画層2
100
AcDbLine
  6
BYLAYER
 62
7
 10
187.657898
 20
92.3643766748159
 11
187.657898
 21
75.2283746748159
  0
LINE
  5
18C
100
AcDbEntity
  8
画層2
100
AcDbLine
  6
BYLAYER
 62
7
 10
105.107898
 20
76.2283746748159
 11
187.657898
 21
76.2283746748159
  0
LWPOLYLINE
  5
18D
100
AcDbEntity
  8
画層2
 62
7
100
AcDbPolyline
  6
BYLAYER
 90
     3
 10
108.107898
  20
75.4245276748159
 10
105.107898
  20
76.2283746748159
 10
108.107898
  20
77.0322216748159
  0
LWPOLYLINE
  5
18E
100
AcDbEntity
  8
画層2
 62
7
100
AcDbPolyline
  6
BYLAYER
 90
     3
 10
184.657898
  20
77.0322216748159
 10
187.657898
  20
76.2283746748159
 10
184.657898
  20
75.4245276748159
  0
TEXT
  5
18F
100
AcDbEntity
  8
画層2
 62
7
100
AcDbText
  6
BYLAYER
 62
7
 10
139.449565
 20
77.5616746748159
 40
3.2
 41
0.722222
  1
８２．５５
  7
Font_0
100
AcDbText
  0
LINE
  5
190
100
AcDbEntity
  8
画層2
100
AcDbLine
  6
BYLAYER
 62
7
 10
145.757898
 20
94.9297696748159
 11
145.757898
 21
80.9246856748159
  0
LINE
  5
191
100
AcDbEntity
  8
画層2
100
AcDbLine
  6
BYLAYER
 62
7
 10
105.107898
 20
99.8643766748159
 11
105.107898
 21
80.9246856748159
  0
LINE
  5
192
100
AcDbEntity
  8
画層2
100
AcDbLine
  6
BYLAYER
 62
7
 10
145.757898
 20
81.9246856748159
 11
105.107898
 21
81.9246856748159
  0
LWPOLYLINE
  5
193
100
AcDbEntity
  8
画層2
 62
7
100
AcDbPolyline
  6
BYLAYER
 90
     3
 10
142.757898
  20
82.7285326748159
 10
145.757898
  20
81.9246856748159
 10
142.757898
  20
81.1208386748159
  0
LWPOLYLINE
  5
194
100
AcDbEntity
  8
画層2
 62
7
100
AcDbPolyline
  6
BYLAYER
 90
     3
 10
108.107898
  20
81.1208386748159
 10
105.107898
  20
81.9246856748159
 10
108.107898
  20
82.7285326748159
  0
TEXT
  5
195
100
AcDbEntity
  8
画層2
 62
7
100
AcDbText
  6
BYLAYER
 62
7
 10
118.766232
 20
83.2579856748159
 40
3.2
 41
0.694444
  1
４０．６５
  7
Font_0
100
AcDbText
  0
LINE
  5
196
100
AcDbEntity
  8
画層2
100
AcDbLine
  6
BYLAYER
 62
7
 10
104.407898
 20
116.564376674816
 11
96.309388
 21
116.564376674816
  0
LINE
  5
197
100
AcDbEntity
  8
画層2
100
AcDbLine
  6
BYLAYER
 62
7
 10
104.407898
 20
100.564376674816
 11
96.309388
 21
100.564376674816
  0
LINE
  5
198
100
AcDbEntity
  8
画層2
100
AcDbLine
  6
BYLAYER
 62
7
 10
97.309388
 20
116.564376674816
 11
97.309388
 21
100.564376674816
  0
LWPOLYLINE
  5
199
100
AcDbEntity
  8
画層2
 62
7
100
AcDbPolyline
  6
BYLAYER
 90
     3
 10
96.505541
  20
113.564376674816
 10
97.309388
  20
116.564376674816
 10
98.113235
  20
113.564376674816
  0
LWPOLYLINE
  5
19A
100
AcDbEntity
  8
画層2
 62
7
100
AcDbPolyline
  6
BYLAYER
 90
     3
 10
98.113235
  20
103.564376674816
 10
97.309388
  20
100.564376674816
 10
96.505541
  20
103.564376674816
  0
TEXT
  5
19B
100
AcDbEntity
  8
画層2
 62
7
100
AcDbText
  6
BYLAYER
 62
7
 10
95.976088
 20
104.297709674816
 40
3.2
 41
0.784314
  1
Φ１６
  7
Font_0
 50
90.000003
100
AcDbText
  0
LINE
  5
19C
100
AcDbEntity
  8
画層2
100
AcDbLine
  6
BYLAYER
 62
7
 10
188.357898
 20
93.0643766748159
 11
211.974527
 21
93.0643766748159
  0
LINE
  5
19D
100
AcDbEntity
  8
画層2
100
AcDbLine
  6
BYLAYER
 62
7
 10
188.357898
 20
124.064376674816
 11
211.974527
 21
124.064376674816
  0
LINE
  5
19E
100
AcDbEntity
  8
画層2
100
AcDbLine
  6
BYLAYER
 62
7
 10
210.974527
 20
93.0643766748159
 11
210.974527
 21
124.064376674816
  0
LWPOLYLINE
  5
19F
100
AcDbEntity
  8
画層2
 62
7
100
AcDbPolyline
  6
BYLAYER
 90
     3
 10
211.778374
  20
96.0643766748159
 10
210.974527
  20
93.0643766748159
 10
210.17068
  20
96.0643766748159
  0
LWPOLYLINE
  5
1A0
100
AcDbEntity
  8
画層2
 62
7
100
AcDbPolyline
  6
BYLAYER
 90
     3
 10
210.17068
  20
121.064376674816
 10
210.974527
  20
124.064376674816
 10
211.778374
  20
121.064376674816
  0
TEXT
  5
1A1
100
AcDbEntity
  8
画層2
 62
7
100
AcDbText
  6
BYLAYER
 62
7
 10
209.641227
 20
104.297709674816
 40
3.2
 41
0.784314
  1
Φ３１
  7
Font_0
 50
90.000003
100
AcDbText
  0
LINE
  5
1A2
100
AcDbEntity
  8
画層2
100
AcDbLine
  6
BYLAYER
 62
7
 10
192.057898
 20
95.8643766748159
 11
205.989694
 21
95.8643766748159
  0
LINE
  5
1A3
100
AcDbEntity
  8
画層2
100
AcDbLine
  6
BYLAYER
 62
7
 10
192.057898
 20
121.264376674816
 11
205.989694
 21
121.264376674816
  0
LINE
  5
1A4
100
AcDbEntity
  8
画層2
100
AcDbLine
  6
BYLAYER
 62
7
 10
204.989694
 20
95.8643766748159
 11
204.989694
 21
121.264376674816
  0
LWPOLYLINE
  5
1A5
100
AcDbEntity
  8
画層2
 62
7
100
AcDbPolyline
  6
BYLAYER
 90
     3
 10
205.793541
  20
98.8643766748159
 10
204.989694
  20
95.8643766748159
 10
204.185847
  20
98.8643766748159
  0
LWPOLYLINE
  5
1A6
100
AcDbEntity
  8
画層2
 62
7
100
AcDbPolyline
  6
BYLAYER
 90
     3
 10
204.185847
  20
118.264376674816
 10
204.989694
  20
121.264376674816
 10
205.793541
  20
118.264376674816
  0
TEXT
  5
1A7
100
AcDbEntity
  8
画層2
 62
7
100
AcDbText
  6
BYLAYER
 62
7
 10
203.656394
 20
98.9643766748159
 40
3.2
  1
Ｃマウント
  7
Font_0
 50
90.000003
100
AcDbText
  0
LINE
  5
1A8
100
AcDbEntity
  8
画層2
100
AcDbLine
  6
BYLAYER
 62
7
 10
153.757898
 20
98.8643766748159
 11
153.757898
 21
80.9246856748159
  0
LINE
  5
1A9
100
AcDbEntity
  8
画層2
100
AcDbLine
  6
BYLAYER
 62
7
 10
145.757898
 20
94.9297696748159
 11
145.757898
 21
80.9246856748159
  0
LINE
  5
1AA
100
AcDbEntity
  8
画層2
100
AcDbLine
  6
BYLAYER
 62
7
 10
153.757898
 20
81.9246856748159
 11
145.757898
 21
81.9246856748159
  0
LWPOLYLINE
  5
1AB
100
AcDbEntity
  8
画層2
 62
7
100
AcDbPolyline
  6
BYLAYER
 90
     3
 10
142.757898
  20
82.7285326748159
 10
145.757898
  20
81.9246856748159
 10
142.757898
  20
81.1208386748159
  0
TEXT
  5
1AC
100
AcDbEntity
  8
画層2
 62
7
100
AcDbText
  6
BYLAYER
 62
7
 10
148.429432
 20
83.2579856748159
 40
3.2
 41
0.833333
  1
８
  7
Font_0
100
AcDbText
  0
LINE
  5
1AD
100
AcDbEntity
  8
画層2
100
AcDbLine
  6
BYLAYER
 62
7
 10
153.757898
 20
81.9246856748159
 11
159.757898
 21
81.9246856748159
  0
LINE
  5
1AE
100
AcDbEntity
  8
画層2
100
AcDbLine
  6
BYLAYER
 62
7
 10
145.757898
 20
81.9246856748159
 11
141.757898
 21
81.9246856748159
  0
LINE
  5
1AF
100
AcDbEntity
  8
画層2
100
AcDbLine
  6
BYLAYER
 62
7
 10
181.157898
 20
92.5643766748159
 11
181.157898
 21
80.9246856748159
  0
LINE
  5
1B0
100
AcDbEntity
  8
画層2
100
AcDbLine
  6
BYLAYER
 62
7
 10
153.757898
 20
81.9246856748159
 11
181.157898
 21
81.9246856748159
  0
LWPOLYLINE
  5
1B1
100
AcDbEntity
  8
画層2
 62
7
100
AcDbPolyline
  6
BYLAYER
 90
     3
 10
156.757898
  20
81.1208386748159
 10
153.757898
  20
81.9246856748159
 10
156.757898
  20
82.7285326748159
  0
LWPOLYLINE
  5
1B2
100
AcDbEntity
  8
画層2
 62
7
100
AcDbPolyline
  6
BYLAYER
 90
     3
 10
178.157898
  20
82.7285326748159
 10
181.157898
  20
81.9246856748159
 10
178.157898
  20
81.1208386748159
  0
TEXT
  5
1B3
100
AcDbEntity
  8
画層2
 62
7
100
AcDbText
  6
BYLAYER
 62
7
 10
162.124565
 20
83.2579856748159
 40
3.2
 41
0.694444
  1
２７．４
  7
Font_0
100
AcDbText
  0
LINE
  5
1B4
100
AcDbEntity
  8
画層2
100
AcDbLine
  6
BYLAYER
 62
7
 10
141.757898
 20
132.064376674816
 11
141.757898
 21
138.089137674816
  0
LINE
  5
1B5
100
AcDbEntity
  8
画層2
100
AcDbLine
  6
BYLAYER
 62
7
 10
149.757898
 20
132.064376674816
 11
149.757898
 21
138.089137674816
  0
LINE
  5
1B6
100
AcDbEntity
  8
画層2
100
AcDbLine
  6
BYLAYER
 62
7
 10
141.757898
 20
137.089137674816
 11
149.757898
 21
137.089137674816
  0
LWPOLYLINE
  5
1B7
100
AcDbEntity
  8
画層2
 62
7
100
AcDbPolyline
  6
BYLAYER
 90
     3
 10
144.757898
  20
136.285290674816
 10
141.757898
  20
137.089137674816
 10
144.757898
  20
137.892984674816
  0
LWPOLYLINE
  5
1B8
100
AcDbEntity
  8
画層2
 62
7
100
AcDbPolyline
  6
BYLAYER
 90
     3
 10
146.757898
  20
137.892984674816
 10
149.757898
  20
137.089137674816
 10
146.757898
  20
136.285290674816
  0
TEXT
  5
1B9
100
AcDbEntity
  8
画層2
 62
7
100
AcDbText
  6
BYLAYER
 62
7
 10
142.557898
 20
138.422437674816
 40
3.2
 41
0.909091
  1
Φ８
  7
Font_0
100
AcDbText
  0
LINE
  5
1BA
100
AcDbEntity
  8
画層2
100
AcDbLine
  6
BYLAYER
 62
7
 10
138.757898
 20
131.564376674816
 11
138.757898
 21
144.022661674816
  0
LINE
  5
1BB
100
AcDbEntity
  8
画層2
100
AcDbLine
  6
BYLAYER
 62
7
 10
152.757898
 20
131.564376674816
 11
152.757898
 21
144.022661674816
  0
LINE
  5
1BC
100
AcDbEntity
  8
画層2
100
AcDbLine
  6
BYLAYER
 62
7
 10
138.757898
 20
143.022661674816
 11
152.757898
 21
143.022661674816
  0
LWPOLYLINE
  5
1BD
100
AcDbEntity
  8
画層2
 62
7
100
AcDbPolyline
  6
BYLAYER
 90
     3
 10
141.757898
  20
142.218814674816
 10
138.757898
  20
143.022661674816
 10
141.757898
  20
143.826508674816
  0
LWPOLYLINE
  5
1BE
100
AcDbEntity
  8
画層2
 62
7
100
AcDbPolyline
  6
BYLAYER
 90
     3
 10
149.757898
  20
143.826508674816
 10
152.757898
  20
143.022661674816
 10
149.757898
  20
142.218814674816
  0
TEXT
  5
1BF
100
AcDbEntity
  8
画層2
 62
7
100
AcDbText
  6
BYLAYER
 62
7
 10
141.491231
 20
144.355961674816
 40
3.2
 41
0.784314
  1
Φ１４
  7
Font_0
100
AcDbText
  0
LINE
  5
1C0
100
AcDbEntity
  8
画層2
100
AcDbLine
  6
BYLAYER
 62
7
 10
138.257898
 20
131.064376674816
 11
131.336524
 21
131.064376674816
  0
LINE
  5
1C1
100
AcDbEntity
  8
画層2
100
AcDbLine
  6
BYLAYER
 62
7
 10
136.657898
 20
116.564376674816
 11
131.336524
 21
116.564376674816
  0
LINE
  5
1C2
100
AcDbEntity
  8
画層2
100
AcDbLine
  6
BYLAYER
 62
7
 10
132.336524
 20
131.064376674816
 11
132.336524
 21
116.564376674816
  0
LWPOLYLINE
  5
1C3
100
AcDbEntity
  8
画層2
 62
7
100
AcDbPolyline
  6
BYLAYER
 90
     3
 10
131.532677
  20
128.064376674816
 10
132.336524
  20
131.064376674816
 10
133.140371
  20
128.064376674816
  0
LWPOLYLINE
  5
1C4
100
AcDbEntity
  8
画層2
 62
7
100
AcDbPolyline
  6
BYLAYER
 90
     3
 10
133.140371
  20
119.564376674816
 10
132.336524
  20
116.564376674816
 10
131.532677
  20
119.564376674816
  0
TEXT
  5
1C5
100
AcDbEntity
  8
画層2
 62
7
100
AcDbText
  6
BYLAYER
 62
7
 10
131.003224
 20
119.014376674816
 40
3.2
 41
0.625
  1
１４．５
  7
Font_0
 50
90.000003
100
AcDbText
  0
LINE
  5
1C6
100
AcDbEntity
  8
画層2
100
AcDbLine
  6
BYLAYER
 62
7
 10
239.689212873886
 20
139.064376674816
 11
235.458413873886
 21
139.064376674816
  0
LINE
  5
1C7
100
AcDbEntity
  8
画層2
100
AcDbLine
  6
BYLAYER
 62
7
 10
240.189212873886
 20
116.564376674816
 11
235.458413873886
 21
116.564376674816
  0
LINE
  5
1C8
100
AcDbEntity
  8
画層2
100
AcDbLine
  6
BYLAYER
 62
7
 10
236.458413873886
 20
139.064376674816
 11
236.458413873886
 21
116.564376674816
  0
LWPOLYLINE
  5
1C9
100
AcDbEntity
  8
画層2
 62
7
100
AcDbPolyline
  6
BYLAYER
 90
     3
 10
235.654566873886
  20
136.064376674816
 10
236.458413873886
  20
139.064376674816
 10
237.262260873886
  20
136.064376674816
  0
LWPOLYLINE
  5
1CA
100
AcDbEntity
  8
画層2
 62
7
100
AcDbPolyline
  6
BYLAYER
 90
     3
 10
237.262260873886
  20
119.564376674816
 10
236.458413873886
  20
116.564376674816
 10
235.654566873886
  20
119.564376674816
  0
TEXT
  5
1CB
100
AcDbEntity
  8
画層2
 62
7
100
AcDbText
  6
BYLAYER
 62
7
 10
235.125113873886
 20
122.481043674816
 40
3.2
 41
0.694444
  1
２２．５
  7
Font_0
 50
90.000003
100
AcDbText
  0
LINE
  5
1CC
100
AcDbEntity
  8
画層2
100
AcDbLine
  6
BYLAYER
 62
7
 10
240.189212873886
 20
139.564376674816
 11
240.189212873886
 21
151.528083674816
  0
LINE
  5
1CD
100
AcDbEntity
  8
画層2
100
AcDbLine
  6
BYLAYER
 62
7
 10
258.189212873886
 20
139.564376674816
 11
258.189212873886
 21
151.528083674816
  0
LINE
  5
1CE
100
AcDbEntity
  8
画層2
100
AcDbLine
  6
BYLAYER
 62
7
 10
240.189212873886
 20
150.528083674816
 11
258.189212873886
 21
150.528083674816
  0
LWPOLYLINE
  5
1CF
100
AcDbEntity
  8
画層2
 62
7
100
AcDbPolyline
  6
BYLAYER
 90
     3
 10
243.189212873886
  20
149.724236674816
 10
240.189212873886
  20
150.528083674816
 10
243.189212873886
  20
151.331930674816
  0
LWPOLYLINE
  5
1D0
100
AcDbEntity
  8
画層2
 62
7
100
AcDbPolyline
  6
BYLAYER
 90
     3
 10
255.189212873886
  20
151.331930674816
 10
258.189212873886
  20
150.528083674816
 10
255.189212873886
  20
149.724236674816
  0
TEXT
  5
1D1
100
AcDbEntity
  8
画層2
 62
7
100
AcDbText
  6
BYLAYER
 62
7
 10
244.922545873886
 20
151.861383674816
 40
3.2
 41
0.784314
  1
Φ１８
  7
Font_0
100
AcDbText
  0
LINE
  5
1D2
100
AcDbEntity
  8
画層2
100
AcDbLine
  6
BYLAYER
 62
7
 10
243.189212873886
 20
140.064376674816
 11
243.189212873886
 21
146.287160674816
  0
LINE
  5
1D3
100
AcDbEntity
  8
画層2
100
AcDbLine
  6
BYLAYER
 62
7
 10
255.189212873886
 20
140.064376674816
 11
255.189212873886
 21
146.287160674816
  0
LINE
  5
1D4
100
AcDbEntity
  8
画層2
100
AcDbLine
  6
BYLAYER
 62
7
 10
243.189212873886
 20
145.287160674816
 11
255.189212873886
 21
145.287160674816
  0
LWPOLYLINE
  5
1D5
100
AcDbEntity
  8
画層2
 62
7
100
AcDbPolyline
  6
BYLAYER
 90
     3
 10
246.189212873886
  20
144.483313674816
 10
243.189212873886
  20
145.287160674816
 10
246.189212873886
  20
146.091007674816
  0
LWPOLYLINE
  5
1D6
100
AcDbEntity
  8
画層2
 62
7
100
AcDbPolyline
  6
BYLAYER
 90
     3
 10
252.189212873886
  20
146.091007674816
 10
255.189212873886
  20
145.287160674816
 10
252.189212873886
  20
144.483313674816
  0
TEXT
  5
1D7
100
AcDbEntity
  8
画層2
 62
7
100
AcDbText
  6
BYLAYER
 62
7
 10
244.922545873886
 20
146.620460674816
 40
3.2
 41
0.784314
  1
Φ１２
  7
Font_0
100
AcDbText
  0
LINE
  5
1D8
100
AcDbEntity
  8
画層1
100
AcDbLine
  6
CENTER
 62
7
 10
98.251985
 20
108.564376674816
 11
200.264998
 21
108.564376674816
  0
LINE
  5
1D9
100
AcDbEntity
  8
画層1
100
AcDbLine
  6
BYLAYER
 62
7
 10
29.107898
 20
105.795549674816
 11
29.107898
 21
111.333203674816
  0
LINE
  5
1DA
100
AcDbEntity
  8
画層1
100
AcDbLine
  6
BYLAYER
 62
7
 10
137.757898
 20
99.8643766748159
 11
138.057898
 21
99.5643766748159
  0
LINE
  5
1DB
100
AcDbEntity
  8
画層1
100
AcDbLine
  6
BYLAYER
 62
7
 10
153.757898
 20
99.8643766748159
 11
153.457898
 21
99.5643766748159
  0
LINE
  5
1DC
100
AcDbEntity
  8
画層1
100
AcDbLine
  6
BYLAYER
 62
7
 10
105.107898
 20
100.864376674816
 11
105.407898
 21
100.564376674816
  0
LINE
  5
1DD
100
AcDbEntity
  8
画層1
100
AcDbLine
  6
BYLAYER
 62
7
 10
137.757898
 20
100.627122674816
 11
153.757898
 21
100.627122674816
  0
LINE
  5
1DE
100
AcDbEntity
  8
画層1
100
AcDbLine
  6
BYLAYER
 62
7
 10
153.457898
 20
99.5643766748159
 11
138.057898
 21
99.5643766748159
  0
LINE
  5
1DF
100
AcDbEntity
  8
画層1
100
AcDbLine
  6
BYLAYER
 62
7
 10
153.757898
 20
100.564376674816
 11
168.357898
 21
100.564376674816
  0
LINE
  5
1E0
100
AcDbEntity
  8
画層1
100
AcDbLine
  6
BYLAYER
 62
7
 10
137.757898
 20
100.564376674816
 11
105.407898
 21
100.564376674816
  0
LINE
  5
1E1
100
AcDbEntity
  8
画層1
100
AcDbLine
  6
BYLAYER
 62
7
 10
161.157898
 20
100.564376674816
 11
181.157898
 21
100.564376674816
  0
LINE
  5
1E2
100
AcDbEntity
  8
画層1
100
AcDbLine
  6
BYLAYER
 62
7
 10
191.657898
 20
96.4643766748159
 11
191.657898
 21
120.664376674816
  0
LINE
  5
1E3
100
AcDbEntity
  8
画層1
100
AcDbLine
  6
BYLAYER
 62
7
 10
181.657898
 20
93.0643766748159
 11
181.157898
 21
93.5643766748159
  0
LINE
  5
1E4
100
AcDbEntity
  8
画層1
100
AcDbLine
  6
BYLAYER
 62
7
 10
187.657898
 20
93.3643766748159
 11
187.357898
 21
93.0643766748159
  0
LINE
  5
1E5
100
AcDbEntity
  8
画層1
100
AcDbLine
  6
BYLAYER
 62
7
 10
187.357898
 20
93.0643766748159
 11
181.657898
 21
93.0643766748159
  0
LINE
  5
1E6
100
AcDbEntity
  8
画層1
100
AcDbLine
  6
BYLAYER
 62
7
 10
191.057898
 20
95.8643766748159
 11
191.657898
 21
96.4643766748159
  0
LINE
  5
1E7
100
AcDbEntity
  8
画層1
100
AcDbLine
  6
BYLAYER
 62
7
 10
191.057898
 20
95.8643766748159
 11
188.657898
 21
95.8643766748159
  0
LINE
  5
1E8
100
AcDbEntity
  8
画層1
100
AcDbLine
  6
BYLAYER
 62
7
 10
187.657898
 20
96.3143766748159
 11
191.507898
 21
96.3143766748159
  0
LINE
  5
1E9
100
AcDbEntity
  8
画層1
100
AcDbLine
  6
BYLAYER
 62
7
 10
105.107898
 20
116.264376674816
 11
105.107898
 21
100.864376674816
  0
LINE
  5
1EA
100
AcDbEntity
  8
画層1
100
AcDbLine
  6
BYLAYER
 62
7
 10
188.657898
 20
121.264376674816
 11
188.657898
 21
95.8643766748159
  0
LINE
  5
1EB
100
AcDbEntity
  8
画層1
100
AcDbLine
  6
BYLAYER
 62
7
 10
105.407898
 20
116.564376674816
 11
105.407898
 21
100.564376674816
  0
LINE
  5
1EC
100
AcDbEntity
  8
画層1
100
AcDbLine
  6
BYLAYER
 62
7
 10
187.657898
 20
123.764376674816
 11
187.657898
 21
93.3643766748159
  0
LINE
  5
1ED
100
AcDbEntity
  8
画層1
100
AcDbLine
  6
BYLAYER
 62
7
 10
181.157898
 20
123.564376674816
 11
181.157898
 21
93.5643766748159
  0
LINE
  5
1EE
100
AcDbEntity
  8
画層1
100
AcDbLine
  6
BYLAYER
 62
7
 10
187.657898
 20
120.814376674816
 11
191.507898
 21
120.814376674816
  0
LINE
  5
1EF
100
AcDbEntity
  8
画層1
100
AcDbLine
  6
BYLAYER
 62
7
 10
191.057898
 20
121.264376674816
 11
188.657898
 21
121.264376674816
  0
LINE
  5
1F0
100
AcDbEntity
  8
画層1
100
AcDbLine
  6
BYLAYER
 62
7
 10
191.057898
 20
121.264376674816
 11
191.657898
 21
120.664376674816
  0
LINE
  5
1F1
100
AcDbEntity
  8
画層1
100
AcDbLine
  6
BYLAYER
 62
7
 10
191.057898
 20
121.264376674816
 11
191.057898
 21
95.8643766748159
  0
LINE
  5
1F2
100
AcDbEntity
  8
画層1
100
AcDbLine
  6
BYLAYER
 62
7
 10
187.357898
 20
124.064376674816
 11
181.657898
 21
124.064376674816
  0
LINE
  5
1F3
100
AcDbEntity
  8
画層1
100
AcDbLine
  6
BYLAYER
 62
7
 10
187.657898
 20
123.764376674816
 11
187.357898
 21
124.064376674816
  0
LINE
  5
1F4
100
AcDbEntity
  8
画層1
100
AcDbLine
  6
BYLAYER
 62
7
 10
181.657898
 20
124.064376674816
 11
181.157898
 21
123.564376674816
  0
LINE
  5
1F5
100
AcDbEntity
  8
画層1
100
AcDbLine
  6
BYLAYER
 62
7
 10
181.657898
 20
124.064376674816
 11
181.657898
 21
93.0643766748159
  0
LINE
  5
1F6
100
AcDbEntity
  8
画層1
100
AcDbLine
  6
BYLAYER
 62
7
 10
187.357898
 20
124.064376674816
 11
187.357898
 21
93.0643766748159
  0
LINE
  5
1F7
100
AcDbEntity
  8
画層1
100
AcDbLine
  6
BYLAYER
 62
7
 10
161.157898
 20
116.564376674816
 11
181.157898
 21
116.564376674816
  0
LINE
  5
1F8
100
AcDbEntity
  8
画層1
100
AcDbLine
  6
BYLAYER
 62
7
 10
105.407898
 20
116.564376674816
 11
168.357898
 21
116.564376674816
  0
LINE
  5
1F9
100
AcDbEntity
  8
画層1
100
AcDbLine
  6
BYLAYER
 62
7
 10
105.107898
 20
116.264376674816
 11
105.407898
 21
116.564376674816
  0
LINE
  5
1FA
100
AcDbEntity
  8
画層1
100
AcDbLine
  6
BYLAYER
 62
7
 10
137.757898
 20
99.8643766748159
 11
137.757898
 21
118.264376674816
  0
LINE
  5
1FB
100
AcDbEntity
  8
画層1
100
AcDbLine
  6
BYLAYER
 62
7
 10
153.757898
 20
99.8643766748159
 11
153.757898
 21
118.264376674816
  0
LINE
  5
1FC
100
AcDbEntity
  8
画層1
100
AcDbLine
  6
BYLAYER
 62
7
 10
138.757898
 20
130.564376674816
 11
152.757898
 21
130.564376674816
  0
LINE
  5
1FD
100
AcDbEntity
  8
画層1
100
AcDbLine
  6
BYLAYER
 62
7
 10
153.457898
 20
118.564376674816
 11
138.057898
 21
118.564376674816
  0
LINE
  5
1FE
100
AcDbEntity
  8
画層1
100
AcDbLine
  6
BYLAYER
 62
7
 10
138.757898
 20
130.564376674816
 11
138.757898
 21
118.564376674816
  0
LINE
  5
1FF
100
AcDbEntity
  8
画層1
100
AcDbLine
  6
BYLAYER
 62
7
 10
137.757898
 20
118.264376674816
 11
138.057898
 21
118.564376674816
  0
LINE
  5
200
100
AcDbEntity
  8
画層1
100
AcDbLine
  6
CENTER
 62
7
 10
148.757898
 20
128.064376674816
 11
142.757898
 21
128.064376674816
  0
CIRCLE
  5
201
100
AcDbEntity
  8
画層1
100
AcDbCircle
  6
BYLAYER
 62
7
 10
145.757898
 20
128.064376674816
 40
1.5
  0
CIRCLE
  5
202
100
AcDbEntity
  8
画層1
100
AcDbCircle
  6
BYLAYER
 62
7
 10
145.757898
 20
128.064376674816
 40
1.25
  0
LINE
  5
203
100
AcDbEntity
  8
画層1
100
AcDbLine
  6
BYLAYER
 62
7
 10
138.757898
 20
130.564376674816
 11
139.257898
 21
131.064376674816
  0
LINE
  5
204
100
AcDbEntity
  8
画層1
100
AcDbLine
  6
BYLAYER
 62
7
 10
139.257898
 20
131.064376674816
 11
152.257898
 21
131.064376674816
  0
LINE
  5
205
100
AcDbEntity
  8
画層1
100
AcDbLine
  6
BYLAYER
 62
7
 10
152.757898
 20
130.564376674816
 11
152.757898
 21
118.564376674816
  0
LINE
  5
206
100
AcDbEntity
  8
画層1
100
AcDbLine
  6
BYLAYER
 62
7
 10
153.757898
 20
118.264376674816
 11
153.457898
 21
118.564376674816
  0
LINE
  5
207
100
AcDbEntity
  8
画層1
100
AcDbLine
  6
BYLAYER
 62
7
 10
152.257898
 20
131.064376674816
 11
152.757898
 21
130.564376674816
  0
LINE
  5
208
100
AcDbEntity
  8
画層1
100
AcDbLine
  6
CENTER
 62
7
 10
145.757898
 20
134.597238674816
 11
145.757898
 21
95.9297696748159
  0
CIRCLE
  5
209
100
AcDbEntity
  8
画層1
100
AcDbCircle
  6
BYLAYER
 62
7
 10
184.457898
 20
108.564376674816
 40
1.25
  0
CIRCLE
  5
20A
100
AcDbEntity
  8
画層1
100
AcDbCircle
  6
BYLAYER
 62
7
 10
184.457898
 20
108.564376674816
 40
1.50000000000011
  0
LINE
  5
20B
100
AcDbEntity
  8
画層1
100
AcDbLine
  6
CENTER
 62
7
 10
184.457898
 20
111.564376674816
 11
184.457898
 21
105.564376674816
  0
LINE
  5
20C
100
AcDbEntity
  8
画層1
100
AcDbLine
  6
BYLAYER
 62
7
 10
59
 20
194.564376674816
 11
59
 21
130.564376674816
  0
LINE
  5
20D
100
AcDbEntity
  8
画層1
100
AcDbLine
  6
BYLAYER
 62
7
 10
89
 20
130.564376674816
 11
89
 21
194.564376674816
  0
LINE
  5
20E
100
AcDbEntity
  8
画層1
100
AcDbLine
  6
BYLAYER
 62
7
 10
89
 20
194.564376674816
 11
17
 21
194.564376674816
  0
LINE
  5
20F
100
AcDbEntity
  8
画層1
100
AcDbLine
  6
BYLAYER
 62
7
 10
17
 20
194.564376674816
 11
17
 21
130.564376674816
  0
LINE
  5
210
100
AcDbEntity
  8
画層1
100
AcDbLine
  6
BYLAYER
 62
7
 10
17
 20
188.164376674816
 11
89
 21
188.164376674816
  0
LINE
  5
211
100
AcDbEntity
  8
画層1
100
AcDbLine
  6
BYLAYER
 62
7
 10
89
 20
181.764376674816
 11
17
 21
181.764376674816
  0
LINE
  5
212
100
AcDbEntity
  8
画層1
100
AcDbLine
  6
BYLAYER
 62
7
 10
17
 20
175.364376674816
 11
89
 21
175.364376674816
  0
LINE
  5
213
100
AcDbEntity
  8
画層1
100
AcDbLine
  6
BYLAYER
 62
7
 10
89
 20
168.964376674816
 11
17
 21
168.964376674816
  0
LINE
  5
214
100
AcDbEntity
  8
画層1
100
AcDbLine
  6
BYLAYER
 62
7
 10
17
 20
162.564376674816
 11
89
 21
162.564376674816
  0
LINE
  5
215
100
AcDbEntity
  8
画層1
100
AcDbLine
  6
BYLAYER
 62
7
 10
89
 20
156.164376674816
 11
17
 21
156.164376674816
  0
LINE
  5
216
100
AcDbEntity
  8
画層1
100
AcDbLine
  6
BYLAYER
 62
7
 10
17
 20
149.764376674816
 11
89
 21
149.764376674816
  0
LINE
  5
217
100
AcDbEntity
  8
画層1
100
AcDbLine
  6
BYLAYER
 62
7
 10
89
 20
143.364376674816
 11
17
 21
143.364376674816
  0
LINE
  5
218
100
AcDbEntity
  8
画層1
100
AcDbLine
  6
BYLAYER
 62
7
 10
89
 20
136.964376674816
 11
17
 21
136.964376674816
  0
LINE
  5
219
100
AcDbEntity
  8
画層1
100
AcDbLine
  6
BYLAYER
 62
7
 10
89
 20
130.564376674816
 11
17
 21
130.564376674816
  0
ARC
  5
21A
100
AcDbEntity
  8
画層1
100
AcDbCircle
  6
BYLAYER
 62
7
 10
155.774949
 20
162.673062674816
 40
6.94952579518695
100
AcDbArc
 50
324.859821
 51
35.140179
  0
ARC
  5
21B
100
AcDbEntity
  8
画層1
100
AcDbCircle
  6
BYLAYER
 62
7
 10
155.774949
 20
170.673062674816
 40
6.94952579518697
100
AcDbArc
 50
324.859821
 51
35.140179
  0
ARC
  5
21C
100
AcDbEntity
  8
画層1
100
AcDbCircle
  6
BYLAYER
 62
7
 10
167.140847
 20
170.673062674816
 40
6.94952579518696
100
AcDbArc
 50
144.859821
 51
215.140179
  0
ARC
  5
21D
100
AcDbEntity
  8
画層1
100
AcDbCircle
  6
BYLAYER
 62
7
 10
124.374949
 20
162.673062674816
 40
6.94952579518695
100
AcDbArc
 50
324.859821
 51
35.140179
  0
ARC
  5
21E
100
AcDbEntity
  8
画層1
100
AcDbCircle
  6
BYLAYER
 62
7
 10
135.740847
 20
162.673062674816
 40
6.94952579518696
100
AcDbArc
 50
144.859821
 51
215.140179
  0
ARC
  5
21F
100
AcDbEntity
  8
画層1
100
AcDbCircle
  6
BYLAYER
 62
7
 10
135.740847
 20
170.673062674816
 40
6.94952579518695
100
AcDbArc
 50
144.859821
 51
215.140179
  0
LINE
  5
220
100
AcDbEntity
  8
画層1
100
AcDbLine
  6
BYLAYER
 62
7
 10
153.757898
 20
158.673062674816
 11
161.457898
 21
158.673062674816
  0
LINE
  5
221
100
AcDbEntity
  8
画層1
100
AcDbLine
  6
BYLAYER
 62
7
 10
153.757898
 20
174.673062674816
 11
161.457898
 21
174.673062674816
  0
LINE
  5
222
100
AcDbEntity
  8
画層1
100
AcDbLine
  6
BYLAYER
 62
7
 10
137.757898
 20
158.673062674816
 11
130.057898
 21
158.673062674816
  0
LINE
  5
223
100
AcDbEntity
  8
画層1
100
AcDbLine
  6
BYLAYER
 62
7
 10
137.757898
 20
174.673062674816
 11
130.057898
 21
174.673062674816
  0
LINE
  5
224
100
AcDbEntity
  8
画層1
100
AcDbLine
  6
CENTER
 62
7
 10
136.807898
 20
159.573062674816
 11
154.707898
 21
159.573062674816
  0
LINE
  5
225
100
AcDbEntity
  8
画層1
100
AcDbLine
  6
CENTER
 62
7
 10
152.157898
 20
157.023062674816
 11
152.157898
 21
176.323062674816
  0
LINE
  5
226
100
AcDbEntity
  8
画層1
100
AcDbLine
  6
CENTER
 62
7
 10
154.707898
 20
173.773062674816
 11
136.807898
 21
173.773062674816
  0
LINE
  5
227
100
AcDbEntity
  8
画層1
100
AcDbLine
  6
CENTER
 62
7
 10
139.357898
 20
176.323062674816
 11
139.357898
 21
157.023062674816
  0
CIRCLE
  5
228
100
AcDbEntity
  8
画層1
100
AcDbCircle
  6
BYLAYER
 62
7
 10
145.757898
 20
166.673062674816
 40
7.00000000000006
  0
LINE
  5
229
100
AcDbEntity
  8
画層1
100
AcDbLine
  6
CENTER
 62
7
 10
125.126851
 20
166.673062674816
 11
166.462694
 21
166.673062674816
  0
LINE
  5
22A
100
AcDbEntity
  8
画層1
100
AcDbLine
  6
CENTER
 62
7
 10
145.757898
 20
178.173062674816
 11
145.757898
 21
155.173062674816
  0
LINE
  5
22B
100
AcDbEntity
  8
画層1
100
AcDbLine
  6
BYLAYER
 62
7
 10
137.757898
 20
157.728790674816
 11
153.757898
 21
157.728790674816
  0
LINE
  5
22C
100
AcDbEntity
  8
画層1
100
AcDbLine
  6
BYLAYER
 62
7
 10
153.757898
 20
156.673062674816
 11
153.757898
 21
176.673062674816
  0
LINE
  5
22D
100
AcDbEntity
  8
画層1
100
AcDbLine
  6
BYLAYER
 62
7
 10
153.757898
 20
175.617334674816
 11
137.757898
 21
175.617334674816
  0
LINE
  5
22E
100
AcDbEntity
  8
画層1
100
AcDbLine
  6
BYLAYER
 62
7
 10
137.757898
 20
176.673062674816
 11
137.757898
 21
156.673062674816
  0
LINE
  5
22F
100
AcDbEntity
  8
画層1
100
AcDbLine
  6
BYLAYER
 62
7
 10
137.757898
 20
176.673062674816
 11
153.757898
 21
176.673062674816
  0
LINE
  5
230
100
AcDbEntity
  8
画層1
100
AcDbLine
  6
BYLAYER
 62
7
 10
137.757898
 20
156.673062674816
 11
153.757898
 21
156.673062674816
  0
CIRCLE
  5
231
100
AcDbEntity
  8
画層1
100
AcDbCircle
  6
BYLAYER
 62
7
 10
145.757898
 20
166.673062674816
 40
4
  0
CIRCLE
  5
232
100
AcDbEntity
  8
画層1
100
AcDbCircle
  6
BYLAYER
 62
7
 10
145.757898
 20
166.673062674816
 40
2
  0
CIRCLE
  5
233
100
AcDbEntity
  8
画層1
100
AcDbCircle
  6
BYLAYER
 62
7
 10
139.357898
 20
173.773062674816
 40
1.60000000000002
  0
CIRCLE
  5
234
100
AcDbEntity
  8
画層1
100
AcDbCircle
  6
BYLAYER
 62
7
 10
152.157898
 20
173.773062674816
 40
1.60000000000002
  0
CIRCLE
  5
235
100
AcDbEntity
  8
画層1
100
AcDbCircle
  6
BYLAYER
 62
7
 10
139.357898
 20
159.573062674816
 40
1.60000000000002
  0
CIRCLE
  5
236
100
AcDbEntity
  8
画層1
100
AcDbCircle
  6
BYLAYER
 62
7
 10
152.157898
 20
159.573062674816
 40
1.60000000000002
  0
LINE
  5
237
100
AcDbEntity
  8
画層1
100
AcDbLine
  6
DASHED
 62
7
 10
141.757898
 20
131.064376674816
 11
141.757898
 21
119.364376674816
  0
LINE
  5
238
100
AcDbEntity
  8
画層1
100
AcDbLine
  6
DASHED
 62
7
 10
141.757898
 20
119.364376674816
 11
149.757898
 21
119.364376674816
  0
LINE
  5
239
100
AcDbEntity
  8
画層1
100
AcDbLine
  6
DASHED
 62
7
 10
149.757898
 20
131.064376674816
 11
149.757898
 21
119.364376674816
  0
LINE
  5
23A
100
AcDbEntity
  8
画層1
100
AcDbLine
  6
BYLAYER
 62
7
 10
160.328038
 20
137.142500674816
 11
161.98059
 21
137.142500674816
  0
LINE
  5
23B
100
AcDbEntity
  8
画層1
100
AcDbLine
  6
BYLAYER
 62
7
 10
161.98059
 20
137.142500674816
 11
194.193923
 21
137.142500674816
  0
LINE
  5
23C
100
AcDbEntity
  8
画層1
100
AcDbLine
  6
BYLAYER
 62
7
 10
241.189212873886
 20
100.564376674816
 11
233.489212873886
 21
100.564376674816
  0
LINE
  5
23D
100
AcDbEntity
  8
画層1
100
AcDbLine
  6
BYLAYER
 62
7
 10
233.489212873886
 20
116.564376674816
 11
264.889212873886
 21
116.564376674816
  0
LINE
  5
23E
100
AcDbEntity
  8
画層1
100
AcDbLine
  6
CENTER
 62
7
 10
228.558165873886
 20
108.564376674816
 11
269.894008873886
 21
108.564376674816
  0
LINE
  5
23F
100
AcDbEntity
  8
画層1
100
AcDbLine
  6
BYLAYER
 62
7
 10
257.189212873886
 20
100.564376674816
 11
264.889212873886
 21
100.564376674816
  0
ARC
  5
240
100
AcDbEntity
  8
画層1
100
AcDbCircle
  6
BYLAYER
 62
7
 10
259.206263873886
 20
104.564376674816
 40
6.94952579518698
100
AcDbArc
 50
324.859821
 51
35.140179
  0
ARC
  5
241
100
AcDbEntity
  8
画層1
100
AcDbCircle
  6
BYLAYER
 62
7
 10
259.206263873886
 20
112.564376674816
 40
6.94952579518694
100
AcDbArc
 50
324.859821
 51
35.140179
  0
ARC
  5
242
100
AcDbEntity
  8
画層1
100
AcDbCircle
  6
BYLAYER
 62
7
 10
270.572161873886
 20
112.564376674816
 40
6.94952579518695
100
AcDbArc
 50
144.859821
 51
215.140179
  0
ARC
  5
243
100
AcDbEntity
  8
画層1
100
AcDbCircle
  6
BYLAYER
 62
7
 10
227.806263873886
 20
104.564376674816
 40
6.94952579518695
100
AcDbArc
 50
324.859821
 51
35.140179
  0
ARC
  5
244
100
AcDbEntity
  8
画層1
100
AcDbCircle
  6
BYLAYER
 62
7
 10
239.172161873886
 20
104.564376674816
 40
6.94952579518694
100
AcDbArc
 50
144.859821
 51
215.140179
  0
ARC
  5
245
100
AcDbEntity
  8
画層1
100
AcDbCircle
  6
BYLAYER
 62
7
 10
239.172161873886
 20
112.564376674816
 40
6.94952579518698
100
AcDbArc
 50
144.859821
 51
215.140179
  0
LINE
  5
246
100
AcDbEntity
  8
画層1
100
AcDbLine
  6
BYLAYER
 62
7
 10
257.189212873886
 20
99.8643766748159
 11
257.189212873886
 21
118.264376674816
  0
LINE
  5
247
100
AcDbEntity
  8
画層1
100
AcDbLine
  6
BYLAYER
 62
7
 10
241.189212873886
 20
99.8643766748159
 11
241.189212873886
 21
118.264376674816
  0
LINE
  5
248
100
AcDbEntity
  8
画層1
100
AcDbLine
  6
BYLAYER
 62
7
 10
241.189212873886
 20
99.8643766748159
 11
241.489212873886
 21
99.5643766748159
  0
LINE
  5
249
100
AcDbEntity
  8
画層1
100
AcDbLine
  6
BYLAYER
 62
7
 10
256.889212873886
 20
99.5643766748159
 11
257.189212873886
 21
99.8643766748159
  0
LINE
  5
24A
100
AcDbEntity
  8
画層1
100
AcDbLine
  6
BYLAYER
 62
7
 10
241.189212873886
 20
100.627122674816
 11
257.189212873886
 21
100.627122674816
  0
LINE
  5
24B
100
AcDbEntity
  8
画層1
100
AcDbLine
  6
BYLAYER
 62
7
 10
256.889212873886
 20
99.5643766748159
 11
241.489212873886
 21
99.5643766748159
  0
LINE
  5
24C
100
AcDbEntity
  8
画層1
100
AcDbLine
  6
BYLAYER
 62
7
 10
240.189212873886
 20
138.564376674816
 11
240.689212873886
 21
139.064376674816
  0
LINE
  5
24D
100
AcDbEntity
  8
画層1
100
AcDbLine
  6
BYLAYER
 62
7
 10
240.189212873886
 20
133.564376674816
 11
240.189212873886
 21
138.564376674816
  0
LINE
  5
24E
100
AcDbEntity
  8
画層1
100
AcDbLine
  6
BYLAYER
 62
7
 10
240.689212873886
 20
133.064376674816
 11
240.189212873886
 21
133.564376674816
  0
LINE
  5
24F
100
AcDbEntity
  8
画層1
100
AcDbLine
  6
BYLAYER
 62
7
 10
240.689212873886
 20
133.064376674816
 11
257.689212873886
 21
133.064376674816
  0
LINE
  5
250
100
AcDbEntity
  8
画層1
100
AcDbLine
  6
BYLAYER
 62
7
 10
242.189212873886
 20
133.064376674816
 11
242.189212873886
 21
118.564376674816
  0
LINE
  5
251
100
AcDbEntity
  8
画層1
100
AcDbLine
  6
DASHED
 62
7
 10
243.189212873886
 20
119.364376674816
 11
255.189212873886
 21
119.364376674816
  0
LINE
  5
252
100
AcDbEntity
  8
画層1
100
AcDbLine
  6
DASHED
 62
7
 10
243.189212873886
 20
119.364376674816
 11
243.189212873886
 21
139.064376674816
  0
LINE
  5
253
100
AcDbEntity
  8
画層1
100
AcDbLine
  6
BYLAYER
 62
7
 10
240.689212873886
 20
139.064376674816
 11
257.689212873886
 21
139.064376674816
  0
LINE
  5
254
100
AcDbEntity
  8
画層1
100
AcDbLine
  6
BYLAYER
 62
7
 10
257.689212873886
 20
139.064376674816
 11
258.189212873886
 21
138.564376674816
  0
CIRCLE
  5
255
100
AcDbEntity
  8
画層1
100
AcDbCircle
  6
BYLAYER
 62
7
 10
249.189212873886
 20
136.064376674816
 40
1.25
  0
CIRCLE
  5
256
100
AcDbEntity
  8
画層1
100
AcDbCircle
  6
BYLAYER
 62
7
 10
249.189212873886
 20
136.064376674816
 40
1.5
  0
LINE
  5
257
100
AcDbEntity
  8
画層1
100
AcDbLine
  6
CENTER
 62
7
 10
252.189212873886
 20
136.064376674816
 11
246.189212873886
 21
136.064376674816
  0
LINE
  5
258
100
AcDbEntity
  8
画層1
100
AcDbLine
  6
CENTER
 62
7
 10
249.189212873886
 20
142.564376674816
 11
249.189212873886
 21
95.9297696748159
  0
LINE
  5
259
100
AcDbEntity
  8
画層1
100
AcDbLine
  6
BYLAYER
 62
7
 10
258.189212873886
 20
138.564376674816
 11
258.189212873886
 21
133.564376674816
  0
LINE
  5
25A
100
AcDbEntity
  8
画層1
100
AcDbLine
  6
BYLAYER
 62
7
 10
257.689212873886
 20
133.064376674816
 11
258.189212873886
 21
133.564376674816
  0
LINE
  5
25B
100
AcDbEntity
  8
画層1
100
AcDbLine
  6
BYLAYER
 62
7
 10
256.189212873886
 20
133.064376674816
 11
256.189212873886
 21
118.564376674816
  0
LINE
  5
25C
100
AcDbEntity
  8
画層1
100
AcDbLine
  6
DASHED
 62
7
 10
255.189212873886
 20
119.364376674816
 11
255.189212873886
 21
139.064376674816
  0
LINE
  5
25D
100
AcDbEntity
  8
画層1
100
AcDbLine
  6
BYLAYER
 62
7
 10
256.889212873886
 20
118.564376674816
 11
241.489212873886
 21
118.564376674816
  0
LINE
  5
25E
100
AcDbEntity
  8
画層1
100
AcDbLine
  6
BYLAYER
 62
7
 10
257.189212873886
 20
118.264376674816
 11
256.889212873886
 21
118.564376674816
  0
LINE
  5
25F
100
AcDbEntity
  8
画層1
100
AcDbLine
  6
BYLAYER
 62
7
 10
241.189212873886
 20
118.264376674816
 11
241.489212873886
 21
118.564376674816
  0
LINE
  5
260
100
AcDbEntity
  8
画層1
100
AcDbLine
  6
BYLAYER
 62
7
 10
264.601903924058
 20
159.423364248116
 11
233.114131638467
 21
159.423364248116
  0
LINE
  5
261
100
AcDbEntity
  8
画層1
100
AcDbLine
  6
BYLAYER
 62
7
 10
68.107898
 20
105.795549674816
 11
69.591708
 21
111.333203674816
  0
LINE
  5
262
100
AcDbEntity
  8
画層1
100
AcDbLine
  6
BYLAYER
 62
7
 10
66.107898
 20
105.795549674816
 11
67.591708
 21
111.333203674816
  0
LINE
  5
263
100
AcDbEntity
  8
画層1
100
AcDbLine
  6
CENTER
 62
7
 10
25.930653
 20
108.564376674816
 11
66.849803
 21
108.564376674816
  0
LINE
  5
264
100
AcDbEntity
  8
画層1
100
AcDbLine
  6
CENTER
 62
7
 10
68.849803
 20
108.564376674816
 11
92.176484
 21
108.564376674816
  0
LINE
  5
265
100
AcDbEntity
  8
画層2
100
AcDbLine
  6
BYLAYER
 62
7
 10
153.757898
 20
81.9246856748159
 11
156.757898
 21
81.9246856748159
  0
LINE
  5
266
100
AcDbEntity
  8
画層3
100
AcDbLine
  6
CENTER
 62
7
 10
135.107898
 20
159.573062674816
 11
143.607898
 21
159.573062674816
  0
LINE
  5
267
100
AcDbEntity
  8
画層3
100
AcDbLine
  6
CENTER
 62
7
 10
139.357898
 20
155.323062674816
 11
139.357898
 21
163.823062674816
  0
LINE
  5
268
100
AcDbEntity
  8
画層4
100
AcDbLine
  6
BYLAYER
 62
7
 10
139.632898
 20
173.498062674816
 11
140.457898
 21
173.498062674816
  0
LINE
  5
269
100
AcDbEntity
  8
画層4
100
AcDbLine
  6
BYLAYER
 62
7
 10
140.457898
 20
173.498062674816
 11
140.457898
 21
174.048062674816
  0
LINE
  5
26A
100
AcDbEntity
  8
画層4
100
AcDbLine
  6
BYLAYER
 62
7
 10
140.457898
 20
174.048062674816
 11
139.632898
 21
174.048062674816
  0
LINE
  5
26B
100
AcDbEntity
  8
画層4
100
AcDbLine
  6
BYLAYER
 62
7
 10
139.632898
 20
174.048062674816
 11
139.632898
 21
174.873062674816
  0
LINE
  5
26C
100
AcDbEntity
  8
画層4
100
AcDbLine
  6
BYLAYER
 62
7
 10
139.632898
 20
174.873062674816
 11
139.082898
 21
174.873062674816
  0
LINE
  5
26D
100
AcDbEntity
  8
画層4
100
AcDbLine
  6
BYLAYER
 62
7
 10
139.082898
 20
174.873062674816
 11
139.082898
 21
174.048062674816
  0
LINE
  5
26E
100
AcDbEntity
  8
画層4
100
AcDbLine
  6
BYLAYER
 62
7
 10
138.257898
 20
173.498062674816
 11
139.082898
 21
173.498062674816
  0
LINE
  5
26F
100
AcDbEntity
  8
画層4
100
AcDbLine
  6
BYLAYER
 62
7
 10
139.082898
 20
174.048062674816
 11
138.257898
 21
174.048062674816
  0
LINE
  5
270
100
AcDbEntity
  8
画層4
100
AcDbLine
  6
BYLAYER
 62
7
 10
138.257898
 20
174.048062674816
 11
138.257898
 21
173.498062674816
  0
LINE
  5
271
100
AcDbEntity
  8
画層4
100
AcDbLine
  6
BYLAYER
 62
7
 10
139.082898
 20
172.673062674816
 11
139.632898
 21
172.673062674816
  0
LINE
  5
272
100
AcDbEntity
  8
画層4
100
AcDbLine
  6
BYLAYER
 62
7
 10
139.632898
 20
172.673062674816
 11
139.632898
 21
173.498062674816
  0
LINE
  5
273
100
AcDbEntity
  8
画層4
100
AcDbLine
  6
BYLAYER
 62
7
 10
139.082898
 20
173.498062674816
 11
139.082898
 21
172.673062674816
  0
LINE
  5
274
100
AcDbEntity
  8
画層4
100
AcDbLine
  6
BYLAYER
 62
7
 10
151.882898
 20
173.498062674816
 11
151.882898
 21
172.673062674816
  0
LINE
  5
275
100
AcDbEntity
  8
画層4
100
AcDbLine
  6
BYLAYER
 62
7
 10
152.432898
 20
172.673062674816
 11
152.432898
 21
173.498062674816
  0
LINE
  5
276
100
AcDbEntity
  8
画層4
100
AcDbLine
  6
BYLAYER
 62
7
 10
151.882898
 20
172.673062674816
 11
152.432898
 21
172.673062674816
  0
LINE
  5
277
100
AcDbEntity
  8
画層4
100
AcDbLine
  6
BYLAYER
 62
7
 10
151.057898
 20
174.048062674816
 11
151.057898
 21
173.498062674816
  0
LINE
  5
278
100
AcDbEntity
  8
画層4
100
AcDbLine
  6
BYLAYER
 62
7
 10
151.882898
 20
174.048062674816
 11
151.057898
 21
174.048062674816
  0
LINE
  5
279
100
AcDbEntity
  8
画層4
100
AcDbLine
  6
BYLAYER
 62
7
 10
151.057898
 20
173.498062674816
 11
151.882898
 21
173.498062674816
  0
LINE
  5
27A
100
AcDbEntity
  8
画層4
100
AcDbLine
  6
BYLAYER
 62
7
 10
151.882898
 20
174.873062674816
 11
151.882898
 21
174.048062674816
  0
LINE
  5
27B
100
AcDbEntity
  8
画層4
100
AcDbLine
  6
BYLAYER
 62
7
 10
152.432898
 20
174.873062674816
 11
151.882898
 21
174.873062674816
  0
LINE
  5
27C
100
AcDbEntity
  8
画層4
100
AcDbLine
  6
BYLAYER
 62
7
 10
152.432898
 20
174.048062674816
 11
152.432898
 21
174.873062674816
  0
LINE
  5
27D
100
AcDbEntity
  8
画層4
100
AcDbLine
  6
BYLAYER
 62
7
 10
153.257898
 20
174.048062674816
 11
152.432898
 21
174.048062674816
  0
LINE
  5
27E
100
AcDbEntity
  8
画層4
100
AcDbLine
  6
BYLAYER
 62
7
 10
153.257898
 20
173.498062674816
 11
153.257898
 21
174.048062674816
  0
LINE
  5
27F
100
AcDbEntity
  8
画層4
100
AcDbLine
  6
BYLAYER
 62
7
 10
152.432898
 20
173.498062674816
 11
153.257898
 21
173.498062674816
  0
LINE
  5
280
100
AcDbEntity
  8
画層4
100
AcDbLine
  6
BYLAYER
 62
7
 10
139.082898
 20
159.298062674816
 11
139.082898
 21
158.473062674816
  0
LINE
  5
281
100
AcDbEntity
  8
画層4
100
AcDbLine
  6
BYLAYER
 62
7
 10
139.632898
 20
158.473062674816
 11
139.632898
 21
159.298062674816
  0
LINE
  5
282
100
AcDbEntity
  8
画層4
100
AcDbLine
  6
BYLAYER
 62
7
 10
139.082898
 20
158.473062674816
 11
139.632898
 21
158.473062674816
  0
LINE
  5
283
100
AcDbEntity
  8
画層4
100
AcDbLine
  6
BYLAYER
 62
7
 10
138.257898
 20
159.848062674816
 11
138.257898
 21
159.298062674816
  0
LINE
  5
284
100
AcDbEntity
  8
画層4
100
AcDbLine
  6
BYLAYER
 62
7
 10
139.082898
 20
159.848062674816
 11
138.257898
 21
159.848062674816
  0
LINE
  5
285
100
AcDbEntity
  8
画層4
100
AcDbLine
  6
BYLAYER
 62
7
 10
138.257898
 20
159.298062674816
 11
139.082898
 21
159.298062674816
  0
LINE
  5
286
100
AcDbEntity
  8
画層4
100
AcDbLine
  6
BYLAYER
 62
7
 10
139.082898
 20
160.673062674816
 11
139.082898
 21
159.848062674816
  0
LINE
  5
287
100
AcDbEntity
  8
画層4
100
AcDbLine
  6
BYLAYER
 62
7
 10
139.632898
 20
160.673062674816
 11
139.082898
 21
160.673062674816
  0
LINE
  5
288
100
AcDbEntity
  8
画層4
100
AcDbLine
  6
BYLAYER
 62
7
 10
139.632898
 20
159.848062674816
 11
139.632898
 21
160.673062674816
  0
LINE
  5
289
100
AcDbEntity
  8
画層4
100
AcDbLine
  6
BYLAYER
 62
7
 10
140.457898
 20
159.848062674816
 11
139.632898
 21
159.848062674816
  0
LINE
  5
28A
100
AcDbEntity
  8
画層4
100
AcDbLine
  6
BYLAYER
 62
7
 10
140.457898
 20
159.298062674816
 11
140.457898
 21
159.848062674816
  0
LINE
  5
28B
100
AcDbEntity
  8
画層4
100
AcDbLine
  6
BYLAYER
 62
7
 10
139.632898
 20
159.298062674816
 11
140.457898
 21
159.298062674816
  0
LINE
  5
28C
100
AcDbEntity
  8
画層4
100
AcDbLine
  6
BYLAYER
 62
7
 10
151.882898
 20
159.298062674816
 11
151.882898
 21
158.473062674816
  0
LINE
  5
28D
100
AcDbEntity
  8
画層4
100
AcDbLine
  6
BYLAYER
 62
7
 10
152.432898
 20
158.473062674816
 11
152.432898
 21
159.298062674816
  0
LINE
  5
28E
100
AcDbEntity
  8
画層4
100
AcDbLine
  6
BYLAYER
 62
7
 10
151.882898
 20
158.473062674816
 11
152.432898
 21
158.473062674816
  0
LINE
  5
28F
100
AcDbEntity
  8
画層4
100
AcDbLine
  6
BYLAYER
 62
7
 10
151.057898
 20
159.848062674816
 11
151.057898
 21
159.298062674816
  0
LINE
  5
290
100
AcDbEntity
  8
画層4
100
AcDbLine
  6
BYLAYER
 62
7
 10
151.882898
 20
159.848062674816
 11
151.057898
 21
159.848062674816
  0
LINE
  5
291
100
AcDbEntity
  8
画層4
100
AcDbLine
  6
BYLAYER
 62
7
 10
151.057898
 20
159.298062674816
 11
151.882898
 21
159.298062674816
  0
LINE
  5
292
100
AcDbEntity
  8
画層4
100
AcDbLine
  6
BYLAYER
 62
7
 10
151.882898
 20
160.673062674816
 11
151.882898
 21
159.848062674816
  0
LINE
  5
293
100
AcDbEntity
  8
画層4
100
AcDbLine
  6
BYLAYER
 62
7
 10
152.432898
 20
160.673062674816
 11
151.882898
 21
160.673062674816
  0
LINE
  5
294
100
AcDbEntity
  8
画層4
100
AcDbLine
  6
BYLAYER
 62
7
 10
152.432898
 20
159.848062674816
 11
152.432898
 21
160.673062674816
  0
LINE
  5
295
100
AcDbEntity
  8
画層4
100
AcDbLine
  6
BYLAYER
 62
7
 10
153.257898
 20
159.848062674816
 11
152.432898
 21
159.848062674816
  0
LINE
  5
296
100
AcDbEntity
  8
画層4
100
AcDbLine
  6
BYLAYER
 62
7
 10
153.257898
 20
159.298062674816
 11
153.257898
 21
159.848062674816
  0
LINE
  5
297
100
AcDbEntity
  8
画層4
100
AcDbLine
  6
BYLAYER
 62
7
 10
152.432898
 20
159.298062674816
 11
153.257898
 21
159.298062674816
  0
LINE
  5
298
100
AcDbEntity
  8
画層5
100
AcDbLine
  6
BYLAYER
 62
7
 10
162.500011
 20
6.56437667481589
 11
162.500011
 21
8.86786467481589
  0
LINE
  5
299
100
AcDbEntity
  8
画層5
100
AcDbLine
  6
BYLAYER
 62
7
 10
161.438187
 20
7.34343267481589
 11
161.438187
 21
7.87317467481589
  0
LINE
  5
29A
100
AcDbEntity
  8
画層5
100
AcDbLine
  6
BYLAYER
 62
7
 10
161.438187
 20
9.07297067481589
 11
161.438187
 21
8.6677886748159
  0
LWPOLYLINE
  5
29B
100
AcDbEntity
  8
画層5
 62
7
100
AcDbPolyline
  6
BYLAYER
 90
     19
 10
162.500011
  20
8.86786467481589
 10
162.493682
  20
8.98374067481589
 10
162.484701
  20
9.0994226748159
 10
162.470425
  20
9.2144716748159
 10
162.448136
  20
9.32830667481589
 10
162.419801
  20
9.4260446748159
 10
162.380868
  20
9.51982567481589
 10
162.323336
  20
9.61693567481589
 10
162.252831
  20
9.70556567481589
 10
162.18106
  20
9.7766846748159
 10
162.101373
  20
9.83823767481589
 10
162.006783
  20
9.89230567481589
 10
161.906194
  20
9.93501067481588
 10
161.777997
  20
9.97544467481589
 10
161.646998
  20
10.0052486748159
 10
161.564482
  20
10.0194896748159
 10
161.481487
  20
10.0302216748159
 10
161.406273
  20
10.0368346748159
 10
161.330899
  20
10.0418306748159
  0
ARC
  5
29C
100
AcDbEntity
  8
画層5
100
AcDbCircle
  6
BYLAYER
 62
7
 10
161.257197
 20
9.07297067481589
 40
0.180989141858078
100
AcDbArc
 50
0
 51
90
  0
LINE
  5
29D
100
AcDbEntity
  8
画層5
100
AcDbLine
  6
BYLAYER
 62
7
 10
158.33884
 20
6.56437667481589
 11
162.500011
 21
6.56437667481589
  0
LINE
  5
29E
100
AcDbEntity
  8
画層5
100
AcDbLine
  6
BYLAYER
 62
7
 10
158.33884
 20
7.34343267481589
 11
161.438187
 21
7.34343267481589
  0
LINE
  5
29F
100
AcDbEntity
  8
画層5
100
AcDbLine
  6
BYLAYER
 62
7
 10
161.438187
 20
7.87317467481589
 11
158.33884
 21
7.87317467481589
  0
LINE
  5
2A0
100
AcDbEntity
  8
画層5
100
AcDbLine
  6
BYLAYER
 62
7
 10
158.33884
 20
7.87317467481589
 11
158.33884
 21
7.34343267481589
  0
LINE
  5
2A1
100
AcDbEntity
  8
画層5
100
AcDbLine
  6
BYLAYER
 62
7
 10
161.438187
 20
8.6677886748159
 11
158.33884
 21
8.6677886748159
  0
LWPOLYLINE
  5
2A2
100
AcDbEntity
  8
画層5
 62
7
100
AcDbPolyline
  6
BYLAYER
 90
     23
 10
158.33884
  20
6.56437667481589
 10
158.226657
  20
6.5666036748159
 10
158.114588
  20
6.57123267481589
 10
157.997005
  20
6.58094767481589
 10
157.879991
  20
6.59648767481589
 10
157.757371
  20
6.6200916748159
 10
157.636973
  20
6.65300967481589
 10
157.580319
  20
6.67290767481589
 10
157.525089
  20
6.69630367481589
 10
157.467976
  20
6.7259816748159
 10
157.413205
  20
6.7600416748159
 10
157.35527
  20
6.80278367481588
 10
157.302523
  20
6.85144067481589
 10
157.273385
  20
6.88482867481589
 10
157.246714
  20
6.9203266748159
 10
157.219586
  20
6.9619786748159
 10
157.196185
  20
7.0057126748159
 10
157.174978
  20
7.05825967481589
 10
157.158891
  20
7.11274467481589
 10
157.146306
  20
7.17192867481589
 10
157.138439
  20
7.2318026748159
 10
157.135047
  20
7.29529467481589
 10
157.134431
  20
7.35899067481588
  0
LINE
  5
2A3
100
AcDbEntity
  8
画層5
100
AcDbLine
  6
BYLAYER
 62
7
 10
157.134431
 20
7.87317467481589
 11
157.134431
 21
7.34343267481589
  0
LWPOLYLINE
  5
2A4
100
AcDbEntity
  8
画層5
 62
7
100
AcDbPolyline
  6
BYLAYER
 90
     23
 10
158.33884
  20
8.6677886748159
 10
158.226657
  20
8.66556167481589
 10
158.114588
  20
8.6609326748159
 10
157.997005
  20
8.6512176748159
 10
157.879991
  20
8.6356776748159
 10
157.757371
  20
8.61207367481589
 10
157.636973
  20
8.57915567481589
 10
157.580319
  20
8.5592576748159
 10
157.525089
  20
8.53586167481589
 10
157.467976
  20
8.50618367481589
 10
157.413205
  20
8.47212267481589
 10
157.35527
  20
8.42938167481589
 10
157.302523
  20
8.3807246748159
 10
157.273385
  20
8.34733667481589
 10
157.246714
  20
8.31183867481589
 10
157.219586
  20
8.27018667481589
 10
157.196185
  20
8.22645267481589
 10
157.174978
  20
8.17390567481588
 10
157.158891
  20
8.11942067481588
 10
157.146306
  20
8.0602366748159
 10
157.138439
  20
8.00036267481589
 10
157.135047
  20
7.93687067481589
 10
157.134431
  20
7.87317467481589
  0
LINE
  5
2A5
100
AcDbEntity
  8
画層5
100
AcDbLine
  6
BYLAYER
 62
7
 10
157.214724
 20
9.25396067481589
 11
161.257197
 21
9.25396067481589
  0
LINE
  5
2A6
100
AcDbEntity
  8
画層5
100
AcDbLine
  6
BYLAYER
 62
7
 10
157.214724
 20
10.0418306748159
 11
157.214724
 21
9.25396067481589
  0
LINE
  5
2A7
100
AcDbEntity
  8
画層5
100
AcDbLine
  6
BYLAYER
 62
7
 10
161.330899
 20
10.0418306748159
 11
157.214724
 21
10.0418306748159
  0
LINE
  5
2A8
100
AcDbEntity
  8
画層5
100
AcDbLine
  6
BYLAYER
 62
7
 10
156.575509
 20
8.99209367481589
 11
156.575509
 21
6.56437667481589
  0
LINE
  5
2A9
100
AcDbEntity
  8
画層5
100
AcDbLine
  6
BYLAYER
 62
7
 10
156.575509
 20
6.56437667481589
 11
155.515629
 21
6.56437667481589
  0
LINE
  5
2AA
100
AcDbEntity
  8
画層5
100
AcDbLine
  6
BYLAYER
 62
7
 10
155.515629
 20
6.56437667481589
 11
155.515629
 21
8.93371367481589
  0
ARC
  5
2AB
100
AcDbEntity
  8
画層5
100
AcDbCircle
  6
BYLAYER
 62
7
 10
155.525772
 20
8.99209367481589
 40
1.04973702277687
100
AcDbArc
 50
0
 51
90
  0
ARC
  5
2AC
100
AcDbEntity
  8
画層5
100
AcDbCircle
  6
BYLAYER
 62
7
 10
155.298442
 20
8.93371367481589
 40
0.217186970229705
100
AcDbArc
 50
0
 51
90
  0
LINE
  5
2AD
100
AcDbEntity
  8
画層5
100
AcDbLine
  6
BYLAYER
 62
7
 10
155.298442
 20
9.15090067481589
 11
152.45643
 21
9.15090067481589
  0
LINE
  5
2AE
100
AcDbEntity
  8
画層5
100
AcDbLine
  6
BYLAYER
 62
7
 10
152.45643
 20
9.15090067481589
 11
152.45643
 21
6.56437667481589
  0
LINE
  5
2AF
100
AcDbEntity
  8
画層5
100
AcDbLine
  6
BYLAYER
 62
7
 10
152.45643
 20
6.56437667481589
 11
151.396549
 21
6.56437667481589
  0
LINE
  5
2B0
100
AcDbEntity
  8
画層5
100
AcDbLine
  6
BYLAYER
 62
7
 10
151.396549
 20
6.56437667481589
 11
151.396549
 21
10.0418306748159
  0
LINE
  5
2B1
100
AcDbEntity
  8
画層5
100
AcDbLine
  6
BYLAYER
 62
7
 10
151.396549
 20
10.0418306748159
 11
155.525772
 21
10.0418306748159
  0
LINE
  5
2B2
100
AcDbEntity
  8
画層5
100
AcDbLine
  6
BYLAYER
 62
7
 10
150.779907
 20
6.56437667481589
 11
150.779907
 21
10.0418306748159
  0
LINE
  5
2B3
100
AcDbEntity
  8
画層5
100
AcDbLine
  6
BYLAYER
 62
7
 10
150.779907
 20
10.2894696748159
 11
150.779907
 21
11.0852626748159
  0
LINE
  5
2B4
100
AcDbEntity
  8
画層5
100
AcDbLine
  6
BYLAYER
 62
7
 10
149.724828
 20
6.56437667481589
 11
150.779907
 21
6.56437667481589
  0
LINE
  5
2B5
100
AcDbEntity
  8
画層5
100
AcDbLine
  6
BYLAYER
 62
7
 10
149.724828
 20
10.0418306748159
 11
149.724828
 21
6.56437667481589
  0
LINE
  5
2B6
100
AcDbEntity
  8
画層5
100
AcDbLine
  6
BYLAYER
 62
7
 10
150.779907
 20
10.0418306748159
 11
149.724828
 21
10.0418306748159
  0
LINE
  5
2B7
100
AcDbEntity
  8
画層5
100
AcDbLine
  6
BYLAYER
 62
7
 10
149.724828
 20
10.2894696748159
 11
150.779907
 21
10.2894696748159
  0
LINE
  5
2B8
100
AcDbEntity
  8
画層5
100
AcDbLine
  6
BYLAYER
 62
7
 10
150.779907
 20
11.0852626748159
 11
149.724828
 21
11.0852626748159
  0
LINE
  5
2B9
100
AcDbEntity
  8
画層5
100
AcDbLine
  6
BYLAYER
 62
7
 10
149.724828
 20
11.0852626748159
 11
149.724828
 21
10.2894696748159
  0
LINE
  5
2BA
100
AcDbEntity
  8
画層5
100
AcDbLine
  6
BYLAYER
 62
7
 10
147.241468
 20
6.56437667481589
 11
149.053587
 21
6.56437667481589
  0
LINE
  5
2BB
100
AcDbEntity
  8
画層5
100
AcDbLine
  6
BYLAYER
 62
7
 10
148.997381
 20
10.0418306748159
 11
147.335296
 21
10.0418306748159
  0
LINE
  5
2BC
100
AcDbEntity
  8
画層5
100
AcDbLine
  6
BYLAYER
 62
7
 10
146.398007
 20
8.30528667481589
 11
149.053587
 21
6.56437667481589
  0
LINE
  5
2BD
100
AcDbEntity
  8
画層5
100
AcDbLine
  6
BYLAYER
 62
7
 10
148.997381
 20
10.0418306748159
 11
146.398007
 21
8.30528667481589
  0
LINE
  5
2BE
100
AcDbEntity
  8
画層5
100
AcDbLine
  6
BYLAYER
 62
7
 10
147.241468
 20
6.56437667481589
 11
145.073189
 21
8.20113067481589
  0
LINE
  5
2BF
100
AcDbEntity
  8
画層5
100
AcDbLine
  6
BYLAYER
 62
7
 10
147.335296
 20
10.0418306748159
 11
145.071211
 21
8.41184567481589
  0
LINE
  5
2C0
100
AcDbEntity
  8
画層5
100
AcDbLine
  6
BYLAYER
 62
7
 10
144.89917
 20
6.56437667481589
 11
144.89917
 21
8.1144576748159
  0
ARC
  5
2C1
100
AcDbEntity
  8
画層5
100
AcDbCircle
  6
BYLAYER
 62
7
 10
145.007764
 20
8.1144576748159
 40
0.108593485114852
100
AcDbArc
 50
52.952191
 51
180
  0
ARC
  5
2C2
100
AcDbEntity
  8
画層5
100
AcDbCircle
  6
BYLAYER
 62
7
 10
145.007764
 20
8.49997567481589
 40
0.108593485114872
100
AcDbArc
 50
180
 51
305.751288
  0
LINE
  5
2C3
100
AcDbEntity
  8
画層5
100
AcDbLine
  6
BYLAYER
 62
7
 10
143.843504
 20
6.56437667481589
 11
144.89917
 21
6.56437667481589
  0
LINE
  5
2C4
100
AcDbEntity
  8
画層5
100
AcDbLine
  6
BYLAYER
 62
7
 10
144.89917
 20
8.49997567481589
 11
144.89917
 21
11.0852626748159
  0
LINE
  5
2C5
100
AcDbEntity
  8
画層5
100
AcDbLine
  6
BYLAYER
 62
7
 10
144.89917
 20
11.0852626748159
 11
143.843504
 21
11.0852626748159
  0
LINE
  5
2C6
100
AcDbEntity
  8
画層5
100
AcDbLine
  6
BYLAYER
 62
7
 10
143.843504
 20
11.0852626748159
 11
143.843504
 21
6.56437667481589
  0
LINE
  5
2C7
100
AcDbEntity
  8
画層5
100
AcDbLine
  6
BYLAYER
 62
7
 10
143.298056
 20
7.7589046748159
 11
143.298056
 21
8.8549896748159
  0
ARC
  5
2C8
100
AcDbEntity
  8
画層5
100
AcDbCircle
  6
BYLAYER
 62
7
 10
142.103528
 20
7.7589046748159
 40
1.19452833626337
100
AcDbArc
 50
270
 51
0
  0
ARC
  5
2C9
100
AcDbEntity
  8
画層5
100
AcDbCircle
  6
BYLAYER
 62
7
 10
142.02112
 20
7.6224096748159
 40
0.162890227672278
100
AcDbArc
 50
270
 51
0
  0
LINE
  5
2CA
100
AcDbEntity
  8
画層5
100
AcDbLine
  6
BYLAYER
 62
7
 10
142.18401
 20
7.6224096748159
 11
142.18401
 21
8.9982266748159
  0
ARC
  5
2CB
100
AcDbEntity
  8
画層5
100
AcDbCircle
  6
BYLAYER
 62
7
 10
142.02112
 20
8.9982266748159
 40
0.162890227672278
100
AcDbArc
 50
0
 51
90
  0
ARC
  5
2CC
100
AcDbEntity
  8
画層5
100
AcDbCircle
  6
BYLAYER
 62
7
 10
142.103528
 20
8.8549896748159
 40
1.19452833626335
100
AcDbArc
 50
0
 51
90
  0
LINE
  5
2CD
100
AcDbEntity
  8
画層5
100
AcDbLine
  6
BYLAYER
 62
7
 10
139.145007
 20
6.56437667481589
 11
142.103528
 21
6.56437667481589
  0
LINE
  5
2CE
100
AcDbEntity
  8
画層5
100
AcDbLine
  6
BYLAYER
 62
7
 10
139.084926
 20
7.45951967481589
 11
142.02112
 21
7.45951967481589
  0
LINE
  5
2CF
100
AcDbEntity
  8
画層5
100
AcDbLine
  6
BYLAYER
 62
7
 10
134.725692
 20
6.56437667481589
 11
135.914043
 21
6.56437667481589
  0
ARC
  5
2D0
100
AcDbEntity
  8
画層5
100
AcDbCircle
  6
BYLAYER
 62
7
 10
139.084926
 20
7.6224096748159
 40
0.162890227672278
100
AcDbArc
 50
180
 51
270
  0
LINE
  5
2D1
100
AcDbEntity
  8
画層5
100
AcDbLine
  6
BYLAYER
 62
7
 10
132.5
 20
11.0852626748159
 11
132.5
 21
10.0899896748159
  0
ARC
  5
2D2
100
AcDbEntity
  8
画層5
100
AcDbCircle
  6
BYLAYER
 62
7
 10
139.145007
 20
7.7589046748159
 40
1.19452833626335
100
AcDbArc
 50
180
 51
270
  0
LINE
  5
2D3
100
AcDbEntity
  8
画層5
100
AcDbLine
  6
BYLAYER
 62
7
 10
142.02112
 20
9.16111667481589
 11
139.084926
 21
9.16111667481589
  0
LINE
  5
2D4
100
AcDbEntity
  8
画層5
100
AcDbLine
  6
BYLAYER
 62
7
 10
138.922035
 20
8.9982266748159
 11
138.922035
 21
7.6224096748159
  0
ARC
  5
2D5
100
AcDbEntity
  8
画層5
100
AcDbCircle
  6
BYLAYER
 62
7
 10
139.084926
 20
8.9982266748159
 40
0.162890227672278
100
AcDbArc
 50
90
 51
180
  0
LINE
  5
2D6
100
AcDbEntity
  8
画層5
100
AcDbLine
  6
BYLAYER
 62
7
 10
142.103528
 20
10.0495176748159
 11
139.145007
 21
10.0495176748159
  0
LINE
  5
2D7
100
AcDbEntity
  8
画層5
100
AcDbLine
  6
BYLAYER
 62
7
 10
137.950478
 20
8.8549896748159
 11
137.950478
 21
7.7589046748159
  0
ARC
  5
2D8
100
AcDbEntity
  8
画層5
100
AcDbCircle
  6
BYLAYER
 62
7
 10
139.145007
 20
8.8549896748159
 40
1.19452833626332
100
AcDbArc
 50
90
 51
180
  0
LINE
  5
2D9
100
AcDbEntity
  8
画層5
100
AcDbLine
  6
BYLAYER
 62
7
 10
138.175302
 20
10.0899896748159
 11
138.175302
 21
11.0852626748159
  0
LINE
  5
2DA
100
AcDbEntity
  8
画層5
100
AcDbLine
  6
BYLAYER
 62
7
 10
132.5
 20
10.0899896748159
 11
134.725692
 21
10.0899896748159
  0
LINE
  5
2DB
100
AcDbEntity
  8
画層5
100
AcDbLine
  6
BYLAYER
 62
7
 10
134.725692
 20
10.0899896748159
 11
134.725692
 21
6.56437667481589
  0
LINE
  5
2DC
100
AcDbEntity
  8
画層5
100
AcDbLine
  6
BYLAYER
 62
7
 10
135.914043
 20
6.56437667481589
 11
135.914043
 21
10.0899896748159
  0
LINE
  5
2DD
100
AcDbEntity
  8
画層5
100
AcDbLine
  6
BYLAYER
 62
7
 10
135.914043
 20
10.0899896748159
 11
138.175302
 21
10.0899896748159
  0
LINE
  5
2DE
100
AcDbEntity
  8
画層5
100
AcDbLine
  6
BYLAYER
 62
7
 10
138.175302
 20
11.0852626748159
 11
132.5
 21
11.0852626748159
  0
LINE
  5
2DF
100
AcDbEntity
  8
画層5
100
AcDbLine
  6
BYLAYER
 62
7
 10
11
 20
104.564376674816
 11
8.5
 21
104.564376674816
  0
LINE
  5
2E0
100
AcDbEntity
  8
画層5
100
AcDbLine
  6
BYLAYER
 62
7
 10
286
 20
104.564376674816
 11
288.5
 21
104.564376674816
  0
LINE
  5
2E1
100
AcDbEntity
  8
画層5
100
AcDbLine
  6
BYLAYER
 62
7
 10
96
 20
13.5643766748159
 11
96
 21
46.0643766748159
  0
LINE
  5
2E2
100
AcDbEntity
  8
画層5
100
AcDbLine
  6
BYLAYER
 62
7
 10
117
 20
13.5643766748159
 11
117
 21
46.0643766748159
  0
LINE
  5
2E3
100
AcDbEntity
  8
画層5
100
AcDbLine
  6
BYLAYER
 62
7
 10
133
 20
13.5643766748159
 11
133
 21
33.5643766748159
  0
LINE
  5
2E4
100
AcDbEntity
  8
画層5
100
AcDbLine
  6
BYLAYER
 62
7
 10
149
 20
13.5643766748159
 11
149
 21
33.5643766748159
  0
LINE
  5
2E5
100
AcDbEntity
  8
画層5
100
AcDbLine
  6
BYLAYER
 62
7
 10
165
 20
13.5643766748159
 11
165
 21
46.0643766748159
  0
LINE
  5
2E6
100
AcDbEntity
  8
画層5
100
AcDbLine
  6
BYLAYER
 62
7
 10
96
 20
18.5643766748159
 11
117
 21
18.5643766748159
  0
LINE
  5
2E7
100
AcDbEntity
  8
画層5
100
AcDbLine
  6
BYLAYER
 62
7
 10
96
 20
28.5643766748159
 11
181
 21
28.5643766748159
  0
LINE
  5
2E8
100
AcDbEntity
  8
画層5
100
AcDbLine
  6
BYLAYER
 62
7
 10
37
 20
23.5643766748159
 11
37
 21
33.5643766748159
  0
LINE
  5
2E9
100
AcDbEntity
  8
画層5
100
AcDbLine
  6
BYLAYER
 62
7
 10
11
 20
30.2310436748159
 11
96
 21
30.2310436748159
  0
LINE
  5
2EA
100
AcDbEntity
  8
画層5
100
AcDbLine
  6
BYLAYER
 62
7
 10
11
 20
26.8977096748159
 11
96
 21
26.8977096748159
  0
LINE
  5
2EB
100
AcDbEntity
  8
画層5
100
AcDbLine
  6
BYLAYER
 62
7
 10
11
 20
23.5643766748159
 11
96
 21
23.5643766748159
  0
LINE
  5
2EC
100
AcDbEntity
  8
画層5
100
AcDbLine
  6
BYLAYER
 62
7
 10
29
 20
13.5643766748159
 11
29
 21
33.5643766748159
  0
LINE
  5
2ED
100
AcDbEntity
  8
画層5
100
AcDbLine
  6
BYLAYER
 62
7
 10
16.4
 20
23.5643766748159
 11
16.4
 21
33.5643766748159
  0
LINE
  5
2EE
100
AcDbEntity
  8
画層5
100
AcDbLine
  6
BYLAYER
 62
7
 10
13.877526
 20
33.0945736748159
 11
15.210859
 21
30.7851726748159
  0
LINE
  5
2EF
100
AcDbEntity
  8
画層5
100
AcDbLine
  6
BYLAYER
 62
7
 10
15.210859
 20
30.7851726748159
 11
12.544192
 21
30.7851726748159
  0
LINE
  5
2F0
100
AcDbEntity
  8
画層5
100
AcDbLine
  6
BYLAYER
 62
7
 10
12.544192
 20
30.7851726748159
 11
13.877526
 21
33.0945736748159
  0
LINE
  5
2F1
100
AcDbEntity
  8
画層5
100
AcDbLine
  6
BYLAYER
 62
7
 10
12.546536
 20
27.4730696748159
 11
13.879869
 21
29.7824706748159
  0
LINE
  5
2F2
100
AcDbEntity
  8
画層5
100
AcDbLine
  6
BYLAYER
 62
7
 10
15.213203
 20
27.4730696748159
 11
12.546536
 21
27.4730696748159
  0
LINE
  5
2F3
100
AcDbEntity
  8
画層5
100
AcDbLine
  6
BYLAYER
 62
7
 10
13.879869
 20
29.7824706748159
 11
15.213203
 21
27.4730696748159
  0
LINE
  5
2F4
100
AcDbEntity
  8
画層5
100
AcDbLine
  6
BYLAYER
 62
7
 10
186
 20
13.5643766748159
 11
186
 21
33.5643766748159
  0
LINE
  5
2F5
100
AcDbEntity
  8
画層5
100
AcDbLine
  6
BYLAYER
 62
7
 10
96
 20
38.5643766748159
 11
286
 21
38.5643766748159
  0
LINE
  5
2F6
100
AcDbEntity
  8
画層5
100
AcDbLine
  6
BYLAYER
 62
7
 10
286
 20
23.5643766748159
 11
181
 21
23.5643766748159
  0
LINE
  5
2F7
100
AcDbEntity
  8
画層5
100
AcDbLine
  6
BYLAYER
 62
7
 10
231
 20
13.5643766748159
 11
231
 21
33.5643766748159
  0
LINE
  5
2F8
100
AcDbEntity
  8
画層5
100
AcDbLine
  6
BYLAYER
 62
7
 10
181
 20
13.5643766748159
 11
181
 21
46.0643766748159
  0
LINE
  5
2F9
100
AcDbEntity
  8
画層5
100
AcDbLine
  6
BYLAYER
 62
7
 10
286
 20
33.5643766748159
 11
11
 21
33.5643766748159
  0
LINE
  5
2FA
100
AcDbEntity
  8
画層5
100
AcDbLine
  6
BYLAYER
 62
7
 10
226
 20
46.0643766748159
 11
226
 21
13.5643766748159
  0
LINE
  5
2FB
100
AcDbEntity
  8
画層5
100
AcDbLine
  6
BYLAYER
 62
7
 10
96
 20
46.0643766748159
 11
286
 21
46.0643766748159
  0
LINE
  5
2FC
100
AcDbEntity
  8
画層5
100
AcDbLine
  6
BYLAYER
 62
7
 10
286
 20
13.5643766748159
 11
11
 21
13.5643766748159
  0
LINE
  5
2FD
100
AcDbEntity
  8
画層5
100
AcDbLine
  6
BYLAYER
 62
7
 10
147.5
 20
200.564376674816
 11
147.5
 21
203.064376674816
  0
LINE
  5
2FE
100
AcDbEntity
  8
画層5
100
AcDbLine
  6
BYLAYER
 62
7
 10
286
 20
200.564376674816
 11
286
 21
13.5643766748159
  0
LINE
  5
2FF
100
AcDbEntity
  8
画層5
100
AcDbLine
  6
BYLAYER
 62
7
 10
11
 20
200.564376674816
 11
11
 21
13.5643766748159
  0
LINE
  5
300
100
AcDbEntity
  8
画層5
100
AcDbLine
  6
BYLAYER
 62
7
 10
286
 20
200.564376674816
 11
11
 21
200.564376674816
  0
TEXT
  5
301
100
AcDbEntity
  8
画層1
 62
7
100
AcDbText
  6
BYLAYER
 62
7
 10
118.6901
 20
21.3454756748159
 40
3.6
 41
0.97375
  1
宇賀田
  7
Font_0
100
AcDbText
  0
TEXT
  5
302
100
AcDbEntity
  8
画層1
 62
7
100
AcDbText
  6
BYLAYER
 62
7
 10
150.6901
 20
21.3454756748159
 40
3.6
 41
0.97375
  1
宇賀田
  7
Font_0
100
AcDbText
  0
TEXT
  5
303
100
AcDbEntity
  8
画層1
 62
7
100
AcDbText
  6
BYLAYER
 62
7
 10
199.200001
 20
16.5643766748159
 40
4
 41
1.2
  1
C0.1
  7
Font_0
100
AcDbText
  0
TEXT
  5
304
100
AcDbEntity
  8
画層1
 62
7
100
AcDbText
  6
BYLAYER
 62
7
 10
170.8967
 20
21.3454756748159
 40
3.6
 41
0.97375
  1
関
  7
Font_0
100
AcDbText
  0
TEXT
  5
305
100
AcDbEntity
  8
画層1
 62
7
100
AcDbText
  6
BYLAYER
 62
7
 10
134.6901
 20
21.3454756748159
 40
3.6
 41
0.97375
  1
宇賀田
  7
Font_0
100
AcDbText
  0
TEXT
  5
306
100
AcDbEntity
  8
画層1
 62
7
100
AcDbText
  6
BYLAYER
 62
7
 10
100.02
 20
40.5143766748159
 40
3.6
  1
０００
  7
Font_0
100
AcDbText
  0
TEXT
  5
307
100
AcDbEntity
  8
画層1
 62
7
100
AcDbText
  6
BYLAYER
 62
7
 10
132.36
 20
40.6466726748159
 40
3.6
  1
組 立 図
  7
Font_0
100
AcDbText
  0
TEXT
  5
308
100
AcDbEntity
  8
画層1
 62
7
100
AcDbText
  6
BYLAYER
 62
7
 10
171.799999
 20
40.5143766748159
 40
3.6
  1
1
  7
Font_0
100
AcDbText
  0
TEXT
  5
309
100
AcDbEntity
  8
画層1
 62
7
100
AcDbText
  6
BYLAYER
 62
7
 10
188.8
 20
40.5643766748159
 40
3.5
  1
Ａ５０５２ＴＤ
  7
Font_0
100
AcDbText
  0
TEXT
  5
30A
100
AcDbEntity
  8
画層1
 62
7
100
AcDbText
  6
BYLAYER
 62
7
 10
237.1
 20
40.5643766748159
 40
3.5
  1
サテン黒アルマイト
  7
Font_0
100
AcDbText
  0
TEXT
  5
30B
100
AcDbEntity
  8
画層1
 62
7
100
AcDbText
  6
BYLAYER
 62
7
 10
238.673609
 20
16.5474866748159
 40
4
  1
ＫＶＴ－１０２３
  7
Font_0
100
AcDbText
  0
TEXT
  5
30C
100
AcDbEntity
  8
画層1
 62
7
100
AcDbText
  6
BYLAYER
 62
7
 10
236.033869000193
 20
26.7805194160405
 40
3.3
  1
ＫＣＭ－１Ｄ－１１０Ｃ（８）
  7
Font_0
100
AcDbText
  0
TEXT
  5
30D
100
AcDbEntity
  8
画層1
 62
7
100
AcDbText
  6
BYLAYER
 62
7
 10
100.695832
 20
21.5303766748159
 40
4.068
 41
1.22296
  1
1/1
  7
Font_0
100
AcDbText
  0
TEXT
  5
30E
100
AcDbEntity
  8
画層1
 62
7
100
AcDbText
  6
BYLAYER
 62
7
 10
19
 20
189.764376674816
 40
3.2
  1
倍率
  7
Font_0
100
AcDbText
  0
TEXT
  5
30F
100
AcDbEntity
  8
画層1
 62
7
100
AcDbText
  6
BYLAYER
 62
7
 10
19
 20
183.364376674816
 40
3.2
  1
Ｏ／Ｉ
  7
Font_0
100
AcDbText
  0
TEXT
  5
310
100
AcDbEntity
  8
画層1
 62
7
100
AcDbText
  6
BYLAYER
 62
7
 10
19
 20
176.964376674816
 40
3.2
  1
Ｗ．Ｄ．
  7
Font_0
100
AcDbText
  0
TEXT
  5
311
100
AcDbEntity
  8
画層1
 62
7
100
AcDbText
  6
BYLAYER
 62
7
 10
19
 20
170.564376674816
 40
3.2
  1
被写界深度
  7
Font_0
100
AcDbText
  0
TEXT
  5
312
100
AcDbEntity
  8
画層1
 62
7
100
AcDbText
  6
BYLAYER
 62
7
 10
19
 20
164.164376674816
 40
3.2
  1
分解能
  7
Font_0
100
AcDbText
  0
TEXT
  5
313
100
AcDbEntity
  8
画層1
 62
7
100
AcDbText
  6
BYLAYER
 62
7
 10
19
 20
157.764376674816
 40
3.2
  1
有効Ｆナンバー
  7
Font_0
100
AcDbText
  0
TEXT
  5
314
100
AcDbEntity
  8
画層1
 62
7
100
AcDbText
  6
BYLAYER
 62
7
 10
19
 20
151.364376674816
 40
3.2
  1
Ｎ．Ａ．
  7
Font_0
100
AcDbText
  0
TEXT
  5
315
100
AcDbEntity
  8
画層1
 62
7
100
AcDbText
  6
BYLAYER
 62
7
 10
19
 20
144.964376674816
 40
3.2
  1
ＴＶディストーション
  7
Font_0
100
AcDbText
  0
TEXT
  5
316
100
AcDbEntity
  8
画層1
 62
7
100
AcDbText
  6
BYLAYER
 62
7
 10
19
 20
138.564376674816
 40
3.2
  1
重量
  7
Font_0
100
AcDbText
  0
TEXT
  5
317
100
AcDbEntity
  8
画層1
 62
7
100
AcDbText
  6
BYLAYER
 62
7
 10
19
 20
132.164376674816
 40
3.2
  1
対応素子サイズ
  7
Font_0
100
AcDbText
  0
TEXT
  5
318
100
AcDbEntity
  8
画層1
 62
7
100
AcDbText
  6
BYLAYER
 62
7
 10
119.035183
 20
17.2584896748159
 40
2.03
 41
0.86
  1
10/11/29
  7
Font_0
100
AcDbText
  0
TEXT
  5
319
100
AcDbEntity
  8
画層1
 62
7
100
AcDbText
  6
BYLAYER
 62
7
 10
135.035183
 20
17.2584896748159
 40
2.03
 41
0.86
  1
10/11/29
  7
Font_0
100
AcDbText
  0
TEXT
  5
31A
100
AcDbEntity
  8
画層1
 62
7
100
AcDbText
  6
BYLAYER
 62
7
 10
151.035183
 20
17.2584896748159
 40
2.03
 41
0.86
  1
10/11/29
  7
Font_0
100
AcDbText
  0
TEXT
  5
31B
100
AcDbEntity
  8
画層1
 62
7
100
AcDbText
  6
BYLAYER
 62
7
 10
167.035184
 20
17.2584896748159
 40
2.03
 41
0.86
  1
10/06/01
  7
Font_0
100
AcDbText
  0
TEXT
  5
31C
100
AcDbEntity
  8
画層1
 62
7
100
AcDbText
  6
BYLAYER
 62
7
 10
39.862
 20
16.8493766748159
 40
3.43
  1
２０１０年１１月２９日
  7
Font_0
100
AcDbText
  0
TEXT
  5
31D
100
AcDbEntity
  8
画層1
 62
7
100
AcDbText
  6
BYLAYER
 62
7
 10
68.24
 20
189.764376674816
 40
3.2
  1
１．０
  7
Font_0
100
AcDbText
  0
TEXT
  5
31E
100
AcDbEntity
  8
画層1
 62
7
100
AcDbText
  6
BYLAYER
 62
7
 10
64.4
 20
176.964376674816
 40
3.2
  1
１１０ｍｍ
  7
Font_0
100
AcDbText
  0
TEXT
  5
31F
100
AcDbEntity
  8
画層1
 62
7
100
AcDbText
  6
BYLAYER
 62
7
 10
64.4
 20
170.564376674816
 40
3.2
  1
１６００μ
  7
Font_0
100
AcDbText
  0
TEXT
  5
320
100
AcDbEntity
  8
画層1
 62
7
100
AcDbText
  6
BYLAYER
 62
7
 10
64.4
 20
164.164376674816
 40
3.2
  1
１３．４μ
  7
Font_0
100
AcDbText
  0
TEXT
  5
321
100
AcDbEntity
  8
画層1
 62
7
100
AcDbText
  6
BYLAYER
 62
7
 10
70.16
 20
157.764376674816
 40
3.2
  1
２０
  7
Font_0
100
AcDbText
  0
TEXT
  5
322
100
AcDbEntity
  8
画層1
 62
7
100
AcDbText
  6
BYLAYER
 62
7
 10
64.4
 20
151.364376674816
 40
3.2
  1
０．０２５
  7
Font_0
100
AcDbText
  0
TEXT
  5
323
100
AcDbEntity
  8
画層1
 62
7
100
AcDbText
  6
BYLAYER
 62
7
 10
70.16
 20
138.564376674816
 40
3.2
  1
６４
  7
Font_0
100
AcDbText
  0
TEXT
  5
324
100
AcDbEntity
  8
画層1
 62
7
100
AcDbText
  6
BYLAYER
 62
7
 10
66.32
 20
132.164376674816
 40
3.2
  1
１／２″
  7
Font_0
100
AcDbText
  0
TEXT
  5
325
100
AcDbEntity
  8
画層1
 62
7
100
AcDbText
  6
BYLAYER
 62
7
 10
64.4
 20
144.964376674816
 40
3.2
  1
０．０６％
  7
Font_0
100
AcDbText
  0
TEXT
  5
326
100
AcDbEntity
  8
画層5
 62
7
100
AcDbText
  6
BYLAYER
 62
7
 10
168.275
 20
29.4893766748159
 40
3.15
  1
承 認
  7
Font_0
100
AcDbText
  0
TEXT
  5
327
100
AcDbEntity
  8
画層5
 62
7
100
AcDbText
  6
BYLAYER
 62
7
 10
152.275
 20
29.4893766748159
 40
3.15
  1
検 図
  7
Font_0
100
AcDbText
  0
TEXT
  5
328
100
AcDbEntity
  8
画層5
 62
7
100
AcDbText
  6
BYLAYER
 62
7
 10
120.275
 20
29.4893766748159
 40
3.15
  1
製 図
  7
Font_0
100
AcDbText
  0
TEXT
  5
329
100
AcDbEntity
  8
画層5
 62
7
100
AcDbText
  6
BYLAYER
 62
7
 10
129.66
 20
34.4893766748159
 40
3.15
  1
部   品   名
  7
Font_0
100
AcDbText
  0
TEXT
  5
32A
100
AcDbEntity
  8
画層5
 62
7
100
AcDbText
  6
BYLAYER
 62
7
 10
242.77
 20
34.4893766748159
 40
3.15
  1
表  面  処  理
  7
Font_0
100
AcDbText
  0
TEXT
  5
32B
100
AcDbEntity
  8
画層5
 62
7
100
AcDbText
  6
BYLAYER
 62
7
 10
15.91912
 20
17.2386706748159
 40
3.15
  1
日付
  7
Font_0
100
AcDbText
  0
TEXT
  5
32C
100
AcDbEntity
  8
画層5
 62
7
100
AcDbText
  6
BYLAYER
 62
7
 10
103.098
 20
14.7143766748159
 40
2.7
 41
1.05
  1
三角法
  7
Font_0
100
AcDbText
  0
TEXT
  5
32D
100
AcDbEntity
  8
画層5
 62
7
100
AcDbText
  6
BYLAYER
 62
7
 10
54.053436
 20
24.0752056748159
 40
2.4
  1
訂  正  記  事
  7
Font_0
100
AcDbText
  0
TEXT
  5
32E
100
AcDbEntity
  8
画層5
 62
7
100
AcDbText
  6
BYLAYER
 62
7
 10
11.899486
 20
24.4138256748159
 40
1.8
  1
符号
  7
Font_0
100
AcDbText
  0
TEXT
  5
32F
100
AcDbEntity
  8
画層5
 62
7
100
AcDbText
  6
BYLAYER
 62
7
 10
30.612385
 20
24.1138246748159
 40
2.4
  1
担当
  7
Font_0
100
AcDbText
  0
TEXT
  5
330
100
AcDbEntity
  8
画層5
 62
7
100
AcDbText
  6
BYLAYER
 62
7
 10
18.928051
 20
24.0469946748159
 40
2.4
  1
年月日
  7
Font_0
100
AcDbText
  0
TEXT
  5
331
100
AcDbEntity
  8
画層5
 62
7
100
AcDbText
  6
BYLAYER
 62
7
 10
13.740244
 20
27.7109706748159
 40
1.356
 41
0.577433
  1
1
  7
Font_0
100
AcDbText
  0
TEXT
  5
332
100
AcDbEntity
  8
画層5
 62
7
100
AcDbText
  6
BYLAYER
 62
7
 10
13.607694
 20
31.0372106748159
 40
1.356
 41
0.577433
  1
2
  7
Font_0
100
AcDbText
  0
TEXT
  5
333
100
AcDbEntity
  8
画層5
 62
7
100
AcDbText
  6
BYLAYER
 62
7
 10
195.94
 20
34.4893766748159
 40
3.15
  1
材    質
  7
Font_0
100
AcDbText
  0
TEXT
  5
334
100
AcDbEntity
  8
画層5
 62
7
100
AcDbText
  6
BYLAYER
 62
7
 10
169.22
 20
34.4893766748159
 40
3.15
  1
個数
  7
Font_0
100
AcDbText
  0
TEXT
  5
335
100
AcDbEntity
  8
画層5
 62
7
100
AcDbText
  6
BYLAYER
 62
7
 10
98.94
 20
34.4893766748159
 40
3.15
  1
部品番号
  7
Font_0
100
AcDbText
  0
TEXT
  5
336
100
AcDbEntity
  8
画層5
 62
7
100
AcDbText
  6
BYLAYER
 62
7
 10
101.883
 20
29.4893766748159
 40
3.15
 41
1.221429
  1
尺度
  7
Font_0
100
AcDbText
  0
TEXT
  5
337
100
AcDbEntity
  8
画層5
 62
7
100
AcDbText
  6
BYLAYER
 62
7
 10
226.65
 20
15.2143766748159
 40
2.7
 41
1.266667
  1
番
  7
Font_0
100
AcDbText
  0
TEXT
  5
338
100
AcDbEntity
  8
画層5
 62
7
100
AcDbText
  6
BYLAYER
 62
7
 10
226.65
 20
19.7143766748159
 40
2.7
 41
1.266667
  1
図
  7
Font_0
100
AcDbText
  0
TEXT
  5
339
100
AcDbEntity
  8
画層5
 62
7
100
AcDbText
  6
BYLAYER
 62
7
 10
181.668525
 20
28.9316096748159
 40
2.7
 41
1.266667
  1
仕
  7
Font_0
100
AcDbText
  0
TEXT
  5
33A
100
AcDbEntity
  8
画層5
 62
7
100
AcDbText
  6
BYLAYER
 62
7
 10
181.668525
 20
25.4316096748159
 40
2.7
 41
1.27
  1
上
  7
Font_0
100
AcDbText
  0
TEXT
  5
33B
100
AcDbEntity
  8
画層5
 62
7
100
AcDbText
  6
BYLAYER
 62
7
 10
182.015468
 20
15.6597366748159
 40
2.7
 41
1.203333
  1
取
  7
Font_0
100
AcDbText
  0
TEXT
  5
33C
100
AcDbEntity
  8
画層5
 62
7
100
AcDbText
  6
BYLAYER
 62
7
 10
182.015468
 20
19.1597366748159
 40
2.7
 41
1.203333
  1
面
  7
Font_0
100
AcDbText
  0
TEXT
  5
33D
100
AcDbEntity
  8
画層5
 62
7
100
AcDbText
  6
BYLAYER
 62
7
 10
136.275
 20
29.4893766748159
 40
3.15
  1
設 計
  7
Font_0
100
AcDbText
  0
TEXT
  5
33E
100
AcDbEntity
  8
画層5
 62
7
100
AcDbText
  6
BYLAYER
 62
7
 10
226.729914
 20
24.2499286748159
 40
2.7
 41
1.266667
  1
名
  7
Font_0
100
AcDbText
  0
TEXT
  5
33F
100
AcDbEntity
  8
画層5
 62
7
100
AcDbText
  6
BYLAYER
 62
7
 10
226.729914
 20
27.3499286748159
 40
2.7
 41
1.266667
  1
品
  7
Font_0
100
AcDbText
  0
TEXT
  5
340
100
AcDbEntity
  8
画層5
 62
7
100
AcDbText
  6
BYLAYER
 62
7
 10
226.729914
 20
30.4499286748159
 40
2.7
 41
1.266667
  1
製
  7
Font_0
100
AcDbText
  0
TEXT
  5
341
100
AcDbEntity
  8
画層1
 62
7
100
AcDbText
  6
BYLAYER
 62
7
 10
64.4
 20
183.364376674816
 40
3.2
  1
２１０ｍｍ
  7
Font_0
100
AcDbText
  0
TEXT
  5
342
100
AcDbEntity
  8
画層0
100
AcDbText
  6
CONTINUOUS
 10
233.114131638467
 20
159.423364248116
 40
3.3
  1
Φ12ライトガイド用
  7
Font_0
100
AcDbText
  0
TEXT
  5
343
100
AcDbEntity
  8
画層0
100
AcDbText
  6
CONTINUOUS
 10
231.85
 20
88.35
 40
3.3
  1
製品名：KCM-1D-110C
  7
Font_0
100
AcDbText
  0
TEXT
  5
344
100
AcDbEntity
  8
画層0
100
AcDbText
  6
CONTINUOUS
 10
234.07163328811
 20
82.1739156854541
 40
3.3
  1
（カスタム対応可能）
  7
Font_0
100
AcDbText
  0
LWPOLYLINE
  5
345
100
AcDbEntity
  8
画層0
100
AcDbPolyline
  6
CONTINUOUS
 90
     4
 70
     1
 10
279.189212873886
  20
169.247073174816
 10
219.189212873886
  20
169.247073174816
 10
219.189212873886
  20
69.2470731748159
 10
279.189212873886
  20
69.2470731748159
  0
TEXT
  5
346
100
AcDbEntity
  8
画層0
100
AcDbText
  6
CONTINUOUS
 10
161.030773454998
 20
138.451585269291
 40
3.3
  1
Φ８ライトガイド用
  7
Font_0
100
AcDbText
  0
ENDSEC
  0
SECTION
  2
OBJECTS
  0
DICTIONARY
  5
347
100
AcDbDictionary
  3
ACAD_GROUP
350
348
  3
ACAD_MLINESTYLE
350
349
  0
DICTIONARY
  5
348
102
{ACAD_REACTORS
330
347
102
}
100
AcDbDictionary
  0
DICTIONARY
  5
349
102
{ACAD_REACTORS
330
347
102
}
100
AcDbDictionary
  3
STANDARD
350
34A
  0
MLINESTYLE
  5
34A
102
{ACAD_REACTORS
330
349
102
}
100
AcDbMlineStyle
  2
Standard
 70
     0
  3

 62
     0
 51
90.0
 52
90.0
 71
     2
 49
0.5
 62
   256
  6
ByLayer
 49
-0.5
 62
   256
  6
ByLayer
  0
ENDSEC
  0
EOF
