999
Outputted By AR_CAD Ver.1.5.2a
  0
SECTION
  2
HEADER
  9
$ACADVER
  1
AC1009
  9
$DWGCODEPAGE
  3
DOS932
  9
$EXTMIN
 10
0
 20
0
  9
$EXTMAX
 10
297
 20
210
  9
$INSBASE
 10
0.0
 20
0.0
 30
0.0
  9
$HANDLING
 70
     1
  9
$LTSCALE
 40
1
  0
ENDSEC
  0
SECTION
  2
TABLES
  0
TABLE
  2
LTYPE
 70
     8
  0
LTYPE
  2
BYBLOCK
 70
    64
 3

 72
    65
 73
    0
 40
    0
  0
LTYPE
  2
BYLAYER
 70
    64
 3

 72
    65
 73
    0
 40
    0
  0
LTYPE
  2
CONTINUOUS
 70
    64
 3
CONTINUOUS
 72
    65
 73
    0
 40
    0
  0
LTYPE
  2
DASHED
 70
    64
 3

 72
    65
 73
    2
 40
    3.5
 49
    2.91666666666667
 49
    -0.583333333333333
  0
LTYPE
  2
DOT
 70
    64
 3

 72
    65
 73
    2
 40
    0.5
 49
    0.25
 49
    -0.25
  0
LTYPE
  2
DASHDOT
 70
    64
 3

 72
    65
 73
    4
 40
    3.5
 49
    1.84210526315789
 49
    -0.552631578947368
 49
    0.552631578947368
 49
    -0.552631578947368
  0
LTYPE
  2
DIVIDE
 70
    64
 3

 72
    65
 73
    6
 40
    3.5
 49
    1.4
 49
    -0.42
 49
    0.42
 49
    -0.42
 49
    0.42
 49
    -0.42
  0
LTYPE
  2
HIDDEN
 70
    64
 3

 72
    65
 73
    2
 40
    4
 49
    2
 49
    -2
  0
LTYPE
  2
CENTER
 70
    64
 3

 72
    65
 73
    4
 40
    2
 49
    1.25
 49
    -0.25
 49
    0.25
 49
    -0.25
  0
ENDTAB
  0
TABLE
  2
LAYER
 70
   257
  0
LAYER
  2
画層0
 70
    0
 62
7
  6
CONTINUOUS
  0
LAYER
  2
画層1
 70
    0
 62
3
  6
CONTINUOUS
  0
LAYER
  2
画層2
 70
    0
 62
9
  6
CONTINUOUS
  0
LAYER
  2
画層3
 70
    0
 62
7
  6
CONTINUOUS
  0
LAYER
  2
画層4
 70
    0
 62
6
  6
CONTINUOUS
  0
LAYER
  2
画層5
 70
    0
 62
1
  6
CONTINUOUS
  0
LAYER
  2
画層6
 70
    0
 62
7
  6
CONTINUOUS
  0
LAYER
  2
画層7
 70
    0
 62
51
  6
CONTINUOUS
  0
LAYER
  2
画層8
 70
    0
 62
61
  6
CONTINUOUS
  0
LAYER
  2
画層9
 70
    0
 62
111
  6
CONTINUOUS
  0
LAYER
  2
画層10
 70
    0
 62
91
  6
CONTINUOUS
  0
LAYER
  2
画層11
 70
    0
 62
131
  6
CONTINUOUS
  0
LAYER
  2
画層12
 70
    0
 62
161
  6
CONTINUOUS
  0
LAYER
  2
画層13
 70
    0
 62
5
  6
CONTINUOUS
  0
LAYER
  2
画層14
 70
    0
 62
7
  6
CONTINUOUS
  0
LAYER
  2
画層15
 70
    0
 62
11
  6
CONTINUOUS
  0
LAYER
  2
画層16
 70
    0
 62
7
  6
CONTINUOUS
  0
LAYER
  2
画層17
 70
    0
 62
70
  6
CONTINUOUS
  0
LAYER
  2
画層18
 70
    0
 62
211
  6
CONTINUOUS
  0
LAYER
  2
画層19
 70
    0
 62
137
  6
CONTINUOUS
  0
LAYER
  2
画層20
 70
    0
 62
4
  6
CONTINUOUS
  0
LAYER
  2
画層21
 70
    0
 62
131
  6
CONTINUOUS
  0
LAYER
  2
画層22
 70
    0
 62
4
  6
CONTINUOUS
  0
LAYER
  2
画層23
 70
    0
 62
4
  6
CONTINUOUS
  0
LAYER
  2
画層24
 70
    0
 62
7
  6
CONTINUOUS
  0
LAYER
  2
画層25
 70
    0
 62
7
  6
CONTINUOUS
  0
LAYER
  2
画層26
 70
    0
 62
7
  6
CONTINUOUS
  0
LAYER
  2
画層27
 70
    0
 62
7
  6
CONTINUOUS
  0
LAYER
  2
画層28
 70
    0
 62
7
  6
CONTINUOUS
  0
LAYER
  2
画層29
 70
    0
 62
7
  6
CONTINUOUS
  0
LAYER
  2
画層30
 70
    0
 62
7
  6
CONTINUOUS
  0
LAYER
  2
画層31
 70
    0
 62
7
  6
CONTINUOUS
  0
LAYER
  2
画層32
 70
    0
 62
7
  6
CONTINUOUS
  0
LAYER
  2
画層33
 70
    0
 62
7
  6
CONTINUOUS
  0
LAYER
  2
画層34
 70
    0
 62
7
  6
CONTINUOUS
  0
LAYER
  2
画層35
 70
    0
 62
7
  6
CONTINUOUS
  0
LAYER
  2
画層36
 70
    0
 62
7
  6
CONTINUOUS
  0
LAYER
  2
画層37
 70
    0
 62
7
  6
CONTINUOUS
  0
LAYER
  2
画層38
 70
    0
 62
7
  6
CONTINUOUS
  0
LAYER
  2
画層39
 70
    0
 62
7
  6
CONTINUOUS
  0
LAYER
  2
画層40
 70
    0
 62
7
  6
CONTINUOUS
  0
LAYER
  2
画層41
 70
    0
 62
7
  6
CONTINUOUS
  0
LAYER
  2
画層42
 70
    0
 62
7
  6
CONTINUOUS
  0
LAYER
  2
画層43
 70
    0
 62
7
  6
CONTINUOUS
  0
LAYER
  2
画層44
 70
    0
 62
7
  6
CONTINUOUS
  0
LAYER
  2
画層45
 70
    0
 62
7
  6
CONTINUOUS
  0
LAYER
  2
画層46
 70
    0
 62
7
  6
CONTINUOUS
  0
LAYER
  2
画層47
 70
    0
 62
7
  6
CONTINUOUS
  0
LAYER
  2
画層48
 70
    0
 62
7
  6
CONTINUOUS
  0
LAYER
  2
画層49
 70
    0
 62
7
  6
CONTINUOUS
  0
LAYER
  2
画層50
 70
    0
 62
7
  6
CONTINUOUS
  0
LAYER
  2
画層51
 70
    0
 62
7
  6
CONTINUOUS
  0
LAYER
  2
画層52
 70
    0
 62
7
  6
CONTINUOUS
  0
LAYER
  2
画層53
 70
    0
 62
7
  6
CONTINUOUS
  0
LAYER
  2
画層54
 70
    0
 62
7
  6
CONTINUOUS
  0
LAYER
  2
画層55
 70
    0
 62
7
  6
CONTINUOUS
  0
LAYER
  2
画層56
 70
    0
 62
7
  6
CONTINUOUS
  0
LAYER
  2
画層57
 70
    0
 62
7
  6
CONTINUOUS
  0
LAYER
  2
画層58
 70
    0
 62
7
  6
CONTINUOUS
  0
LAYER
  2
画層59
 70
    0
 62
7
  6
CONTINUOUS
  0
LAYER
  2
画層60
 70
    0
 62
7
  6
CONTINUOUS
  0
LAYER
  2
画層61
 70
    0
 62
7
  6
CONTINUOUS
  0
LAYER
  2
画層62
 70
    0
 62
7
  6
CONTINUOUS
  0
LAYER
  2
画層63
 70
    0
 62
7
  6
CONTINUOUS
  0
LAYER
  2
画層64
 70
    0
 62
7
  6
CONTINUOUS
  0
LAYER
  2
画層65
 70
    0
 62
7
  6
CONTINUOUS
  0
LAYER
  2
画層66
 70
    0
 62
7
  6
CONTINUOUS
  0
LAYER
  2
画層67
 70
    0
 62
7
  6
CONTINUOUS
  0
LAYER
  2
画層68
 70
    0
 62
7
  6
CONTINUOUS
  0
LAYER
  2
画層69
 70
    0
 62
7
  6
CONTINUOUS
  0
LAYER
  2
画層70
 70
    0
 62
7
  6
CONTINUOUS
  0
LAYER
  2
画層71
 70
    0
 62
7
  6
CONTINUOUS
  0
LAYER
  2
画層72
 70
    0
 62
7
  6
CONTINUOUS
  0
LAYER
  2
画層73
 70
    0
 62
7
  6
CONTINUOUS
  0
LAYER
  2
画層74
 70
    0
 62
7
  6
CONTINUOUS
  0
LAYER
  2
画層75
 70
    0
 62
7
  6
CONTINUOUS
  0
LAYER
  2
画層76
 70
    0
 62
7
  6
CONTINUOUS
  0
LAYER
  2
画層77
 70
    0
 62
7
  6
CONTINUOUS
  0
LAYER
  2
画層78
 70
    0
 62
7
  6
CONTINUOUS
  0
LAYER
  2
画層79
 70
    0
 62
7
  6
CONTINUOUS
  0
LAYER
  2
画層80
 70
    0
 62
7
  6
CONTINUOUS
  0
LAYER
  2
画層81
 70
    0
 62
7
  6
CONTINUOUS
  0
LAYER
  2
画層82
 70
    0
 62
7
  6
CONTINUOUS
  0
LAYER
  2
画層83
 70
    0
 62
7
  6
CONTINUOUS
  0
LAYER
  2
画層84
 70
    0
 62
7
  6
CONTINUOUS
  0
LAYER
  2
画層85
 70
    0
 62
7
  6
CONTINUOUS
  0
LAYER
  2
画層86
 70
    0
 62
7
  6
CONTINUOUS
  0
LAYER
  2
画層87
 70
    0
 62
7
  6
CONTINUOUS
  0
LAYER
  2
画層88
 70
    0
 62
7
  6
CONTINUOUS
  0
LAYER
  2
画層89
 70
    0
 62
7
  6
CONTINUOUS
  0
LAYER
  2
画層90
 70
    0
 62
7
  6
CONTINUOUS
  0
LAYER
  2
画層91
 70
    0
 62
7
  6
CONTINUOUS
  0
LAYER
  2
画層92
 70
    0
 62
7
  6
CONTINUOUS
  0
LAYER
  2
画層93
 70
    0
 62
7
  6
CONTINUOUS
  0
LAYER
  2
画層94
 70
    0
 62
7
  6
CONTINUOUS
  0
LAYER
  2
画層95
 70
    0
 62
7
  6
CONTINUOUS
  0
LAYER
  2
画層96
 70
    0
 62
7
  6
CONTINUOUS
  0
LAYER
  2
画層97
 70
    0
 62
7
  6
CONTINUOUS
  0
LAYER
  2
画層98
 70
    0
 62
7
  6
CONTINUOUS
  0
LAYER
  2
画層99
 70
    0
 62
7
  6
CONTINUOUS
  0
LAYER
  2
画層100
 70
    0
 62
7
  6
CONTINUOUS
  0
LAYER
  2
画層101
 70
    0
 62
7
  6
CONTINUOUS
  0
LAYER
  2
画層102
 70
    0
 62
7
  6
CONTINUOUS
  0
LAYER
  2
画層103
 70
    0
 62
7
  6
CONTINUOUS
  0
LAYER
  2
画層104
 70
    0
 62
7
  6
CONTINUOUS
  0
LAYER
  2
画層105
 70
    0
 62
7
  6
CONTINUOUS
  0
LAYER
  2
画層106
 70
    0
 62
7
  6
CONTINUOUS
  0
LAYER
  2
画層107
 70
    0
 62
7
  6
CONTINUOUS
  0
LAYER
  2
画層108
 70
    0
 62
7
  6
CONTINUOUS
  0
LAYER
  2
画層109
 70
    0
 62
7
  6
CONTINUOUS
  0
LAYER
  2
画層110
 70
    0
 62
7
  6
CONTINUOUS
  0
LAYER
  2
画層111
 70
    0
 62
7
  6
CONTINUOUS
  0
LAYER
  2
画層112
 70
    0
 62
7
  6
CONTINUOUS
  0
LAYER
  2
画層113
 70
    0
 62
7
  6
CONTINUOUS
  0
LAYER
  2
画層114
 70
    0
 62
7
  6
CONTINUOUS
  0
LAYER
  2
画層115
 70
    0
 62
7
  6
CONTINUOUS
  0
LAYER
  2
画層116
 70
    0
 62
7
  6
CONTINUOUS
  0
LAYER
  2
画層117
 70
    0
 62
7
  6
CONTINUOUS
  0
LAYER
  2
画層118
 70
    0
 62
7
  6
CONTINUOUS
  0
LAYER
  2
画層119
 70
    0
 62
7
  6
CONTINUOUS
  0
LAYER
  2
画層120
 70
    0
 62
7
  6
CONTINUOUS
  0
LAYER
  2
画層121
 70
    0
 62
7
  6
CONTINUOUS
  0
LAYER
  2
画層122
 70
    0
 62
7
  6
CONTINUOUS
  0
LAYER
  2
画層123
 70
    0
 62
7
  6
CONTINUOUS
  0
LAYER
  2
画層124
 70
    0
 62
7
  6
CONTINUOUS
  0
LAYER
  2
画層125
 70
    0
 62
7
  6
CONTINUOUS
  0
LAYER
  2
画層126
 70
    0
 62
7
  6
CONTINUOUS
  0
LAYER
  2
画層127
 70
    0
 62
7
  6
CONTINUOUS
  0
LAYER
  2
画層128
 70
    0
 62
7
  6
CONTINUOUS
  0
LAYER
  2
画層129
 70
    0
 62
7
  6
CONTINUOUS
  0
LAYER
  2
画層130
 70
    0
 62
7
  6
CONTINUOUS
  0
LAYER
  2
画層131
 70
    0
 62
7
  6
CONTINUOUS
  0
LAYER
  2
画層132
 70
    0
 62
7
  6
CONTINUOUS
  0
LAYER
  2
画層133
 70
    0
 62
7
  6
CONTINUOUS
  0
LAYER
  2
画層134
 70
    0
 62
7
  6
CONTINUOUS
  0
LAYER
  2
画層135
 70
    0
 62
7
  6
CONTINUOUS
  0
LAYER
  2
画層136
 70
    0
 62
7
  6
CONTINUOUS
  0
LAYER
  2
画層137
 70
    0
 62
7
  6
CONTINUOUS
  0
LAYER
  2
画層138
 70
    0
 62
7
  6
CONTINUOUS
  0
LAYER
  2
画層139
 70
    0
 62
7
  6
CONTINUOUS
  0
LAYER
  2
画層140
 70
    0
 62
7
  6
CONTINUOUS
  0
LAYER
  2
画層141
 70
    0
 62
7
  6
CONTINUOUS
  0
LAYER
  2
画層142
 70
    0
 62
7
  6
CONTINUOUS
  0
LAYER
  2
画層143
 70
    0
 62
7
  6
CONTINUOUS
  0
LAYER
  2
画層144
 70
    0
 62
7
  6
CONTINUOUS
  0
LAYER
  2
画層145
 70
    0
 62
7
  6
CONTINUOUS
  0
LAYER
  2
画層146
 70
    0
 62
7
  6
CONTINUOUS
  0
LAYER
  2
画層147
 70
    0
 62
7
  6
CONTINUOUS
  0
LAYER
  2
画層148
 70
    0
 62
7
  6
CONTINUOUS
  0
LAYER
  2
画層149
 70
    0
 62
7
  6
CONTINUOUS
  0
LAYER
  2
画層150
 70
    0
 62
7
  6
CONTINUOUS
  0
LAYER
  2
画層151
 70
    0
 62
7
  6
CONTINUOUS
  0
LAYER
  2
画層152
 70
    0
 62
7
  6
CONTINUOUS
  0
LAYER
  2
画層153
 70
    0
 62
7
  6
CONTINUOUS
  0
LAYER
  2
画層154
 70
    0
 62
7
  6
CONTINUOUS
  0
LAYER
  2
画層155
 70
    0
 62
7
  6
CONTINUOUS
  0
LAYER
  2
画層156
 70
    0
 62
7
  6
CONTINUOUS
  0
LAYER
  2
画層157
 70
    0
 62
7
  6
CONTINUOUS
  0
LAYER
  2
画層158
 70
    0
 62
7
  6
CONTINUOUS
  0
LAYER
  2
画層159
 70
    0
 62
7
  6
CONTINUOUS
  0
LAYER
  2
画層160
 70
    0
 62
7
  6
CONTINUOUS
  0
LAYER
  2
画層161
 70
    0
 62
7
  6
CONTINUOUS
  0
LAYER
  2
画層162
 70
    0
 62
7
  6
CONTINUOUS
  0
LAYER
  2
画層163
 70
    0
 62
7
  6
CONTINUOUS
  0
LAYER
  2
画層164
 70
    0
 62
7
  6
CONTINUOUS
  0
LAYER
  2
画層165
 70
    0
 62
7
  6
CONTINUOUS
  0
LAYER
  2
画層166
 70
    0
 62
7
  6
CONTINUOUS
  0
LAYER
  2
画層167
 70
    0
 62
7
  6
CONTINUOUS
  0
LAYER
  2
画層168
 70
    0
 62
7
  6
CONTINUOUS
  0
LAYER
  2
画層169
 70
    0
 62
7
  6
CONTINUOUS
  0
LAYER
  2
画層170
 70
    0
 62
7
  6
CONTINUOUS
  0
LAYER
  2
画層171
 70
    0
 62
7
  6
CONTINUOUS
  0
LAYER
  2
画層172
 70
    0
 62
7
  6
CONTINUOUS
  0
LAYER
  2
画層173
 70
    0
 62
7
  6
CONTINUOUS
  0
LAYER
  2
画層174
 70
    0
 62
7
  6
CONTINUOUS
  0
LAYER
  2
画層175
 70
    0
 62
7
  6
CONTINUOUS
  0
LAYER
  2
画層176
 70
    0
 62
7
  6
CONTINUOUS
  0
LAYER
  2
画層177
 70
    0
 62
7
  6
CONTINUOUS
  0
LAYER
  2
画層178
 70
    0
 62
7
  6
CONTINUOUS
  0
LAYER
  2
画層179
 70
    0
 62
7
  6
CONTINUOUS
  0
LAYER
  2
画層180
 70
    0
 62
7
  6
CONTINUOUS
  0
LAYER
  2
画層181
 70
    0
 62
7
  6
CONTINUOUS
  0
LAYER
  2
画層182
 70
    0
 62
7
  6
CONTINUOUS
  0
LAYER
  2
画層183
 70
    0
 62
7
  6
CONTINUOUS
  0
LAYER
  2
画層184
 70
    0
 62
7
  6
CONTINUOUS
  0
LAYER
  2
画層185
 70
    0
 62
7
  6
CONTINUOUS
  0
LAYER
  2
画層186
 70
    0
 62
7
  6
CONTINUOUS
  0
LAYER
  2
画層187
 70
    0
 62
7
  6
CONTINUOUS
  0
LAYER
  2
画層188
 70
    0
 62
7
  6
CONTINUOUS
  0
LAYER
  2
画層189
 70
    0
 62
7
  6
CONTINUOUS
  0
LAYER
  2
画層190
 70
    0
 62
7
  6
CONTINUOUS
  0
LAYER
  2
画層191
 70
    0
 62
7
  6
CONTINUOUS
  0
LAYER
  2
画層192
 70
    0
 62
7
  6
CONTINUOUS
  0
LAYER
  2
画層193
 70
    0
 62
7
  6
CONTINUOUS
  0
LAYER
  2
画層194
 70
    0
 62
7
  6
CONTINUOUS
  0
LAYER
  2
画層195
 70
    0
 62
7
  6
CONTINUOUS
  0
LAYER
  2
画層196
 70
    0
 62
7
  6
CONTINUOUS
  0
LAYER
  2
画層197
 70
    0
 62
7
  6
CONTINUOUS
  0
LAYER
  2
画層198
 70
    0
 62
7
  6
CONTINUOUS
  0
LAYER
  2
画層199
 70
    0
 62
7
  6
CONTINUOUS
  0
LAYER
  2
画層200
 70
    0
 62
7
  6
CONTINUOUS
  0
LAYER
  2
画層201
 70
    0
 62
7
  6
CONTINUOUS
  0
LAYER
  2
画層202
 70
    0
 62
7
  6
CONTINUOUS
  0
LAYER
  2
画層203
 70
    0
 62
7
  6
CONTINUOUS
  0
LAYER
  2
画層204
 70
    0
 62
7
  6
CONTINUOUS
  0
LAYER
  2
画層205
 70
    0
 62
7
  6
CONTINUOUS
  0
LAYER
  2
画層206
 70
    0
 62
7
  6
CONTINUOUS
  0
LAYER
  2
画層207
 70
    0
 62
7
  6
CONTINUOUS
  0
LAYER
  2
画層208
 70
    0
 62
7
  6
CONTINUOUS
  0
LAYER
  2
画層209
 70
    0
 62
7
  6
CONTINUOUS
  0
LAYER
  2
画層210
 70
    0
 62
7
  6
CONTINUOUS
  0
LAYER
  2
画層211
 70
    0
 62
7
  6
CONTINUOUS
  0
LAYER
  2
画層212
 70
    0
 62
7
  6
CONTINUOUS
  0
LAYER
  2
画層213
 70
    0
 62
7
  6
CONTINUOUS
  0
LAYER
  2
画層214
 70
    0
 62
7
  6
CONTINUOUS
  0
LAYER
  2
画層215
 70
    0
 62
7
  6
CONTINUOUS
  0
LAYER
  2
画層216
 70
    0
 62
7
  6
CONTINUOUS
  0
LAYER
  2
画層217
 70
    0
 62
7
  6
CONTINUOUS
  0
LAYER
  2
画層218
 70
    0
 62
7
  6
CONTINUOUS
  0
LAYER
  2
画層219
 70
    0
 62
7
  6
CONTINUOUS
  0
LAYER
  2
画層220
 70
    0
 62
7
  6
CONTINUOUS
  0
LAYER
  2
画層221
 70
    0
 62
7
  6
CONTINUOUS
  0
LAYER
  2
画層222
 70
    0
 62
7
  6
CONTINUOUS
  0
LAYER
  2
画層223
 70
    0
 62
7
  6
CONTINUOUS
  0
LAYER
  2
画層224
 70
    0
 62
7
  6
CONTINUOUS
  0
LAYER
  2
画層225
 70
    0
 62
7
  6
CONTINUOUS
  0
LAYER
  2
画層226
 70
    0
 62
7
  6
CONTINUOUS
  0
LAYER
  2
画層227
 70
    0
 62
7
  6
CONTINUOUS
  0
LAYER
  2
画層228
 70
    0
 62
7
  6
CONTINUOUS
  0
LAYER
  2
画層229
 70
    0
 62
7
  6
CONTINUOUS
  0
LAYER
  2
画層230
 70
    0
 62
7
  6
CONTINUOUS
  0
LAYER
  2
画層231
 70
    0
 62
7
  6
CONTINUOUS
  0
LAYER
  2
画層232
 70
    0
 62
7
  6
CONTINUOUS
  0
LAYER
  2
画層233
 70
    0
 62
7
  6
CONTINUOUS
  0
LAYER
  2
画層234
 70
    0
 62
7
  6
CONTINUOUS
  0
LAYER
  2
画層235
 70
    0
 62
7
  6
CONTINUOUS
  0
LAYER
  2
画層236
 70
    0
 62
7
  6
CONTINUOUS
  0
LAYER
  2
画層237
 70
    0
 62
7
  6
CONTINUOUS
  0
LAYER
  2
画層238
 70
    0
 62
7
  6
CONTINUOUS
  0
LAYER
  2
画層239
 70
    0
 62
7
  6
CONTINUOUS
  0
LAYER
  2
画層240
 70
    0
 62
7
  6
CONTINUOUS
  0
LAYER
  2
画層241
 70
    0
 62
7
  6
CONTINUOUS
  0
LAYER
  2
画層242
 70
    0
 62
7
  6
CONTINUOUS
  0
LAYER
  2
画層243
 70
    0
 62
7
  6
CONTINUOUS
  0
LAYER
  2
画層244
 70
    0
 62
7
  6
CONTINUOUS
  0
LAYER
  2
画層245
 70
    0
 62
7
  6
CONTINUOUS
  0
LAYER
  2
画層246
 70
    0
 62
7
  6
CONTINUOUS
  0
LAYER
  2
画層247
 70
    0
 62
7
  6
CONTINUOUS
  0
LAYER
  2
画層248
 70
    0
 62
7
  6
CONTINUOUS
  0
LAYER
  2
画層249
 70
    0
 62
7
  6
CONTINUOUS
  0
LAYER
  2
画層250
 70
    0
 62
7
  6
CONTINUOUS
  0
LAYER
  2
画層251
 70
    0
 62
7
  6
CONTINUOUS
  0
LAYER
  2
画層252
 70
    0
 62
7
  6
CONTINUOUS
  0
LAYER
  2
画層253
 70
    0
 62
7
  6
CONTINUOUS
  0
LAYER
  2
画層254
 70
    0
 62
7
  6
CONTINUOUS
  0
LAYER
  2
画層255
 70
    0
 62
7
  6
CONTINUOUS
  0
LAYER
  2
0
 70
   64
 62
    7
  6
CONTINUOUS
  0
ENDTAB
  0
TABLE
  2
STYLE
 70
     1
  0
STYLE
  2
Standard
 70
     0
 40
0.0
 41
1.0
 50
0.0
 71
     0
 42
3.2
  3
TXT
  4
BIGFONT
  0
STYLE
  2
Font_0
 70
     0
 40
0.0
 41
1.0
 50
0.0
 71
     0
 42
3.2
  3
txt
  4
BIGFONT
  0
ENDTAB
  0
ENDSEC
  0
SECTION
  2
BLOCKS
  0
BLOCK
  8
画層0
  2
13462_KCAD_FINI-1
 70
    0
 10
0
 20
0
 30
0.0
  3
13462_KCAD_FINI-1
  1

  0
LINE
  8
画層1
  6
BYLAYER
 62
134
 10
366.567794
 20
109.774233
 11
368.415315
 21
112.974233
  0
LINE
  8
画層1
  6
BYLAYER
 62
134
 10
368.415315
 20
112.974233
 11
364.720273
 21
112.974233
  0
LINE
  8
画層1
  6
BYLAYER
 62
134
 10
364.720273
 20
112.974233
 11
366.567794
 21
109.774233
  0
LINE
  8
画層1
  6
BYLAYER
 62
134
 10
370.262836
 20
109.774233
 11
372.110357
 21
112.974233
  0
LINE
  8
画層1
  6
BYLAYER
 62
134
 10
372.110357
 20
112.974233
 11
368.415315
 21
112.974233
  0
LINE
  8
画層1
  6
BYLAYER
 62
134
 10
368.415315
 20
112.974233
 11
370.262836
 21
109.774233
  0
LINE
  8
画層1
  6
BYLAYER
 62
134
 10
373.957878
 20
109.774233
 11
375.805398
 21
112.974233
  0
LINE
  8
画層1
  6
BYLAYER
 62
134
 10
375.805398
 20
112.974233
 11
372.110357
 21
112.974233
  0
LINE
  8
画層1
  6
BYLAYER
 62
134
 10
372.110357
 20
112.974233
 11
373.957878
 21
109.774233
  0
ENDBLK
  0
BLOCK
  8
画層0
  2
DIM-8
 70
    0
 10
0
 20
0
 30
0.0
  3
DIM-8
  1

  0
LINE
  8
画層2
  6
BYLAYER
 62
134
 10
407.512836
 20
168.240601
 11
407.512836
 21
185.640601
  0
LINE
  8
画層2
  6
BYLAYER
 62
134
 10
403.512836
 20
169.240601
 11
401.512836
 21
169.240601
  0
LINE
  8
画層2
  6
BYLAYER
 62
134
 10
410.512836
 20
168.436754
 11
407.512836
 21
169.240601
  0
LINE
  8
画層2
  6
BYLAYER
 62
134
 10
407.512836
 20
169.240601
 11
410.512836
 21
170.044448
  0
LINE
  8
画層2
  6
BYLAYER
 62
134
 10
407.512836
 20
169.240601
 11
410.512836
 21
169.240601
  0
LINE
  8
画層2
  6
BYLAYER
 62
134
 10
403.512836
 20
169.240601
 11
407.512836
 21
169.240601
  0
LINE
  8
画層2
  6
BYLAYER
 62
134
 10
401.512836
 20
169.240601
 11
399.512836
 21
169.240601
  0
LINE
  8
画層2
  6
BYLAYER
 62
134
 10
410.512836
 20
169.240601
 11
414.179469
 21
169.240601
  0
TEXT
  8
画層2
 62
134
  6
BYLAYER
 62
134
 10
411.512803
 20
169.773901
 40
3.2
  1
4
  7
Font_0
  0
ENDBLK
  0
BLOCK
  8
画層0
  2
DIM-9
 70
    0
 10
0
 20
0
 30
0.0
  3
DIM-9
  1

  0
LINE
  8
画層5
  6
BYLAYER
 10
296.762836
 20
94.042817
 11
302.438138
 21
94.042817
  0
LINE
  8
画層5
  6
BYLAYER
 10
308.10634
 20
94.042817
 11
309.162006
 21
94.042817
  0
LINE
  8
画層5
  6
BYLAYER
 10
313.987664
 20
94.042817
 11
315.042743
 21
94.042817
  0
LINE
  8
画層5
  6
BYLAYER
 10
298.988528
 20
91.782374
 11
300.176879
 21
91.782374
  0
LINE
  8
画層5
  6
BYLAYER
 10
302.213314
 20
91.782374
 11
303.18531
 21
91.782374
  0
LINE
  8
画層5
  6
BYLAYER
 10
306.446671
 20
91.782374
 11
307.560892
 21
91.782374
  0
LINE
  8
画層5
  6
BYLAYER
 10
308.10634
 20
91.782374
 11
309.162006
 21
91.782374
  0
LINE
  8
画層5
  6
BYLAYER
 10
309.603358
 20
91.782374
 11
311.111195
 21
91.782374
  0
LINE
  8
画層5
  6
BYLAYER
 10
313.987664
 20
91.782374
 11
315.042743
 21
91.782374
  0
LINE
  8
画層5
  6
BYLAYER
 10
315.659385
 20
91.782374
 11
316.719266
 21
91.782374
  0
LINE
  8
画層5
  6
BYLAYER
 10
319.778465
 20
91.782374
 11
320.838345
 21
91.782374
  0
LINE
  8
画層5
  6
BYLAYER
 10
321.995347
 20
91.782374
 11
326.762847
 21
91.782374
  0
ENDBLK
  0
ENDSEC
  0
SECTION
  2
ENTITIES
  0
INSERT
  8
画層1
  6
BYBLOCK
 62
7
  2
13462_KCAD_FINI-1
 10
-164.262836
 20
-82.4337303519209
 30
0.0
  0
INSERT
  8
画層2
  6
BYBLOCK
 62
7
  2
DIM-8
 10
-164.262836
 20
-82.4337303519209
 30
0.0
  0
INSERT
  8
画層5
  6
BYBLOCK
 62
7
  2
DIM-9
 10
-164.262836
 20
-82.4337303519209
 30
0.0
  0
LINE
  8
画層2
  6
BYLAYER
 62
7
 10
46.7
 20
112.538043648079
 11
46.7
 21
85.8068706480791
  0
LINE
  8
画層2
  6
BYLAYER
 62
7
 10
156.7
 20
107.606870648079
 11
156.7
 21
85.8068706480791
  0
LINE
  8
画層2
  6
BYLAYER
 62
7
 10
46.7
 20
86.8068706480791
 11
156.7
 21
86.8068706480791
  0
POLYLINE
  8
画層2
 62
7
  6
BYLAYER
 10
0.0
 20
0.0
 30
0.0
 66
1
  0
VERTEX
  8
画層2
 10
49.7
  20
86.0030236480791
  0
VERTEX
  8
画層2
 10
46.7
  20
86.8068706480791
  0
VERTEX
  8
画層2
 10
49.7
  20
87.6107176480791
  0
SEQEND
100
AcDbEntity
  8
画層2
  0
POLYLINE
  8
画層2
 62
7
  6
BYLAYER
 10
0.0
 20
0.0
 30
0.0
 66
1
  0
VERTEX
  8
画層2
 10
153.7
  20
87.6107176480791
  0
VERTEX
  8
画層2
 10
156.7
  20
86.8068706480791
  0
VERTEX
  8
画層2
 10
153.7
  20
86.0030236480791
  0
SEQEND
100
AcDbEntity
  8
画層2
  0
TEXT
  8
画層2
 62
7
  6
BYLAYER
 62
7
 10
89.698934
 20
88.1401706480791
 40
3.2
 41
0.642361
  1
Ｗ．Ｄ．＝１１０
  7
Font_0
  0
TEXT
  8
画層2
 62
7
  6
BYLAYER
 62
7
 10
109.432266
 20
88.6729706480791
 40
2.1344
 41
0.909091
  1
%%p２
  7
Font_0
  0
LINE
  8
画層2
  6
BYLAYER
 62
7
 10
239.25
 20
100.106870648079
 11
239.25
 21
85.8068706480791
  0
LINE
  8
画層2
  6
BYLAYER
 62
7
 10
156.7
 20
86.8068706480791
 11
239.25
 21
86.8068706480791
  0
POLYLINE
  8
画層2
 62
7
  6
BYLAYER
 10
0.0
 20
0.0
 30
0.0
 66
1
  0
VERTEX
  8
画層2
 10
159.7
  20
86.0030236480791
  0
VERTEX
  8
画層2
 10
156.7
  20
86.8068706480791
  0
VERTEX
  8
画層2
 10
159.7
  20
87.6107176480791
  0
SEQEND
100
AcDbEntity
  8
画層2
  0
POLYLINE
  8
画層2
 62
7
  6
BYLAYER
 10
0.0
 20
0.0
 30
0.0
 66
1
  0
VERTEX
  8
画層2
 10
236.25
  20
87.6107176480791
  0
VERTEX
  8
画層2
 10
239.25
  20
86.8068706480791
  0
VERTEX
  8
画層2
 10
236.25
  20
86.0030236480791
  0
SEQEND
100
AcDbEntity
  8
画層2
  0
TEXT
  8
画層2
 62
7
  6
BYLAYER
 62
7
 10
191.041667
 20
88.1401706480791
 40
3.2
 41
0.722222
  1
８２．５５
  7
Font_0
  0
LINE
  8
画層2
  6
BYLAYER
 62
7
 10
156
 20
124.306870648079
 11
147.90149
 21
124.306870648079
  0
LINE
  8
画層2
  6
BYLAYER
 62
7
 10
156
 20
108.306870648079
 11
147.90149
 21
108.306870648079
  0
LINE
  8
画層2
  6
BYLAYER
 62
7
 10
148.90149
 20
124.306870648079
 11
148.90149
 21
108.306870648079
  0
POLYLINE
  8
画層2
 62
7
  6
BYLAYER
 10
0.0
 20
0.0
 30
0.0
 66
1
  0
VERTEX
  8
画層2
 10
148.097643
  20
121.306870648079
  0
VERTEX
  8
画層2
 10
148.90149
  20
124.306870648079
  0
VERTEX
  8
画層2
 10
149.705337
  20
121.306870648079
  0
SEQEND
100
AcDbEntity
  8
画層2
  0
POLYLINE
  8
画層2
 62
7
  6
BYLAYER
 10
0.0
 20
0.0
 30
0.0
 66
1
  0
VERTEX
  8
画層2
 10
149.705337
  20
111.306870648079
  0
VERTEX
  8
画層2
 10
148.90149
  20
108.306870648079
  0
VERTEX
  8
画層2
 10
148.097643
  20
111.306870648079
  0
SEQEND
100
AcDbEntity
  8
画層2
  0
TEXT
  8
画層2
 62
7
  6
BYLAYER
 62
7
 10
147.56819
 20
112.040203648079
 40
3.2
 41
0.784314
  1
%%c１６
  7
Font_0
 50
90.000003
  0
LINE
  8
画層2
  6
BYLAYER
 62
7
 10
239.95
 20
100.806870648079
 11
263.566629
 21
100.806870648079
  0
LINE
  8
画層2
  6
BYLAYER
 62
7
 10
239.95
 20
131.806870648079
 11
263.566629
 21
131.806870648079
  0
LINE
  8
画層2
  6
BYLAYER
 62
7
 10
262.566629
 20
100.806870648079
 11
262.566629
 21
131.806870648079
  0
POLYLINE
  8
画層2
 62
7
  6
BYLAYER
 10
0.0
 20
0.0
 30
0.0
 66
1
  0
VERTEX
  8
画層2
 10
263.370476
  20
103.806870648079
  0
VERTEX
  8
画層2
 10
262.566629
  20
100.806870648079
  0
VERTEX
  8
画層2
 10
261.762782
  20
103.806870648079
  0
SEQEND
100
AcDbEntity
  8
画層2
  0
POLYLINE
  8
画層2
 62
7
  6
BYLAYER
 10
0.0
 20
0.0
 30
0.0
 66
1
  0
VERTEX
  8
画層2
 10
261.762782
  20
128.806870648079
  0
VERTEX
  8
画層2
 10
262.566629
  20
131.806870648079
  0
VERTEX
  8
画層2
 10
263.370476
  20
128.806870648079
  0
SEQEND
100
AcDbEntity
  8
画層2
  0
TEXT
  8
画層2
 62
7
  6
BYLAYER
 62
7
 10
261.233329
 20
112.040203648079
 40
3.2
 41
0.784314
  1
%%c３１
  7
Font_0
 50
90.000003
  0
LINE
  8
画層2
  6
BYLAYER
 62
7
 10
243.65
 20
103.606870648079
 11
257.581796
 21
103.606870648079
  0
LINE
  8
画層2
  6
BYLAYER
 62
7
 10
243.65
 20
129.006870648079
 11
257.581796
 21
129.006870648079
  0
LINE
  8
画層2
  6
BYLAYER
 62
7
 10
256.581796
 20
103.606870648079
 11
256.581796
 21
129.006870648079
  0
POLYLINE
  8
画層2
 62
7
  6
BYLAYER
 10
0.0
 20
0.0
 30
0.0
 66
1
  0
VERTEX
  8
画層2
 10
257.385643
  20
106.606870648079
  0
VERTEX
  8
画層2
 10
256.581796
  20
103.606870648079
  0
VERTEX
  8
画層2
 10
255.777949
  20
106.606870648079
  0
SEQEND
100
AcDbEntity
  8
画層2
  0
POLYLINE
  8
画層2
 62
7
  6
BYLAYER
 10
0.0
 20
0.0
 30
0.0
 66
1
  0
VERTEX
  8
画層2
 10
255.777949
  20
126.006870648079
  0
VERTEX
  8
画層2
 10
256.581796
  20
129.006870648079
  0
VERTEX
  8
画層2
 10
257.385643
  20
126.006870648079
  0
SEQEND
100
AcDbEntity
  8
画層2
  0
TEXT
  8
画層2
 62
7
  6
BYLAYER
 62
7
 10
255.248496
 20
106.706870648079
 40
3.2
  1
Ｃマウント
  7
Font_0
 50
90.000003
  0
LINE
  8
画層1
  6
CENTER
 62
7
 10
150.100769
 20
116.306870648079
 11
251.8571
 21
116.306870648079
  0
LINE
  8
画層1
  6
CENTER
 62
7
 10
43.522755
 20
116.306870648079
 11
143.650468
 21
116.306870648079
  0
LINE
  8
画層1
  6
BYLAYER
 62
7
 10
46.7
 20
113.538043648079
 11
46.7
 21
119.075697648079
  0
LINE
  8
画層1
  6
BYLAYER
 62
7
 10
157
 20
108.306870648079
 11
156.7
 21
108.606870648079
  0
LINE
  8
画層1
  6
BYLAYER
 62
7
 10
157
 20
108.306870648079
 11
189.25
 21
108.306870648079
  0
LINE
  8
画層1
  6
BYLAYER
 62
7
 10
189.45
 20
108.306870648079
 11
189.35
 21
108.406870648079
  0
LINE
  8
画層1
  6
BYLAYER
 62
7
 10
189.35
 20
108.406870648079
 11
189.25
 21
108.306870648079
  0
LINE
  8
画層1
  6
BYLAYER
 62
7
 10
205.25
 20
108.306870648079
 11
205.35
 21
108.406870648079
  0
LINE
  8
画層1
  6
BYLAYER
 62
7
 10
205.35
 20
108.406870648079
 11
205.45
 21
108.306870648079
  0
LINE
  8
画層1
  6
BYLAYER
 62
7
 10
189.35
 20
108.406870648079
 11
189.35
 21
124.206870648079
  0
LINE
  8
画層1
  6
BYLAYER
 62
7
 10
240.25
 20
103.606870648079
 11
240.25
 21
129.006870648079
  0
LINE
  8
画層1
  6
BYLAYER
 62
7
 10
157
 20
108.306870648079
 11
157
 21
124.306870648079
  0
LINE
  8
画層1
  6
BYLAYER
 62
7
 10
156.7
 20
108.606870648079
 11
156.7
 21
124.006870648079
  0
LINE
  8
画層1
  6
BYLAYER
 62
7
 10
205.35
 20
108.406870648079
 11
205.35
 21
124.206870648079
  0
LINE
  8
画層1
  6
BYLAYER
 62
7
 10
239.25
 20
101.106870648079
 11
239.25
 21
131.506870648079
  0
LINE
  8
画層1
  6
BYLAYER
 62
7
 10
232.75
 20
101.306870648079
 11
232.75
 21
131.306870648079
  0
LINE
  8
画層1
  6
BYLAYER
 62
7
 10
239.25
 20
104.056870648079
 11
243.1
 21
104.056870648079
  0
LINE
  8
画層1
  6
BYLAYER
 62
7
 10
242.65
 20
103.606870648079
 11
240.25
 21
103.606870648079
  0
LINE
  8
画層1
  6
BYLAYER
 62
7
 10
242.65
 20
103.606870648079
 11
243.25
 21
104.206870648079
  0
LINE
  8
画層1
  6
BYLAYER
 62
7
 10
242.65
 20
103.606870648079
 11
242.65
 21
129.006870648079
  0
LINE
  8
画層1
  6
BYLAYER
 62
7
 10
238.95
 20
100.806870648079
 11
233.25
 21
100.806870648079
  0
LINE
  8
画層1
  6
BYLAYER
 62
7
 10
239.25
 20
101.106870648079
 11
238.95
 21
100.806870648079
  0
LINE
  8
画層1
  6
BYLAYER
 62
7
 10
233.25
 20
100.806870648079
 11
232.75
 21
101.306870648079
  0
LINE
  8
画層1
  6
BYLAYER
 62
7
 10
233.25
 20
100.806870648079
 11
233.25
 21
131.806870648079
  0
LINE
  8
画層1
  6
BYLAYER
 62
7
 10
238.95
 20
100.806870648079
 11
238.95
 21
131.806870648079
  0
LINE
  8
画層1
  6
BYLAYER
 62
7
 10
243.25
 20
104.206870648079
 11
243.25
 21
128.406870648079
  0
LINE
  8
画層1
  6
BYLAYER
 62
7
 10
205.45
 20
108.306870648079
 11
232.75
 21
108.306870648079
  0
CIRCLE
  8
画層1
  6
BYLAYER
 62
7
 10
236.05
 20
116.306870648079
 40
1.25
  0
CIRCLE
  8
画層1
  6
BYLAYER
 62
7
 10
236.05
 20
116.306870648079
 40
1.50000000000011
  0
LINE
  8
画層1
  6
CENTER
 62
7
 10
236.05
 20
119.306870648079
 11
236.05
 21
113.306870648079
  0
LINE
  8
画層1
  6
BYLAYER
 62
7
 10
205.45
 20
124.306870648079
 11
232.75
 21
124.306870648079
  0
LINE
  8
画層1
  6
BYLAYER
 62
7
 10
233.25
 20
131.806870648079
 11
232.75
 21
131.306870648079
  0
LINE
  8
画層1
  6
BYLAYER
 62
7
 10
239.25
 20
131.506870648079
 11
238.95
 21
131.806870648079
  0
LINE
  8
画層1
  6
BYLAYER
 62
7
 10
238.95
 20
131.806870648079
 11
233.25
 21
131.806870648079
  0
LINE
  8
画層1
  6
BYLAYER
 62
7
 10
242.65
 20
129.006870648079
 11
243.25
 21
128.406870648079
  0
LINE
  8
画層1
  6
BYLAYER
 62
7
 10
242.65
 20
129.006870648079
 11
240.25
 21
129.006870648079
  0
LINE
  8
画層1
  6
BYLAYER
 62
7
 10
239.25
 20
128.556870648079
 11
243.1
 21
128.556870648079
  0
LINE
  8
画層1
  6
BYLAYER
 62
7
 10
205.35
 20
124.206870648079
 11
205.45
 21
124.306870648079
  0
LINE
  8
画層1
  6
BYLAYER
 62
7
 10
205.25
 20
124.306870648079
 11
205.35
 21
124.206870648079
  0
LINE
  8
画層1
  6
BYLAYER
 62
7
 10
189.35
 20
124.206870648079
 11
189.25
 21
124.306870648079
  0
LINE
  8
画層1
  6
BYLAYER
 62
7
 10
189.45
 20
124.306870648079
 11
189.35
 21
124.206870648079
  0
LINE
  8
画層1
  6
BYLAYER
 62
7
 10
157
 20
124.306870648079
 11
189.25
 21
124.306870648079
  0
LINE
  8
画層1
  6
BYLAYER
 62
7
 10
157
 20
124.306870648079
 11
156.7
 21
124.006870648079
  0
LINE
  8
画層1
  6
BYLAYER
 62
7
 10
89
 20
131.306870648079
 11
17
 21
131.306870648079
  0
LINE
  8
画層1
  6
BYLAYER
 62
7
 10
89
 20
137.706870648079
 11
17
 21
137.706870648079
  0
LINE
  8
画層1
  6
BYLAYER
 62
7
 10
89
 20
144.106870648079
 11
17
 21
144.106870648079
  0
LINE
  8
画層1
  6
BYLAYER
 62
7
 10
17
 20
150.506870648079
 11
89
 21
150.506870648079
  0
LINE
  8
画層1
  6
BYLAYER
 62
7
 10
89
 20
156.906870648079
 11
17
 21
156.906870648079
  0
LINE
  8
画層1
  6
BYLAYER
 62
7
 10
17
 20
163.306870648079
 11
89
 21
163.306870648079
  0
LINE
  8
画層1
  6
BYLAYER
 62
7
 10
89
 20
169.706870648079
 11
17
 21
169.706870648079
  0
LINE
  8
画層1
  6
BYLAYER
 62
7
 10
17
 20
176.106870648079
 11
89
 21
176.106870648079
  0
LINE
  8
画層1
  6
BYLAYER
 62
7
 10
89
 20
182.506870648079
 11
17
 21
182.506870648079
  0
LINE
  8
画層1
  6
BYLAYER
 62
7
 10
17
 20
188.906870648079
 11
89
 21
188.906870648079
  0
LINE
  8
画層1
  6
BYLAYER
 62
7
 10
17
 20
195.306870648079
 11
17
 21
131.306870648079
  0
LINE
  8
画層1
  6
BYLAYER
 62
7
 10
89
 20
195.306870648079
 11
17
 21
195.306870648079
  0
LINE
  8
画層1
  6
BYLAYER
 62
7
 10
89
 20
131.306870648079
 11
89
 21
195.306870648079
  0
LINE
  8
画層1
  6
BYLAYER
 62
7
 10
59
 20
195.306870648079
 11
59
 21
131.306870648079
  0
LINE
  8
画層1
  6
BYLAYER
 62
7
 10
189.45
 20
124.306870648079
 11
205.25
 21
124.306870648079
  0
LINE
  8
画層1
  6
BYLAYER
 62
7
 10
205.25
 20
108.306870648079
 11
189.45
 21
108.306870648079
  0
LINE
  8
画層5
  6
BYLAYER
 62
7
 10
162.500011
 20
7.30687064807907
 11
162.500011
 21
9.61035864807907
  0
LINE
  8
画層5
  6
BYLAYER
 62
7
 10
161.438187
 20
8.08592664807907
 11
161.438187
 21
8.61566864807907
  0
LINE
  8
画層5
  6
BYLAYER
 62
7
 10
161.438187
 20
9.81546464807907
 11
161.438187
 21
9.41028264807908
  0
POLYLINE
  8
画層5
 62
7
  6
BYLAYER
 10
0.0
 20
0.0
 30
0.0
 66
1
  0
VERTEX
  8
画層5
 10
162.500011
  20
9.61035864807907
  0
VERTEX
  8
画層5
 10
162.493682
  20
9.72623464807907
  0
VERTEX
  8
画層5
 10
162.484701
  20
9.84191664807908
  0
VERTEX
  8
画層5
 10
162.470425
  20
9.95696564807908
  0
VERTEX
  8
画層5
 10
162.448136
  20
10.0708006480791
  0
VERTEX
  8
画層5
 10
162.419801
  20
10.1685386480791
  0
VERTEX
  8
画層5
 10
162.380868
  20
10.2623196480791
  0
VERTEX
  8
画層5
 10
162.323336
  20
10.3594296480791
  0
VERTEX
  8
画層5
 10
162.252831
  20
10.4480596480791
  0
VERTEX
  8
画層5
 10
162.18106
  20
10.5191786480791
  0
VERTEX
  8
画層5
 10
162.101373
  20
10.5807316480791
  0
VERTEX
  8
画層5
 10
162.006783
  20
10.6347996480791
  0
VERTEX
  8
画層5
 10
161.906194
  20
10.6775046480791
  0
VERTEX
  8
画層5
 10
161.777997
  20
10.7179386480791
  0
VERTEX
  8
画層5
 10
161.646998
  20
10.7477426480791
  0
VERTEX
  8
画層5
 10
161.564482
  20
10.7619836480791
  0
VERTEX
  8
画層5
 10
161.481487
  20
10.7727156480791
  0
VERTEX
  8
画層5
 10
161.406273
  20
10.7793286480791
  0
VERTEX
  8
画層5
 10
161.330899
  20
10.7843246480791
  0
SEQEND
100
AcDbEntity
  8
画層5
  0
ARC
  8
画層5
  6
BYLAYER
 62
7
 10
161.257197
 20
9.81546464807907
 40
0.180989141858083
 50
0
 51
90
  0
LINE
  8
画層5
  6
BYLAYER
 62
7
 10
158.33884
 20
7.30687064807907
 11
162.500011
 21
7.30687064807907
  0
LINE
  8
画層5
  6
BYLAYER
 62
7
 10
158.33884
 20
8.08592664807907
 11
161.438187
 21
8.08592664807907
  0
LINE
  8
画層5
  6
BYLAYER
 62
7
 10
161.438187
 20
8.61566864807907
 11
158.33884
 21
8.61566864807907
  0
LINE
  8
画層5
  6
BYLAYER
 62
7
 10
158.33884
 20
8.61566864807907
 11
158.33884
 21
8.08592664807907
  0
LINE
  8
画層5
  6
BYLAYER
 62
7
 10
161.438187
 20
9.41028264807908
 11
158.33884
 21
9.41028264807908
  0
POLYLINE
  8
画層5
 62
7
  6
BYLAYER
 10
0.0
 20
0.0
 30
0.0
 66
1
  0
VERTEX
  8
画層5
 10
158.33884
  20
7.30687064807907
  0
VERTEX
  8
画層5
 10
158.226657
  20
7.30909764807907
  0
VERTEX
  8
画層5
 10
158.114588
  20
7.31372664807907
  0
VERTEX
  8
画層5
 10
157.997005
  20
7.32344164807907
  0
VERTEX
  8
画層5
 10
157.879991
  20
7.33898164807907
  0
VERTEX
  8
画層5
 10
157.757371
  20
7.36258564807908
  0
VERTEX
  8
画層5
 10
157.636973
  20
7.39550364807907
  0
VERTEX
  8
画層5
 10
157.580319
  20
7.41540164807907
  0
VERTEX
  8
画層5
 10
157.525089
  20
7.43879764807907
  0
VERTEX
  8
画層5
 10
157.467976
  20
7.46847564807908
  0
VERTEX
  8
画層5
 10
157.413205
  20
7.50253564807907
  0
VERTEX
  8
画層5
 10
157.35527
  20
7.54527764807906
  0
VERTEX
  8
画層5
 10
157.302523
  20
7.59393464807907
  0
VERTEX
  8
画層5
 10
157.273385
  20
7.62732264807907
  0
VERTEX
  8
画層5
 10
157.246714
  20
7.66282064807908
  0
VERTEX
  8
画層5
 10
157.219586
  20
7.70447264807908
  0
VERTEX
  8
画層5
 10
157.196185
  20
7.74820664807908
  0
VERTEX
  8
画層5
 10
157.174978
  20
7.80075364807907
  0
VERTEX
  8
画層5
 10
157.158891
  20
7.85523864807907
  0
VERTEX
  8
画層5
 10
157.146306
  20
7.91442264807907
  0
VERTEX
  8
画層5
 10
157.138439
  20
7.97429664807908
  0
VERTEX
  8
画層5
 10
157.135047
  20
8.03778864807907
  0
VERTEX
  8
画層5
 10
157.134431
  20
8.10148464807907
  0
SEQEND
100
AcDbEntity
  8
画層5
  0
LINE
  8
画層5
  6
BYLAYER
 62
7
 10
157.134431
 20
8.61566864807907
 11
157.134431
 21
8.08592664807907
  0
POLYLINE
  8
画層5
 62
7
  6
BYLAYER
 10
0.0
 20
0.0
 30
0.0
 66
1
  0
VERTEX
  8
画層5
 10
158.33884
  20
9.41028264807908
  0
VERTEX
  8
画層5
 10
158.226657
  20
9.40805564807907
  0
VERTEX
  8
画層5
 10
158.114588
  20
9.40342664807908
  0
VERTEX
  8
画層5
 10
157.997005
  20
9.39371164807908
  0
VERTEX
  8
画層5
 10
157.879991
  20
9.37817164807907
  0
VERTEX
  8
画層5
 10
157.757371
  20
9.35456764807907
  0
VERTEX
  8
画層5
 10
157.636973
  20
9.32164964807907
  0
VERTEX
  8
画層5
 10
157.580319
  20
9.30175164807908
  0
VERTEX
  8
画層5
 10
157.525089
  20
9.27835564807907
  0
VERTEX
  8
画層5
 10
157.467976
  20
9.24867764807907
  0
VERTEX
  8
画層5
 10
157.413205
  20
9.21461664807907
  0
VERTEX
  8
画層5
 10
157.35527
  20
9.17187564807907
  0
VERTEX
  8
画層5
 10
157.302523
  20
9.12321864807907
  0
VERTEX
  8
画層5
 10
157.273385
  20
9.08983064807907
  0
VERTEX
  8
画層5
 10
157.246714
  20
9.05433264807907
  0
VERTEX
  8
画層5
 10
157.219586
  20
9.01268064807907
  0
VERTEX
  8
画層5
 10
157.196185
  20
8.96894664807907
  0
VERTEX
  8
画層5
 10
157.174978
  20
8.91639964807906
  0
VERTEX
  8
画層5
 10
157.158891
  20
8.86191464807906
  0
VERTEX
  8
画層5
 10
157.146306
  20
8.80273064807908
  0
VERTEX
  8
画層5
 10
157.138439
  20
8.74285664807907
  0
VERTEX
  8
画層5
 10
157.135047
  20
8.67936464807907
  0
VERTEX
  8
画層5
 10
157.134431
  20
8.61566864807907
  0
SEQEND
100
AcDbEntity
  8
画層5
  0
LINE
  8
画層5
  6
BYLAYER
 62
7
 10
157.214724
 20
9.99645464807907
 11
161.257197
 21
9.99645464807907
  0
LINE
  8
画層5
  6
BYLAYER
 62
7
 10
157.214724
 20
10.7843246480791
 11
157.214724
 21
9.99645464807907
  0
LINE
  8
画層5
  6
BYLAYER
 62
7
 10
161.330899
 20
10.7843246480791
 11
157.214724
 21
10.7843246480791
  0
LINE
  8
画層5
  6
BYLAYER
 62
7
 10
156.575509
 20
9.73458764807907
 11
156.575509
 21
7.30687064807907
  0
LINE
  8
画層5
  6
BYLAYER
 62
7
 10
156.575509
 20
7.30687064807907
 11
155.515629
 21
7.30687064807907
  0
LINE
  8
画層5
  6
BYLAYER
 62
7
 10
155.515629
 20
7.30687064807907
 11
155.515629
 21
9.67620764807907
  0
ARC
  8
画層5
  6
BYLAYER
 62
7
 10
155.525772
 20
9.73458764807907
 40
1.04973702277688
 50
0
 51
90
  0
ARC
  8
画層5
  6
BYLAYER
 62
7
 10
155.298442
 20
9.67620764807907
 40
0.217186970229699
 50
0
 51
90
  0
LINE
  8
画層5
  6
BYLAYER
 62
7
 10
155.298442
 20
9.89339464807907
 11
152.45643
 21
9.89339464807907
  0
LINE
  8
画層5
  6
BYLAYER
 62
7
 10
152.45643
 20
9.89339464807907
 11
152.45643
 21
7.30687064807907
  0
LINE
  8
画層5
  6
BYLAYER
 62
7
 10
152.45643
 20
7.30687064807907
 11
151.396549
 21
7.30687064807907
  0
LINE
  8
画層5
  6
BYLAYER
 62
7
 10
151.396549
 20
7.30687064807907
 11
151.396549
 21
10.7843246480791
  0
LINE
  8
画層5
  6
BYLAYER
 62
7
 10
151.396549
 20
10.7843246480791
 11
155.525772
 21
10.7843246480791
  0
LINE
  8
画層5
  6
BYLAYER
 62
7
 10
150.779907
 20
7.30687064807907
 11
150.779907
 21
10.7843246480791
  0
LINE
  8
画層5
  6
BYLAYER
 62
7
 10
150.779907
 20
11.0319636480791
 11
150.779907
 21
11.8277566480791
  0
LINE
  8
画層5
  6
BYLAYER
 62
7
 10
149.724828
 20
7.30687064807907
 11
150.779907
 21
7.30687064807907
  0
LINE
  8
画層5
  6
BYLAYER
 62
7
 10
149.724828
 20
10.7843246480791
 11
149.724828
 21
7.30687064807907
  0
LINE
  8
画層5
  6
BYLAYER
 62
7
 10
150.779907
 20
10.7843246480791
 11
149.724828
 21
10.7843246480791
  0
LINE
  8
画層5
  6
BYLAYER
 62
7
 10
149.724828
 20
11.0319636480791
 11
150.779907
 21
11.0319636480791
  0
LINE
  8
画層5
  6
BYLAYER
 62
7
 10
150.779907
 20
11.8277566480791
 11
149.724828
 21
11.8277566480791
  0
LINE
  8
画層5
  6
BYLAYER
 62
7
 10
149.724828
 20
11.8277566480791
 11
149.724828
 21
11.0319636480791
  0
LINE
  8
画層5
  6
BYLAYER
 62
7
 10
147.241468
 20
7.30687064807907
 11
149.053587
 21
7.30687064807907
  0
LINE
  8
画層5
  6
BYLAYER
 62
7
 10
148.997381
 20
10.7843246480791
 11
147.335296
 21
10.7843246480791
  0
LINE
  8
画層5
  6
BYLAYER
 62
7
 10
146.398007
 20
9.04778064807907
 11
149.053587
 21
7.30687064807907
  0
LINE
  8
画層5
  6
BYLAYER
 62
7
 10
148.997381
 20
10.7843246480791
 11
146.398007
 21
9.04778064807907
  0
LINE
  8
画層5
  6
BYLAYER
 62
7
 10
147.241468
 20
7.30687064807907
 11
145.073189
 21
8.94362464807907
  0
LINE
  8
画層5
  6
BYLAYER
 62
7
 10
147.335296
 20
10.7843246480791
 11
145.071211
 21
9.15433964807907
  0
LINE
  8
画層5
  6
BYLAYER
 62
7
 10
144.89917
 20
7.30687064807907
 11
144.89917
 21
8.85695164807908
  0
ARC
  8
画層5
  6
BYLAYER
 62
7
 10
145.007764
 20
8.85695164807908
 40
0.108593485114852
 50
52.952191
 51
180
  0
ARC
  8
画層5
  6
BYLAYER
 62
7
 10
145.007764
 20
9.24246964807907
 40
0.108593485114865
 50
180
 51
305.751288
  0
LINE
  8
画層5
  6
BYLAYER
 62
7
 10
143.843504
 20
7.30687064807907
 11
144.89917
 21
7.30687064807907
  0
LINE
  8
画層5
  6
BYLAYER
 62
7
 10
144.89917
 20
9.24246964807907
 11
144.89917
 21
11.8277566480791
  0
LINE
  8
画層5
  6
BYLAYER
 62
7
 10
144.89917
 20
11.8277566480791
 11
143.843504
 21
11.8277566480791
  0
LINE
  8
画層5
  6
BYLAYER
 62
7
 10
143.843504
 20
11.8277566480791
 11
143.843504
 21
7.30687064807907
  0
LINE
  8
画層5
  6
BYLAYER
 62
7
 10
143.298056
 20
8.50139864807907
 11
143.298056
 21
9.59748364807908
  0
ARC
  8
画層5
  6
BYLAYER
 62
7
 10
142.103528
 20
8.50139864807907
 40
1.19452833626337
 50
270
 51
0
  0
ARC
  8
画層5
  6
BYLAYER
 62
7
 10
142.02112
 20
8.36490364807908
 40
0.162890227672278
 50
270
 51
0
  0
LINE
  8
画層5
  6
BYLAYER
 62
7
 10
142.18401
 20
8.36490364807908
 11
142.18401
 21
9.74072064807908
  0
ARC
  8
画層5
  6
BYLAYER
 62
7
 10
142.02112
 20
9.74072064807908
 40
0.162890227672275
 50
0
 51
90
  0
ARC
  8
画層5
  6
BYLAYER
 62
7
 10
142.103528
 20
9.59748364807908
 40
1.19452833626335
 50
0
 51
90
  0
LINE
  8
画層5
  6
BYLAYER
 62
7
 10
139.145007
 20
7.30687064807907
 11
142.103528
 21
7.30687064807907
  0
LINE
  8
画層5
  6
BYLAYER
 62
7
 10
139.084926
 20
8.20201364807907
 11
142.02112
 21
8.20201364807907
  0
LINE
  8
画層5
  6
BYLAYER
 62
7
 10
134.725692
 20
7.30687064807907
 11
135.914043
 21
7.30687064807907
  0
ARC
  8
画層5
  6
BYLAYER
 62
7
 10
139.084926
 20
8.36490364807908
 40
0.162890227672275
 50
180
 51
270
  0
LINE
  8
画層5
  6
BYLAYER
 62
7
 10
132.5
 20
11.8277566480791
 11
132.5
 21
10.8324836480791
  0
ARC
  8
画層5
  6
BYLAYER
 62
7
 10
139.145007
 20
8.50139864807907
 40
1.19452833626335
 50
180
 51
270
  0
LINE
  8
画層5
  6
BYLAYER
 62
7
 10
142.02112
 20
9.90361064807907
 11
139.084926
 21
9.90361064807907
  0
LINE
  8
画層5
  6
BYLAYER
 62
7
 10
138.922035
 20
9.74072064807908
 11
138.922035
 21
8.36490364807908
  0
ARC
  8
画層5
  6
BYLAYER
 62
7
 10
139.084926
 20
9.74072064807908
 40
0.162890227672278
 50
90
 51
180
  0
LINE
  8
画層5
  6
BYLAYER
 62
7
 10
142.103528
 20
10.7920116480791
 11
139.145007
 21
10.7920116480791
  0
LINE
  8
画層5
  6
BYLAYER
 62
7
 10
137.950478
 20
9.59748364807908
 11
137.950478
 21
8.50139864807907
  0
ARC
  8
画層5
  6
BYLAYER
 62
7
 10
139.145007
 20
9.59748364807908
 40
1.19452833626332
 50
90
 51
180
  0
LINE
  8
画層5
  6
BYLAYER
 62
7
 10
138.175302
 20
10.8324836480791
 11
138.175302
 21
11.8277566480791
  0
LINE
  8
画層5
  6
BYLAYER
 62
7
 10
132.5
 20
10.8324836480791
 11
134.725692
 21
10.8324836480791
  0
LINE
  8
画層5
  6
BYLAYER
 62
7
 10
134.725692
 20
10.8324836480791
 11
134.725692
 21
7.30687064807907
  0
LINE
  8
画層5
  6
BYLAYER
 62
7
 10
135.914043
 20
7.30687064807907
 11
135.914043
 21
10.8324836480791
  0
LINE
  8
画層5
  6
BYLAYER
 62
7
 10
135.914043
 20
10.8324836480791
 11
138.175302
 21
10.8324836480791
  0
LINE
  8
画層5
  6
BYLAYER
 62
7
 10
138.175302
 20
11.8277566480791
 11
132.5
 21
11.8277566480791
  0
LINE
  8
画層5
  6
BYLAYER
 62
7
 10
11
 20
105.306870648079
 11
8.5
 21
105.306870648079
  0
LINE
  8
画層5
  6
BYLAYER
 62
7
 10
286
 20
105.306870648079
 11
288.5
 21
105.306870648079
  0
LINE
  8
画層5
  6
BYLAYER
 62
7
 10
96
 20
14.3068706480791
 11
96
 21
46.8068706480791
  0
LINE
  8
画層5
  6
BYLAYER
 62
7
 10
117
 20
14.3068706480791
 11
117
 21
46.8068706480791
  0
LINE
  8
画層5
  6
BYLAYER
 62
7
 10
133
 20
14.3068706480791
 11
133
 21
34.3068706480791
  0
LINE
  8
画層5
  6
BYLAYER
 62
7
 10
149
 20
14.3068706480791
 11
149
 21
34.3068706480791
  0
LINE
  8
画層5
  6
BYLAYER
 62
7
 10
165
 20
14.3068706480791
 11
165
 21
46.8068706480791
  0
LINE
  8
画層5
  6
BYLAYER
 62
7
 10
96
 20
19.3068706480791
 11
117
 21
19.3068706480791
  0
LINE
  8
画層5
  6
BYLAYER
 62
7
 10
96
 20
29.3068706480791
 11
181
 21
29.3068706480791
  0
LINE
  8
画層5
  6
BYLAYER
 62
7
 10
37
 20
24.3068706480791
 11
37
 21
34.3068706480791
  0
LINE
  8
画層5
  6
BYLAYER
 62
7
 10
11
 20
30.9735376480791
 11
96
 21
30.9735376480791
  0
LINE
  8
画層5
  6
BYLAYER
 62
7
 10
11
 20
27.6402036480791
 11
96
 21
27.6402036480791
  0
LINE
  8
画層5
  6
BYLAYER
 62
7
 10
11
 20
24.3068706480791
 11
96
 21
24.3068706480791
  0
LINE
  8
画層5
  6
BYLAYER
 62
7
 10
29
 20
14.3068706480791
 11
29
 21
34.3068706480791
  0
LINE
  8
画層5
  6
BYLAYER
 62
7
 10
16.4
 20
24.3068706480791
 11
16.4
 21
34.3068706480791
  0
LINE
  8
画層5
  6
BYLAYER
 62
7
 10
13.877526
 20
33.8370676480791
 11
15.210859
 21
31.5276666480791
  0
LINE
  8
画層5
  6
BYLAYER
 62
7
 10
15.210859
 20
31.5276666480791
 11
12.544192
 21
31.5276666480791
  0
LINE
  8
画層5
  6
BYLAYER
 62
7
 10
12.544192
 20
31.5276666480791
 11
13.877526
 21
33.8370676480791
  0
LINE
  8
画層5
  6
BYLAYER
 62
7
 10
12.546536
 20
28.2155636480791
 11
13.879869
 21
30.5249646480791
  0
LINE
  8
画層5
  6
BYLAYER
 62
7
 10
15.213203
 20
28.2155636480791
 11
12.546536
 21
28.2155636480791
  0
LINE
  8
画層5
  6
BYLAYER
 62
7
 10
13.879869
 20
30.5249646480791
 11
15.213203
 21
28.2155636480791
  0
LINE
  8
画層5
  6
BYLAYER
 62
7
 10
186
 20
14.3068706480791
 11
186
 21
34.3068706480791
  0
LINE
  8
画層5
  6
BYLAYER
 62
7
 10
96
 20
39.3068706480791
 11
286
 21
39.3068706480791
  0
LINE
  8
画層5
  6
BYLAYER
 62
7
 10
286
 20
24.3068706480791
 11
181
 21
24.3068706480791
  0
LINE
  8
画層5
  6
BYLAYER
 62
7
 10
231
 20
14.3068706480791
 11
231
 21
34.3068706480791
  0
LINE
  8
画層5
  6
BYLAYER
 62
7
 10
181
 20
14.3068706480791
 11
181
 21
46.8068706480791
  0
LINE
  8
画層5
  6
BYLAYER
 62
7
 10
286
 20
34.3068706480791
 11
11
 21
34.3068706480791
  0
LINE
  8
画層5
  6
BYLAYER
 62
7
 10
226
 20
46.8068706480791
 11
226
 21
14.3068706480791
  0
LINE
  8
画層5
  6
BYLAYER
 62
7
 10
96
 20
46.8068706480791
 11
286
 21
46.8068706480791
  0
LINE
  8
画層5
  6
BYLAYER
 62
7
 10
286
 20
14.3068706480791
 11
11
 21
14.3068706480791
  0
LINE
  8
画層5
  6
BYLAYER
 62
7
 10
147.5
 20
201.306870648079
 11
147.5
 21
203.806870648079
  0
LINE
  8
画層5
  6
BYLAYER
 62
7
 10
286
 20
201.306870648079
 11
286
 21
14.3068706480791
  0
LINE
  8
画層5
  6
BYLAYER
 62
7
 10
11
 20
201.306870648079
 11
11
 21
14.3068706480791
  0
LINE
  8
画層5
  6
BYLAYER
 62
7
 10
286
 20
201.306870648079
 11
11
 21
201.306870648079
  0
TEXT
  8
画層1
 62
7
  6
BYLAYER
 62
7
 10
118.6901
 20
22.0879696480791
 40
3.6
 41
0.97375
  1
宇賀田
  7
Font_0
  0
TEXT
  8
画層1
 62
7
  6
BYLAYER
 62
7
 10
150.6901
 20
22.0879696480791
 40
3.6
 41
0.97375
  1
宇賀田
  7
Font_0
  0
TEXT
  8
画層1
 62
7
  6
BYLAYER
 62
7
 10
199.200001
 20
17.3068706480791
 40
4
 41
1.2
  1
C0.1
  7
Font_0
  0
TEXT
  8
画層1
 62
7
  6
BYLAYER
 62
7
 10
170.8967
 20
22.0879696480791
 40
3.6
 41
0.97375
  1
関
  7
Font_0
  0
TEXT
  8
画層1
 62
7
  6
BYLAYER
 62
7
 10
134.6901
 20
22.0879696480791
 40
3.6
 41
0.97375
  1
宇賀田
  7
Font_0
  0
TEXT
  8
画層1
 62
7
  6
BYLAYER
 62
7
 10
100.02
 20
41.2568706480791
 40
3.6
  1
０００
  7
Font_0
  0
TEXT
  8
画層1
 62
7
  6
BYLAYER
 62
7
 10
132.36
 20
41.3891666480791
 40
3.6
  1
組 立 図
  7
Font_0
  0
TEXT
  8
画層1
 62
7
  6
BYLAYER
 62
7
 10
171.799999
 20
41.2568706480791
 40
3.6
  1
1
  7
Font_0
  0
TEXT
  8
画層1
 62
7
  6
BYLAYER
 62
7
 10
188.8
 20
41.3068706480791
 40
3.5
  1
Ａ５０５２ＴＤ
  7
Font_0
  0
TEXT
  8
画層1
 62
7
  6
BYLAYER
 62
7
 10
237.1
 20
41.3068706480791
 40
3.5
  1
サテン黒アルマイト
  7
Font_0
  0
TEXT
  8
画層1
 62
7
  6
BYLAYER
 62
7
 10
238.673609
 20
17.2899806480791
 40
4
  1
ＫＶＴ－１０２２
  7
Font_0
  0
TEXT
  8
画層1
 62
7
  6
BYLAYER
 62
7
 10
240.548213648555
 20
27.4926959158857
 40
3.3
  1
ＫＣＭ－１－１１０Ｃ
  7
Font_0
  0
TEXT
  8
画層1
 62
7
  6
BYLAYER
 62
7
 10
100.695832
 20
22.2728706480791
 40
4.068
 41
1.22296
  1
1/1
  7
Font_0
  0
TEXT
  8
画層1
 62
7
  6
BYLAYER
 62
7
 10
64.4
 20
145.706870648079
 40
3.2
  1
０．０６％
  7
Font_0
  0
TEXT
  8
画層1
 62
7
  6
BYLAYER
 62
7
 10
66.32
 20
132.906870648079
 40
3.2
  1
１／２″
  7
Font_0
  0
TEXT
  8
画層1
 62
7
  6
BYLAYER
 62
7
 10
70.16
 20
139.306870648079
 40
3.2
  1
５５
  7
Font_0
  0
TEXT
  8
画層1
 62
7
  6
BYLAYER
 62
7
 10
64.4
 20
152.106870648079
 40
3.2
  1
０．０２５
  7
Font_0
  0
TEXT
  8
画層1
 62
7
  6
BYLAYER
 62
7
 10
70.16
 20
158.506870648079
 40
3.2
  1
２０
  7
Font_0
  0
TEXT
  8
画層1
 62
7
  6
BYLAYER
 62
7
 10
64.4
 20
164.906870648079
 40
3.2
  1
１３．４μ
  7
Font_0
  0
TEXT
  8
画層1
 62
7
  6
BYLAYER
 62
7
 10
64.4
 20
171.306870648079
 40
3.2
  1
１６００μ
  7
Font_0
  0
TEXT
  8
画層1
 62
7
  6
BYLAYER
 62
7
 10
64.4
 20
177.706870648079
 40
3.2
  1
１１０ｍｍ
  7
Font_0
  0
TEXT
  8
画層1
 62
7
  6
BYLAYER
 62
7
 10
68.24
 20
190.506870648079
 40
3.2
  1
１．０
  7
Font_0
  0
TEXT
  8
画層1
 62
7
  6
BYLAYER
 62
7
 10
19
 20
132.906870648079
 40
3.2
  1
対応素子サイズ
  7
Font_0
  0
TEXT
  8
画層1
 62
7
  6
BYLAYER
 62
7
 10
19
 20
139.306870648079
 40
3.2
  1
重量
  7
Font_0
  0
TEXT
  8
画層1
 62
7
  6
BYLAYER
 62
7
 10
19
 20
145.706870648079
 40
3.2
  1
ＴＶディストーション
  7
Font_0
  0
TEXT
  8
画層1
 62
7
  6
BYLAYER
 62
7
 10
19
 20
152.106870648079
 40
3.2
  1
Ｎ．Ａ．
  7
Font_0
  0
TEXT
  8
画層1
 62
7
  6
BYLAYER
 62
7
 10
19
 20
158.506870648079
 40
3.2
  1
有効Ｆナンバー
  7
Font_0
  0
TEXT
  8
画層1
 62
7
  6
BYLAYER
 62
7
 10
19
 20
164.906870648079
 40
3.2
  1
分解能
  7
Font_0
  0
TEXT
  8
画層1
 62
7
  6
BYLAYER
 62
7
 10
19
 20
171.306870648079
 40
3.2
  1
被写界深度
  7
Font_0
  0
TEXT
  8
画層1
 62
7
  6
BYLAYER
 62
7
 10
19
 20
177.706870648079
 40
3.2
  1
Ｗ．Ｄ．
  7
Font_0
  0
TEXT
  8
画層1
 62
7
  6
BYLAYER
 62
7
 10
19
 20
184.106870648079
 40
3.2
  1
Ｏ／Ｉ
  7
Font_0
  0
TEXT
  8
画層1
 62
7
  6
BYLAYER
 62
7
 10
19
 20
190.506870648079
 40
3.2
  1
倍率
  7
Font_0
  0
TEXT
  8
画層1
 62
7
  6
BYLAYER
 62
7
 10
119.035183
 20
18.0009836480791
 40
2.03
 41
0.86
  1
10/11/29
  7
Font_0
  0
TEXT
  8
画層1
 62
7
  6
BYLAYER
 62
7
 10
135.035183
 20
18.0009836480791
 40
2.03
 41
0.86
  1
10/11/29
  7
Font_0
  0
TEXT
  8
画層1
 62
7
  6
BYLAYER
 62
7
 10
151.035183
 20
18.0009836480791
 40
2.03
 41
0.86
  1
10/11/29
  7
Font_0
  0
TEXT
  8
画層1
 62
7
  6
BYLAYER
 62
7
 10
167.035183
 20
18.0009836480791
 40
2.03
 41
0.86
  1
10/11/29
  7
Font_0
  0
TEXT
  8
画層1
 62
7
  6
BYLAYER
 62
7
 10
39.862
 20
17.5918706480791
 40
3.43
  1
２０１０年１１月２９日
  7
Font_0
  0
TEXT
  8
画層5
 62
7
  6
BYLAYER
 62
7
 10
168.275
 20
30.2318706480791
 40
3.15
  1
承 認
  7
Font_0
  0
TEXT
  8
画層5
 62
7
  6
BYLAYER
 62
7
 10
152.275
 20
30.2318706480791
 40
3.15
  1
検 図
  7
Font_0
  0
TEXT
  8
画層5
 62
7
  6
BYLAYER
 62
7
 10
120.275
 20
30.2318706480791
 40
3.15
  1
製 図
  7
Font_0
  0
TEXT
  8
画層5
 62
7
  6
BYLAYER
 62
7
 10
129.66
 20
35.2318706480791
 40
3.15
  1
部   品   名
  7
Font_0
  0
TEXT
  8
画層5
 62
7
  6
BYLAYER
 62
7
 10
242.77
 20
35.2318706480791
 40
3.15
  1
表  面  処  理
  7
Font_0
  0
TEXT
  8
画層5
 62
7
  6
BYLAYER
 62
7
 10
15.91912
 20
17.9811646480791
 40
3.15
  1
日付
  7
Font_0
  0
TEXT
  8
画層5
 62
7
  6
BYLAYER
 62
7
 10
103.098
 20
15.4568706480791
 40
2.7
 41
1.05
  1
三角法
  7
Font_0
  0
TEXT
  8
画層5
 62
7
  6
BYLAYER
 62
7
 10
54.053436
 20
24.8176996480791
 40
2.4
  1
訂  正  記  事
  7
Font_0
  0
TEXT
  8
画層5
 62
7
  6
BYLAYER
 62
7
 10
11.899486
 20
25.1563196480791
 40
1.8
  1
符号
  7
Font_0
  0
TEXT
  8
画層5
 62
7
  6
BYLAYER
 62
7
 10
30.612385
 20
24.8563186480791
 40
2.4
  1
担当
  7
Font_0
  0
TEXT
  8
画層5
 62
7
  6
BYLAYER
 62
7
 10
18.928051
 20
24.7894886480791
 40
2.4
  1
年月日
  7
Font_0
  0
TEXT
  8
画層5
 62
7
  6
BYLAYER
 62
7
 10
13.740244
 20
28.4534646480791
 40
1.356
 41
0.577433
  1
1
  7
Font_0
  0
TEXT
  8
画層5
 62
7
  6
BYLAYER
 62
7
 10
13.607694
 20
31.7797046480791
 40
1.356
 41
0.577433
  1
2
  7
Font_0
  0
TEXT
  8
画層5
 62
7
  6
BYLAYER
 62
7
 10
195.94
 20
35.2318706480791
 40
3.15
  1
材    質
  7
Font_0
  0
TEXT
  8
画層5
 62
7
  6
BYLAYER
 62
7
 10
169.22
 20
35.2318706480791
 40
3.15
  1
個数
  7
Font_0
  0
TEXT
  8
画層5
 62
7
  6
BYLAYER
 62
7
 10
98.94
 20
35.2318706480791
 40
3.15
  1
部品番号
  7
Font_0
  0
TEXT
  8
画層5
 62
7
  6
BYLAYER
 62
7
 10
101.883
 20
30.2318706480791
 40
3.15
 41
1.221429
  1
尺度
  7
Font_0
  0
TEXT
  8
画層5
 62
7
  6
BYLAYER
 62
7
 10
226.65
 20
15.9568706480791
 40
2.7
 41
1.266667
  1
番
  7
Font_0
  0
TEXT
  8
画層5
 62
7
  6
BYLAYER
 62
7
 10
226.65
 20
20.4568706480791
 40
2.7
 41
1.266667
  1
図
  7
Font_0
  0
TEXT
  8
画層5
 62
7
  6
BYLAYER
 62
7
 10
181.668525
 20
29.6741036480791
 40
2.7
 41
1.266667
  1
仕
  7
Font_0
  0
TEXT
  8
画層5
 62
7
  6
BYLAYER
 62
7
 10
181.668525
 20
26.1741036480791
 40
2.7
 41
1.27
  1
上
  7
Font_0
  0
TEXT
  8
画層5
 62
7
  6
BYLAYER
 62
7
 10
182.015468
 20
16.4022306480791
 40
2.7
 41
1.203333
  1
取
  7
Font_0
  0
TEXT
  8
画層5
 62
7
  6
BYLAYER
 62
7
 10
182.015468
 20
19.9022306480791
 40
2.7
 41
1.203333
  1
面
  7
Font_0
  0
TEXT
  8
画層5
 62
7
  6
BYLAYER
 62
7
 10
136.275
 20
30.2318706480791
 40
3.15
  1
設 計
  7
Font_0
  0
TEXT
  8
画層5
 62
7
  6
BYLAYER
 62
7
 10
226.729914
 20
24.9924226480791
 40
2.7
 41
1.266667
  1
名
  7
Font_0
  0
TEXT
  8
画層5
 62
7
  6
BYLAYER
 62
7
 10
226.729914
 20
28.0924226480791
 40
2.7
 41
1.266667
  1
品
  7
Font_0
  0
TEXT
  8
画層5
 62
7
  6
BYLAYER
 62
7
 10
226.729914
 20
31.1924226480791
 40
2.7
 41
1.266667
  1
製
  7
Font_0
  0
TEXT
  8
画層1
 62
7
  6
BYLAYER
 62
7
 10
64.4
 20
184.106870648079
 40
3.2
  1
２１０ｍｍ
  7
Font_0
  0
ENDSEC
  0
EOF
