999
Outputted By AR_CAD Ver.1.5.2a
  0
SECTION
  2
HEADER
  9
$ACADVER
  1
AC1009
  9
$DWGCODEPAGE
  3
DOS932
  9
$EXTMIN
 10
0
 20
0
  9
$EXTMAX
 10
297
 20
210
  9
$INSBASE
 10
0.0
 20
0.0
 30
0.0
  9
$HANDLING
 70
     1
  9
$LTSCALE
 40
1
  0
ENDSEC
  0
SECTION
  2
TABLES
  0
TABLE
  2
LTYPE
 70
     8
  0
LTYPE
  2
BYBLOCK
 70
    64
 3

 72
    65
 73
    0
 40
    0
  0
LTYPE
  2
BYLAYER
 70
    64
 3

 72
    65
 73
    0
 40
    0
  0
LTYPE
  2
CONTINUOUS
 70
    64
 3
CONTINUOUS
 72
    65
 73
    0
 40
    0
  0
LTYPE
  2
DASHED
 70
    64
 3

 72
    65
 73
    2
 40
    3.5
 49
    2.91666666666667
 49
    -0.583333333333333
  0
LTYPE
  2
DOT
 70
    64
 3

 72
    65
 73
    2
 40
    0.5
 49
    0.25
 49
    -0.25
  0
LTYPE
  2
DASHDOT
 70
    64
 3

 72
    65
 73
    4
 40
    3.5
 49
    1.84210526315789
 49
    -0.552631578947368
 49
    0.552631578947368
 49
    -0.552631578947368
  0
LTYPE
  2
DIVIDE
 70
    64
 3

 72
    65
 73
    6
 40
    3.5
 49
    1.4
 49
    -0.42
 49
    0.42
 49
    -0.42
 49
    0.42
 49
    -0.42
  0
LTYPE
  2
HIDDEN
 70
    64
 3

 72
    65
 73
    2
 40
    4
 49
    2
 49
    -2
  0
LTYPE
  2
CENTER
 70
    64
 3

 72
    65
 73
    4
 40
    50.8
 49
    31.75
 49
    -6.35
 49
    6.35
 49
    -6.35
  0
ENDTAB
  0
TABLE
  2
LAYER
 70
   257
  0
LAYER
  2
画層0
 70
    0
 62
7
  6
CONTINUOUS
  0
LAYER
  2
画層1
 70
    0
 62
3
  6
CONTINUOUS
  0
LAYER
  2
画層2
 70
    0
 62
9
  6
CONTINUOUS
  0
LAYER
  2
画層3
 70
    0
 62
7
  6
CONTINUOUS
  0
LAYER
  2
画層4
 70
    0
 62
6
  6
CONTINUOUS
  0
LAYER
  2
画層5
 70
    0
 62
1
  6
CONTINUOUS
  0
LAYER
  2
画層6
 70
    0
 62
7
  6
CONTINUOUS
  0
LAYER
  2
画層7
 70
    0
 62
51
  6
CONTINUOUS
  0
LAYER
  2
画層8
 70
    0
 62
61
  6
CONTINUOUS
  0
LAYER
  2
画層9
 70
    0
 62
111
  6
CONTINUOUS
  0
LAYER
  2
画層10
 70
    0
 62
91
  6
CONTINUOUS
  0
LAYER
  2
画層11
 70
    0
 62
131
  6
CONTINUOUS
  0
LAYER
  2
画層12
 70
    0
 62
161
  6
CONTINUOUS
  0
LAYER
  2
画層13
 70
    0
 62
5
  6
CONTINUOUS
  0
LAYER
  2
画層14
 70
    0
 62
7
  6
CONTINUOUS
  0
LAYER
  2
画層15
 70
    0
 62
11
  6
CONTINUOUS
  0
LAYER
  2
画層16
 70
    0
 62
7
  6
CONTINUOUS
  0
LAYER
  2
画層17
 70
    0
 62
70
  6
CONTINUOUS
  0
LAYER
  2
画層18
 70
    0
 62
211
  6
CONTINUOUS
  0
LAYER
  2
画層19
 70
    0
 62
137
  6
CONTINUOUS
  0
LAYER
  2
画層20
 70
    0
 62
4
  6
CONTINUOUS
  0
LAYER
  2
画層21
 70
    0
 62
131
  6
CONTINUOUS
  0
LAYER
  2
画層22
 70
    0
 62
4
  6
CONTINUOUS
  0
LAYER
  2
画層23
 70
    0
 62
4
  6
CONTINUOUS
  0
LAYER
  2
画層24
 70
    0
 62
7
  6
CONTINUOUS
  0
LAYER
  2
画層25
 70
    0
 62
7
  6
CONTINUOUS
  0
LAYER
  2
画層26
 70
    0
 62
7
  6
CONTINUOUS
  0
LAYER
  2
画層27
 70
    0
 62
7
  6
CONTINUOUS
  0
LAYER
  2
画層28
 70
    0
 62
7
  6
CONTINUOUS
  0
LAYER
  2
画層29
 70
    0
 62
7
  6
CONTINUOUS
  0
LAYER
  2
画層30
 70
    0
 62
7
  6
CONTINUOUS
  0
LAYER
  2
画層31
 70
    0
 62
7
  6
CONTINUOUS
  0
LAYER
  2
画層32
 70
    0
 62
7
  6
CONTINUOUS
  0
LAYER
  2
画層33
 70
    0
 62
7
  6
CONTINUOUS
  0
LAYER
  2
画層34
 70
    0
 62
7
  6
CONTINUOUS
  0
LAYER
  2
画層35
 70
    0
 62
7
  6
CONTINUOUS
  0
LAYER
  2
画層36
 70
    0
 62
7
  6
CONTINUOUS
  0
LAYER
  2
画層37
 70
    0
 62
7
  6
CONTINUOUS
  0
LAYER
  2
画層38
 70
    0
 62
7
  6
CONTINUOUS
  0
LAYER
  2
画層39
 70
    0
 62
7
  6
CONTINUOUS
  0
LAYER
  2
画層40
 70
    0
 62
7
  6
CONTINUOUS
  0
LAYER
  2
画層41
 70
    0
 62
7
  6
CONTINUOUS
  0
LAYER
  2
画層42
 70
    0
 62
7
  6
CONTINUOUS
  0
LAYER
  2
画層43
 70
    0
 62
7
  6
CONTINUOUS
  0
LAYER
  2
画層44
 70
    0
 62
7
  6
CONTINUOUS
  0
LAYER
  2
画層45
 70
    0
 62
7
  6
CONTINUOUS
  0
LAYER
  2
画層46
 70
    0
 62
7
  6
CONTINUOUS
  0
LAYER
  2
画層47
 70
    0
 62
7
  6
CONTINUOUS
  0
LAYER
  2
画層48
 70
    0
 62
7
  6
CONTINUOUS
  0
LAYER
  2
画層49
 70
    0
 62
7
  6
CONTINUOUS
  0
LAYER
  2
画層50
 70
    0
 62
7
  6
CONTINUOUS
  0
LAYER
  2
画層51
 70
    0
 62
7
  6
CONTINUOUS
  0
LAYER
  2
画層52
 70
    0
 62
7
  6
CONTINUOUS
  0
LAYER
  2
画層53
 70
    0
 62
7
  6
CONTINUOUS
  0
LAYER
  2
画層54
 70
    0
 62
7
  6
CONTINUOUS
  0
LAYER
  2
画層55
 70
    0
 62
7
  6
CONTINUOUS
  0
LAYER
  2
画層56
 70
    0
 62
7
  6
CONTINUOUS
  0
LAYER
  2
画層57
 70
    0
 62
7
  6
CONTINUOUS
  0
LAYER
  2
画層58
 70
    0
 62
7
  6
CONTINUOUS
  0
LAYER
  2
画層59
 70
    0
 62
7
  6
CONTINUOUS
  0
LAYER
  2
画層60
 70
    0
 62
7
  6
CONTINUOUS
  0
LAYER
  2
画層61
 70
    0
 62
7
  6
CONTINUOUS
  0
LAYER
  2
画層62
 70
    0
 62
7
  6
CONTINUOUS
  0
LAYER
  2
画層63
 70
    0
 62
7
  6
CONTINUOUS
  0
LAYER
  2
画層64
 70
    0
 62
7
  6
CONTINUOUS
  0
LAYER
  2
画層65
 70
    0
 62
7
  6
CONTINUOUS
  0
LAYER
  2
画層66
 70
    0
 62
7
  6
CONTINUOUS
  0
LAYER
  2
画層67
 70
    0
 62
7
  6
CONTINUOUS
  0
LAYER
  2
画層68
 70
    0
 62
7
  6
CONTINUOUS
  0
LAYER
  2
画層69
 70
    0
 62
7
  6
CONTINUOUS
  0
LAYER
  2
画層70
 70
    0
 62
7
  6
CONTINUOUS
  0
LAYER
  2
画層71
 70
    0
 62
7
  6
CONTINUOUS
  0
LAYER
  2
画層72
 70
    0
 62
7
  6
CONTINUOUS
  0
LAYER
  2
画層73
 70
    0
 62
7
  6
CONTINUOUS
  0
LAYER
  2
画層74
 70
    0
 62
7
  6
CONTINUOUS
  0
LAYER
  2
画層75
 70
    0
 62
7
  6
CONTINUOUS
  0
LAYER
  2
画層76
 70
    0
 62
7
  6
CONTINUOUS
  0
LAYER
  2
画層77
 70
    0
 62
7
  6
CONTINUOUS
  0
LAYER
  2
画層78
 70
    0
 62
7
  6
CONTINUOUS
  0
LAYER
  2
画層79
 70
    0
 62
7
  6
CONTINUOUS
  0
LAYER
  2
画層80
 70
    0
 62
7
  6
CONTINUOUS
  0
LAYER
  2
画層81
 70
    0
 62
7
  6
CONTINUOUS
  0
LAYER
  2
画層82
 70
    0
 62
7
  6
CONTINUOUS
  0
LAYER
  2
画層83
 70
    0
 62
7
  6
CONTINUOUS
  0
LAYER
  2
画層84
 70
    0
 62
7
  6
CONTINUOUS
  0
LAYER
  2
画層85
 70
    0
 62
7
  6
CONTINUOUS
  0
LAYER
  2
画層86
 70
    0
 62
7
  6
CONTINUOUS
  0
LAYER
  2
画層87
 70
    0
 62
7
  6
CONTINUOUS
  0
LAYER
  2
画層88
 70
    0
 62
7
  6
CONTINUOUS
  0
LAYER
  2
画層89
 70
    0
 62
7
  6
CONTINUOUS
  0
LAYER
  2
画層90
 70
    0
 62
7
  6
CONTINUOUS
  0
LAYER
  2
画層91
 70
    0
 62
7
  6
CONTINUOUS
  0
LAYER
  2
画層92
 70
    0
 62
7
  6
CONTINUOUS
  0
LAYER
  2
画層93
 70
    0
 62
7
  6
CONTINUOUS
  0
LAYER
  2
画層94
 70
    0
 62
7
  6
CONTINUOUS
  0
LAYER
  2
画層95
 70
    0
 62
7
  6
CONTINUOUS
  0
LAYER
  2
画層96
 70
    0
 62
7
  6
CONTINUOUS
  0
LAYER
  2
画層97
 70
    0
 62
7
  6
CONTINUOUS
  0
LAYER
  2
画層98
 70
    0
 62
7
  6
CONTINUOUS
  0
LAYER
  2
画層99
 70
    0
 62
7
  6
CONTINUOUS
  0
LAYER
  2
画層100
 70
    0
 62
7
  6
CONTINUOUS
  0
LAYER
  2
画層101
 70
    0
 62
7
  6
CONTINUOUS
  0
LAYER
  2
画層102
 70
    0
 62
7
  6
CONTINUOUS
  0
LAYER
  2
画層103
 70
    0
 62
7
  6
CONTINUOUS
  0
LAYER
  2
画層104
 70
    0
 62
7
  6
CONTINUOUS
  0
LAYER
  2
画層105
 70
    0
 62
7
  6
CONTINUOUS
  0
LAYER
  2
画層106
 70
    0
 62
7
  6
CONTINUOUS
  0
LAYER
  2
画層107
 70
    0
 62
7
  6
CONTINUOUS
  0
LAYER
  2
画層108
 70
    0
 62
7
  6
CONTINUOUS
  0
LAYER
  2
画層109
 70
    0
 62
7
  6
CONTINUOUS
  0
LAYER
  2
画層110
 70
    0
 62
7
  6
CONTINUOUS
  0
LAYER
  2
画層111
 70
    0
 62
7
  6
CONTINUOUS
  0
LAYER
  2
画層112
 70
    0
 62
7
  6
CONTINUOUS
  0
LAYER
  2
画層113
 70
    0
 62
7
  6
CONTINUOUS
  0
LAYER
  2
画層114
 70
    0
 62
7
  6
CONTINUOUS
  0
LAYER
  2
画層115
 70
    0
 62
7
  6
CONTINUOUS
  0
LAYER
  2
画層116
 70
    0
 62
7
  6
CONTINUOUS
  0
LAYER
  2
画層117
 70
    0
 62
7
  6
CONTINUOUS
  0
LAYER
  2
画層118
 70
    0
 62
7
  6
CONTINUOUS
  0
LAYER
  2
画層119
 70
    0
 62
7
  6
CONTINUOUS
  0
LAYER
  2
画層120
 70
    0
 62
7
  6
CONTINUOUS
  0
LAYER
  2
画層121
 70
    0
 62
7
  6
CONTINUOUS
  0
LAYER
  2
画層122
 70
    0
 62
7
  6
CONTINUOUS
  0
LAYER
  2
画層123
 70
    0
 62
7
  6
CONTINUOUS
  0
LAYER
  2
画層124
 70
    0
 62
7
  6
CONTINUOUS
  0
LAYER
  2
画層125
 70
    0
 62
7
  6
CONTINUOUS
  0
LAYER
  2
画層126
 70
    0
 62
7
  6
CONTINUOUS
  0
LAYER
  2
画層127
 70
    0
 62
7
  6
CONTINUOUS
  0
LAYER
  2
画層128
 70
    0
 62
7
  6
CONTINUOUS
  0
LAYER
  2
画層129
 70
    0
 62
7
  6
CONTINUOUS
  0
LAYER
  2
画層130
 70
    0
 62
7
  6
CONTINUOUS
  0
LAYER
  2
画層131
 70
    0
 62
7
  6
CONTINUOUS
  0
LAYER
  2
画層132
 70
    0
 62
7
  6
CONTINUOUS
  0
LAYER
  2
画層133
 70
    0
 62
7
  6
CONTINUOUS
  0
LAYER
  2
画層134
 70
    0
 62
7
  6
CONTINUOUS
  0
LAYER
  2
画層135
 70
    0
 62
7
  6
CONTINUOUS
  0
LAYER
  2
画層136
 70
    0
 62
7
  6
CONTINUOUS
  0
LAYER
  2
画層137
 70
    0
 62
7
  6
CONTINUOUS
  0
LAYER
  2
画層138
 70
    0
 62
7
  6
CONTINUOUS
  0
LAYER
  2
画層139
 70
    0
 62
7
  6
CONTINUOUS
  0
LAYER
  2
画層140
 70
    0
 62
7
  6
CONTINUOUS
  0
LAYER
  2
画層141
 70
    0
 62
7
  6
CONTINUOUS
  0
LAYER
  2
画層142
 70
    0
 62
7
  6
CONTINUOUS
  0
LAYER
  2
画層143
 70
    0
 62
7
  6
CONTINUOUS
  0
LAYER
  2
画層144
 70
    0
 62
7
  6
CONTINUOUS
  0
LAYER
  2
画層145
 70
    0
 62
7
  6
CONTINUOUS
  0
LAYER
  2
画層146
 70
    0
 62
7
  6
CONTINUOUS
  0
LAYER
  2
画層147
 70
    0
 62
7
  6
CONTINUOUS
  0
LAYER
  2
画層148
 70
    0
 62
7
  6
CONTINUOUS
  0
LAYER
  2
画層149
 70
    0
 62
7
  6
CONTINUOUS
  0
LAYER
  2
画層150
 70
    0
 62
7
  6
CONTINUOUS
  0
LAYER
  2
画層151
 70
    0
 62
7
  6
CONTINUOUS
  0
LAYER
  2
画層152
 70
    0
 62
7
  6
CONTINUOUS
  0
LAYER
  2
画層153
 70
    0
 62
7
  6
CONTINUOUS
  0
LAYER
  2
画層154
 70
    0
 62
7
  6
CONTINUOUS
  0
LAYER
  2
画層155
 70
    0
 62
7
  6
CONTINUOUS
  0
LAYER
  2
画層156
 70
    0
 62
7
  6
CONTINUOUS
  0
LAYER
  2
画層157
 70
    0
 62
7
  6
CONTINUOUS
  0
LAYER
  2
画層158
 70
    0
 62
7
  6
CONTINUOUS
  0
LAYER
  2
画層159
 70
    0
 62
7
  6
CONTINUOUS
  0
LAYER
  2
画層160
 70
    0
 62
7
  6
CONTINUOUS
  0
LAYER
  2
画層161
 70
    0
 62
7
  6
CONTINUOUS
  0
LAYER
  2
画層162
 70
    0
 62
7
  6
CONTINUOUS
  0
LAYER
  2
画層163
 70
    0
 62
7
  6
CONTINUOUS
  0
LAYER
  2
画層164
 70
    0
 62
7
  6
CONTINUOUS
  0
LAYER
  2
画層165
 70
    0
 62
7
  6
CONTINUOUS
  0
LAYER
  2
画層166
 70
    0
 62
7
  6
CONTINUOUS
  0
LAYER
  2
画層167
 70
    0
 62
7
  6
CONTINUOUS
  0
LAYER
  2
画層168
 70
    0
 62
7
  6
CONTINUOUS
  0
LAYER
  2
画層169
 70
    0
 62
7
  6
CONTINUOUS
  0
LAYER
  2
画層170
 70
    0
 62
7
  6
CONTINUOUS
  0
LAYER
  2
画層171
 70
    0
 62
7
  6
CONTINUOUS
  0
LAYER
  2
画層172
 70
    0
 62
7
  6
CONTINUOUS
  0
LAYER
  2
画層173
 70
    0
 62
7
  6
CONTINUOUS
  0
LAYER
  2
画層174
 70
    0
 62
7
  6
CONTINUOUS
  0
LAYER
  2
画層175
 70
    0
 62
7
  6
CONTINUOUS
  0
LAYER
  2
画層176
 70
    0
 62
7
  6
CONTINUOUS
  0
LAYER
  2
画層177
 70
    0
 62
7
  6
CONTINUOUS
  0
LAYER
  2
画層178
 70
    0
 62
7
  6
CONTINUOUS
  0
LAYER
  2
画層179
 70
    0
 62
7
  6
CONTINUOUS
  0
LAYER
  2
画層180
 70
    0
 62
7
  6
CONTINUOUS
  0
LAYER
  2
画層181
 70
    0
 62
7
  6
CONTINUOUS
  0
LAYER
  2
画層182
 70
    0
 62
7
  6
CONTINUOUS
  0
LAYER
  2
画層183
 70
    0
 62
7
  6
CONTINUOUS
  0
LAYER
  2
画層184
 70
    0
 62
7
  6
CONTINUOUS
  0
LAYER
  2
画層185
 70
    0
 62
7
  6
CONTINUOUS
  0
LAYER
  2
画層186
 70
    0
 62
7
  6
CONTINUOUS
  0
LAYER
  2
画層187
 70
    0
 62
7
  6
CONTINUOUS
  0
LAYER
  2
画層188
 70
    0
 62
7
  6
CONTINUOUS
  0
LAYER
  2
画層189
 70
    0
 62
7
  6
CONTINUOUS
  0
LAYER
  2
画層190
 70
    0
 62
7
  6
CONTINUOUS
  0
LAYER
  2
画層191
 70
    0
 62
7
  6
CONTINUOUS
  0
LAYER
  2
画層192
 70
    0
 62
7
  6
CONTINUOUS
  0
LAYER
  2
画層193
 70
    0
 62
7
  6
CONTINUOUS
  0
LAYER
  2
画層194
 70
    0
 62
7
  6
CONTINUOUS
  0
LAYER
  2
画層195
 70
    0
 62
7
  6
CONTINUOUS
  0
LAYER
  2
画層196
 70
    0
 62
7
  6
CONTINUOUS
  0
LAYER
  2
画層197
 70
    0
 62
7
  6
CONTINUOUS
  0
LAYER
  2
画層198
 70
    0
 62
7
  6
CONTINUOUS
  0
LAYER
  2
画層199
 70
    0
 62
7
  6
CONTINUOUS
  0
LAYER
  2
画層200
 70
    0
 62
7
  6
CONTINUOUS
  0
LAYER
  2
画層201
 70
    0
 62
7
  6
CONTINUOUS
  0
LAYER
  2
画層202
 70
    0
 62
7
  6
CONTINUOUS
  0
LAYER
  2
画層203
 70
    0
 62
7
  6
CONTINUOUS
  0
LAYER
  2
画層204
 70
    0
 62
7
  6
CONTINUOUS
  0
LAYER
  2
画層205
 70
    0
 62
7
  6
CONTINUOUS
  0
LAYER
  2
画層206
 70
    0
 62
7
  6
CONTINUOUS
  0
LAYER
  2
画層207
 70
    0
 62
7
  6
CONTINUOUS
  0
LAYER
  2
画層208
 70
    0
 62
7
  6
CONTINUOUS
  0
LAYER
  2
画層209
 70
    0
 62
7
  6
CONTINUOUS
  0
LAYER
  2
画層210
 70
    0
 62
7
  6
CONTINUOUS
  0
LAYER
  2
画層211
 70
    0
 62
7
  6
CONTINUOUS
  0
LAYER
  2
画層212
 70
    0
 62
7
  6
CONTINUOUS
  0
LAYER
  2
画層213
 70
    0
 62
7
  6
CONTINUOUS
  0
LAYER
  2
画層214
 70
    0
 62
7
  6
CONTINUOUS
  0
LAYER
  2
画層215
 70
    0
 62
7
  6
CONTINUOUS
  0
LAYER
  2
画層216
 70
    0
 62
7
  6
CONTINUOUS
  0
LAYER
  2
画層217
 70
    0
 62
7
  6
CONTINUOUS
  0
LAYER
  2
画層218
 70
    0
 62
7
  6
CONTINUOUS
  0
LAYER
  2
画層219
 70
    0
 62
7
  6
CONTINUOUS
  0
LAYER
  2
画層220
 70
    0
 62
7
  6
CONTINUOUS
  0
LAYER
  2
画層221
 70
    0
 62
7
  6
CONTINUOUS
  0
LAYER
  2
画層222
 70
    0
 62
7
  6
CONTINUOUS
  0
LAYER
  2
画層223
 70
    0
 62
7
  6
CONTINUOUS
  0
LAYER
  2
画層224
 70
    0
 62
7
  6
CONTINUOUS
  0
LAYER
  2
画層225
 70
    0
 62
7
  6
CONTINUOUS
  0
LAYER
  2
画層226
 70
    0
 62
7
  6
CONTINUOUS
  0
LAYER
  2
画層227
 70
    0
 62
7
  6
CONTINUOUS
  0
LAYER
  2
画層228
 70
    0
 62
7
  6
CONTINUOUS
  0
LAYER
  2
画層229
 70
    0
 62
7
  6
CONTINUOUS
  0
LAYER
  2
画層230
 70
    0
 62
7
  6
CONTINUOUS
  0
LAYER
  2
画層231
 70
    0
 62
7
  6
CONTINUOUS
  0
LAYER
  2
画層232
 70
    0
 62
7
  6
CONTINUOUS
  0
LAYER
  2
画層233
 70
    0
 62
7
  6
CONTINUOUS
  0
LAYER
  2
画層234
 70
    0
 62
7
  6
CONTINUOUS
  0
LAYER
  2
画層235
 70
    0
 62
7
  6
CONTINUOUS
  0
LAYER
  2
画層236
 70
    0
 62
7
  6
CONTINUOUS
  0
LAYER
  2
画層237
 70
    0
 62
7
  6
CONTINUOUS
  0
LAYER
  2
画層238
 70
    0
 62
7
  6
CONTINUOUS
  0
LAYER
  2
画層239
 70
    0
 62
7
  6
CONTINUOUS
  0
LAYER
  2
画層240
 70
    0
 62
7
  6
CONTINUOUS
  0
LAYER
  2
画層241
 70
    0
 62
7
  6
CONTINUOUS
  0
LAYER
  2
画層242
 70
    0
 62
7
  6
CONTINUOUS
  0
LAYER
  2
画層243
 70
    0
 62
7
  6
CONTINUOUS
  0
LAYER
  2
画層244
 70
    0
 62
7
  6
CONTINUOUS
  0
LAYER
  2
画層245
 70
    0
 62
7
  6
CONTINUOUS
  0
LAYER
  2
画層246
 70
    0
 62
7
  6
CONTINUOUS
  0
LAYER
  2
画層247
 70
    0
 62
7
  6
CONTINUOUS
  0
LAYER
  2
画層248
 70
    0
 62
7
  6
CONTINUOUS
  0
LAYER
  2
画層249
 70
    0
 62
7
  6
CONTINUOUS
  0
LAYER
  2
画層250
 70
    0
 62
7
  6
CONTINUOUS
  0
LAYER
  2
画層251
 70
    0
 62
7
  6
CONTINUOUS
  0
LAYER
  2
画層252
 70
    0
 62
7
  6
CONTINUOUS
  0
LAYER
  2
画層253
 70
    0
 62
7
  6
CONTINUOUS
  0
LAYER
  2
画層254
 70
    0
 62
7
  6
CONTINUOUS
  0
LAYER
  2
画層255
 70
    0
 62
7
  6
CONTINUOUS
  0
LAYER
  2
0
 70
   64
 62
    7
  6
CONTINUOUS
  0
ENDTAB
  0
TABLE
  2
STYLE
 70
     1
  0
STYLE
  2
Standard
 70
     0
 40
0.0
 41
1.0
 50
0.0
 71
     0
 42
3.2
  3
TXT
  4
BIGFONT
  0
STYLE
  2
Font_0
 70
     0
 40
0.0
 41
1.0
 50
0.0
 71
     0
 42
3.2
  3
txt
  4
BIGFONT
  0
ENDTAB
  0
ENDSEC
  0
SECTION
  2
BLOCKS
  0
BLOCK
  8
画層0
  2
13462_KCAD_FINI_2
 70
    0
 10
0
 20
0
 30
0.0
  3
13462_KCAD_FINI_2
  1

  0
LINE
  8
画層0
  6
CONTINUOUS
 62
134
 10
0
 20
0
 11
1.8475208614068
 21
3.2
  0
LINE
  8
画層0
  6
CONTINUOUS
 62
134
 10
1.8475208614068
 20
3.2
 11
-1.8475208614068
 21
3.2
  0
LINE
  8
画層0
  6
CONTINUOUS
 62
134
 10
-1.8475208614068
 20
3.2
 11
0
 21
0
  0
LINE
  8
画層0
  6
CONTINUOUS
 62
134
 10
3.69504172281361
 20
0
 11
5.54256258422041
 21
3.2
  0
LINE
  8
画層0
  6
CONTINUOUS
 62
134
 10
5.54256258422041
 20
3.2
 11
1.8475208614068
 21
3.2
  0
LINE
  8
画層0
  6
CONTINUOUS
 62
134
 10
1.8475208614068
 20
3.2
 11
3.69504172281361
 21
0
  0
LINE
  8
画層0
  6
CONTINUOUS
 62
134
 10
7.39008344562721
 20
0
 11
9.23760430703401
 21
3.2
  0
LINE
  8
画層0
  6
CONTINUOUS
 62
134
 10
9.23760430703401
 20
3.2
 11
5.54256258422041
 21
3.2
  0
LINE
  8
画層0
  6
CONTINUOUS
 62
134
 10
5.54256258422041
 20
3.2
 11
7.39008344562721
 21
0
  0
ENDBLK
  0
ENDSEC
  0
SECTION
  2
ENTITIES
  0
LINE
  8
画層12
  6
CONTINUOUS
 62
7
 10
162.500010891983
 20
7.67811746657904
 11
162.500010891983
 21
9.98160511421247
  0
LINE
  8
画層12
  6
CONTINUOUS
 62
7
 10
161.438186678611
 20
8.45717326727066
 11
161.438186678611
 21
8.98691568097885
  0
LINE
  8
画層12
  6
CONTINUOUS
 62
7
 10
161.438186678611
 20
10.1867119552213
 11
161.438186678611
 21
9.78152949075616
  0
POLYLINE
  8
画層12
 62
7
  6
CONTINUOUS
 10
0.0
 20
0.0
 30
0.0
 66
1
  0
VERTEX
  8
画層12
 10
162.500010891983
  20
9.98160511421247
  0
VERTEX
  8
画層12
 10
162.484938501777
  20
10.2114764392956
  0
VERTEX
  8
画層12
 10
162.450333172798
  20
10.4323150513807
  0
VERTEX
  8
画層12
 10
162.378226988617
  20
10.6387828269386
  0
VERTEX
  8
画層12
 10
162.257731962061
  20
10.813903732799
  0
VERTEX
  8
画層12
 10
162.094462522454
  20
10.9558303878675
  0
VERTEX
  8
画層12
 10
161.892233364727
  20
11.0544992254773
  0
VERTEX
  8
画層12
 10
161.683773948902
  20
11.1118536504697
  0
VERTEX
  8
画層12
 10
161.49291474742
  20
11.1424530949025
  0
VERTEX
  8
画層12
 10
161.330898769245
  20
11.155571664886
  0
SEQEND
100
AcDbEntity
  8
画層12
  0
ARC
  8
画層12
  6
CONTINUOUS
 62
7
 10
161.257197536753
 20
10.1867119552213
 40
0.180989141858163
 50
0
 51
90
  0
LINE
  8
画層12
  6
CONTINUOUS
 62
7
 10
158.338839990241
 20
7.67811746657904
 11
162.500010891983
 21
7.67811746657904
  0
LINE
  8
画層12
  6
CONTINUOUS
 62
7
 10
158.33883998944
 20
7.67811746657904
 11
158.338839990241
 21
7.67811746657904
  0
LINE
  8
画層12
  6
CONTINUOUS
 62
7
 10
158.338839990241
 20
8.45717326727066
 11
161.438186678611
 21
8.45717326727066
  0
LINE
  8
画層12
  6
CONTINUOUS
 62
7
 10
161.438186678611
 20
8.98691568097885
 11
158.338839990241
 21
8.98691568097885
  0
LINE
  8
画層12
  6
CONTINUOUS
 62
7
 10
158.338839990241
 20
8.98691568097885
 11
158.338839990241
 21
8.45717326727066
  0
LINE
  8
画層12
  6
CONTINUOUS
 62
7
 10
161.438186678611
 20
9.78152949075616
 11
158.338839990241
 21
9.78152949075616
  0
POLYLINE
  8
画層12
 62
7
  6
CONTINUOUS
 10
0.0
 20
0.0
 30
0.0
 66
1
  0
VERTEX
  8
画層12
 10
158.338839990241
  20
7.67811746657904
  0
VERTEX
  8
画層12
 10
158.109659210607
  20
7.68531591221256
  0
VERTEX
  8
画層12
 10
157.881197105052
  20
7.70958729799509
  0
VERTEX
  8
画層12
 10
157.683984848079
  20
7.7523023855432
  0
VERTEX
  8
画層12
 10
157.528042640801
  20
7.80938042165832
  0
VERTEX
  8
画層12
 10
157.41041903581
  20
7.87534940333592
  0
VERTEX
  8
画層12
 10
157.316436808409
  20
7.95091731122395
  0
VERTEX
  8
画層12
 10
157.245841675971
  20
8.03571589186851
  0
VERTEX
  8
画層12
 10
157.193425660588
  20
8.12532962214698
  0
VERTEX
  8
画層12
 10
157.157872619601
  20
8.23041184347699
  0
VERTEX
  8
画層12
 10
157.138146102694
  20
8.34827017889546
  0
VERTEX
  8
画層12
 10
157.134430669999
  20
8.47273127635623
  0
SEQEND
100
AcDbEntity
  8
画層12
  0
LINE
  8
画層12
  6
CONTINUOUS
 62
7
 10
157.134430669999
 20
8.98691568097885
 11
157.134430669999
 21
8.45717326727066
  0
POLYLINE
  8
画層12
 62
7
  6
CONTINUOUS
 10
0.0
 20
0.0
 30
0.0
 66
1
  0
VERTEX
  8
画層12
 10
158.338839990241
  20
9.78152949075616
  0
VERTEX
  8
画層12
 10
158.109659210607
  20
9.77433104512261
  0
VERTEX
  8
画層12
 10
157.881197105051
  20
9.75005965934008
  0
VERTEX
  8
画層12
 10
157.683984848079
  20
9.70734457179196
  0
VERTEX
  8
画層12
 10
157.528042640801
  20
9.65026653567685
  0
VERTEX
  8
画層12
 10
157.41041903581
  20
9.58429755399925
  0
VERTEX
  8
画層12
 10
157.316436808409
  20
9.50872964611119
  0
VERTEX
  8
画層12
 10
157.245841675971
  20
9.42393106546666
  0
VERTEX
  8
画層12
 10
157.193425660588
  20
9.33431733518819
  0
VERTEX
  8
画層12
 10
157.157872619601
  20
9.22923511385818
  0
VERTEX
  8
画層12
 10
157.138146102694
  20
9.11137677843971
  0
VERTEX
  8
画層12
 10
157.134430669999
  20
8.98691568097885
  0
SEQEND
100
AcDbEntity
  8
画層12
  0
LINE
  8
画層12
  6
CONTINUOUS
 62
7
 10
157.214724530654
 20
10.3677010970793
 11
161.257197536753
 21
10.3677010970793
  0
LINE
  8
画層12
  6
CONTINUOUS
 62
7
 10
157.214724530654
 20
11.155571664886
 11
157.214724530654
 21
10.3677010970793
  0
LINE
  8
画層12
  6
CONTINUOUS
 62
7
 10
161.330898769245
 20
11.155571664886
 11
157.214724530654
 21
11.155571664886
  0
LINE
  8
画層12
  6
CONTINUOUS
 62
7
 10
156.575509540345
 20
10.105834642109
 11
156.575509540345
 21
7.67811746657904
  0
LINE
  8
画層12
  6
CONTINUOUS
 62
7
 10
156.575509540345
 20
7.67811746657904
 11
155.515629239802
 21
7.67811746657904
  0
LINE
  8
画層12
  6
CONTINUOUS
 62
7
 10
155.515629239802
 20
7.67811746657904
 11
155.515629239802
 21
10.0474541741272
  0
ARC
  8
画層12
  6
CONTINUOUS
 62
7
 10
155.525772517568
 20
10.105834642109
 40
1.04973702277675
 50
-1.55128757162606E-12
 51
89.9999999999985
  0
ARC
  8
画層12
  6
CONTINUOUS
 62
7
 10
155.298442269572
 20
10.0474541741272
 40
0.217186970229704
 50
7.49788992952488E-12
 51
90.0000000000075
  0
LINE
  8
画層12
  6
CONTINUOUS
 62
7
 10
155.298442269572
 20
10.2646411443569
 11
152.456429658063
 21
10.2646411443569
  0
LINE
  8
画層12
  6
CONTINUOUS
 62
7
 10
152.456429658063
 20
10.2646411443569
 11
152.456429658063
 21
7.67811746657904
  0
LINE
  8
画層12
  6
CONTINUOUS
 62
7
 10
152.456429658063
 20
7.67811746657904
 11
151.39654935752
 21
7.67811746657904
  0
LINE
  8
画層12
  6
CONTINUOUS
 62
7
 10
151.39654935752
 20
7.67811746657904
 11
151.39654935752
 21
11.155571664886
  0
LINE
  8
画層12
  6
CONTINUOUS
 62
7
 10
151.39654935752
 20
11.155571664886
 11
155.525772517568
 21
11.155571664886
  0
LINE
  8
画層12
  6
CONTINUOUS
 62
7
 10
150.779907098497
 20
7.67811746657904
 11
150.779907098497
 21
11.155571664886
  0
LINE
  8
画層12
  6
CONTINUOUS
 62
7
 10
150.779907098497
 20
11.4032102473791
 11
150.779907098497
 21
12.1990038753682
  0
LINE
  8
画層12
  6
CONTINUOUS
 62
7
 10
149.724827694948
 20
7.67811746657904
 11
150.779907098497
 21
7.67811746657904
  0
LINE
  8
画層12
  6
CONTINUOUS
 62
7
 10
149.724827694948
 20
11.155571664886
 11
149.724827694948
 21
7.67811746657904
  0
LINE
  8
画層12
  6
CONTINUOUS
 62
7
 10
150.779907098497
 20
11.155571664886
 11
149.724827694948
 21
11.155571664886
  0
LINE
  8
画層12
  6
CONTINUOUS
 62
7
 10
149.724827694948
 20
11.4032102473791
 11
150.779907098497
 21
11.4032102473791
  0
LINE
  8
画層12
  6
CONTINUOUS
 62
7
 10
150.779907098497
 20
12.1990038753682
 11
149.724827694948
 21
12.1990038753682
  0
LINE
  8
画層12
  6
CONTINUOUS
 62
7
 10
149.724827694948
 20
12.1990038753682
 11
149.724827694948
 21
11.4032102473791
  0
LINE
  8
画層12
  6
CONTINUOUS
 62
7
 10
147.241467978317
 20
7.67811746657904
 11
149.053586978788
 21
7.67811746657904
  0
LINE
  8
画層12
  6
CONTINUOUS
 62
7
 10
148.997381170548
 20
11.155571664886
 11
147.335296386186
 21
11.155571664886
  0
LINE
  8
画層12
  6
CONTINUOUS
 62
7
 10
146.398007592443
 20
9.41902747540385
 11
149.053586978788
 21
7.67811746657904
  0
LINE
  8
画層12
  6
CONTINUOUS
 62
7
 10
148.997381170548
 20
11.155571664886
 11
146.398007592443
 21
9.41902747540385
  0
LINE
  8
画層12
  6
CONTINUOUS
 62
7
 10
147.241467978317
 20
7.67811746657904
 11
145.073189251067
 21
9.31487112239944
  0
LINE
  8
画層12
  6
CONTINUOUS
 62
7
 10
147.335296386186
 20
11.155571664886
 11
145.071211405138
 21
9.52558640803014
  0
LINE
  8
画層12
  6
CONTINUOUS
 62
7
 10
144.899170230909
 20
7.67811746657904
 11
144.899170230909
 21
9.22819907169244
  0
ARC
  8
画層12
  6
CONTINUOUS
 62
7
 10
145.007763716024
 20
9.22819907169244
 40
0.10859348511508
 50
52.95219084369
 51
179.999999999985
  0
ARC
  8
画層12
  6
CONTINUOUS
 62
7
 10
145.007763716024
 20
9.61371662847364
 40
0.10859348511508
 50
180.00000000003
 51
305.751288374749
  0
LINE
  8
画層12
  6
CONTINUOUS
 62
7
 10
143.843504444803
 20
7.67811746657904
 11
144.899170230909
 21
7.67811746657904
  0
LINE
  8
画層12
  6
CONTINUOUS
 62
7
 10
144.899170230909
 20
9.61371662847364
 11
144.899170230909
 21
12.1990038753682
  0
LINE
  8
画層12
  6
CONTINUOUS
 62
7
 10
144.899170230909
 20
12.1990038753682
 11
143.843504444803
 21
12.1990038753682
  0
LINE
  8
画層12
  6
CONTINUOUS
 62
7
 10
143.843504444803
 20
12.1990038753682
 11
143.843504444803
 21
7.67811746657904
  0
LINE
  8
画層12
  6
CONTINUOUS
 62
7
 10
143.298056186044
 20
8.87264580284233
 11
143.298056186044
 21
9.96873050084866
  0
ARC
  8
画層12
  6
CONTINUOUS
 62
7
 10
142.10352784978
 20
8.87264580284233
 40
1.19452833626337
 50
270
 51
0
  0
ARC
  8
画層12
  6
CONTINUOUS
 62
7
 10
142.021120062164
 20
8.73615077002305
 40
0.162890227672506
 50
270.00000000001
 51
9.99718657268588E-12
  0
LINE
  8
画層12
  6
CONTINUOUS
 62
7
 10
142.184010289836
 20
8.73615077002305
 11
142.184010289836
 21
10.1119675142057
  0
ARC
  8
画層12
  6
CONTINUOUS
 62
7
 10
142.021120062164
 20
10.1119675142057
 40
0.162890227672506
 50
0
 51
90
  0
ARC
  8
画層12
  6
CONTINUOUS
 62
7
 10
142.10352784978
 20
9.96873050084866
 40
1.19452833626337
 50
-2.72650542891814E-12
 51
89.9999999999973
  0
LINE
  8
画層12
  6
CONTINUOUS
 62
7
 10
139.145006914762
 20
7.67811746657904
 11
142.10352784978
 21
7.67811746657904
  0
LINE
  8
画層12
  6
CONTINUOUS
 62
7
 10
139.084925718952
 20
8.57326054235077
 11
142.021120062164
 21
8.57326054235077
  0
LINE
  8
画層12
  6
CONTINUOUS
 62
7
 10
134.725692566903
 20
7.67811746657904
 11
135.914043185536
 21
7.67811746657904
  0
ARC
  8
画層12
  6
CONTINUOUS
 62
7
 10
139.084925718952
 20
8.73615077002305
 40
0.162890227672051
 50
180.00000000001
 51
270.00000000001
  0
LINE
  8
画層12
  6
CONTINUOUS
 62
7
 10
132.5
 20
12.1990038753682
 11
132.5
 21
11.2037301464052
  0
ARC
  8
画層12
  6
CONTINUOUS
 62
7
 10
139.145006914762
 20
8.87264580284233
 40
1.19452833626337
 50
180
 51
270
  0
LINE
  8
画層12
  6
CONTINUOUS
 62
7
 10
142.021120062164
 20
10.274857741878
 11
139.084925718952
 21
10.274857741878
  0
LINE
  8
画層12
  6
CONTINUOUS
 62
7
 10
138.922035491279
 20
10.1119675142057
 11
138.922035491279
 21
8.73615077002305
  0
ARC
  8
画層12
  6
CONTINUOUS
 62
7
 10
139.084925718952
 20
10.1119675142057
 40
0.162890227672051
 50
90
 51
180
  0
LINE
  8
画層12
  6
CONTINUOUS
 62
7
 10
142.10352784978
 20
11.163258837112
 11
139.145006914762
 21
11.163258837112
  0
LINE
  8
画層12
  6
CONTINUOUS
 62
7
 10
137.950478578499
 20
9.96873050084866
 11
137.950478578499
 21
8.87264580284233
  0
ARC
  8
画層12
  6
CONTINUOUS
 62
7
 10
139.145006914762
 20
9.96873050084866
 40
1.19452833626337
 50
89.9999999999973
 51
179.999999999997
  0
LINE
  8
画層12
  6
CONTINUOUS
 62
7
 10
138.175301811458
 20
11.2037301464052
 11
138.175301811458
 21
12.1990038753682
  0
LINE
  8
画層12
  6
CONTINUOUS
 62
7
 10
132.5
 20
11.2037301464052
 11
134.725692566903
 21
11.2037301464052
  0
LINE
  8
画層12
  6
CONTINUOUS
 62
7
 10
134.725692566903
 20
11.2037301464052
 11
134.725692566903
 21
7.67811746657904
  0
LINE
  8
画層12
  6
CONTINUOUS
 62
7
 10
135.914043185536
 20
7.67811746657904
 11
135.914043185536
 21
11.2037301464052
  0
LINE
  8
画層12
  6
CONTINUOUS
 62
7
 10
135.914043185536
 20
11.2037301464052
 11
138.175301811458
 21
11.2037301464052
  0
LINE
  8
画層12
  6
CONTINUOUS
 62
7
 10
138.175301811458
 20
12.1990038753682
 11
132.5
 21
12.1990038753682
  0
LINE
  8
画層12
  6
CONTINUOUS
 62
7
 10
11
 20
105.678117466579
 11
8.5
 21
105.678117466579
  0
LINE
  8
画層12
  6
CONTINUOUS
 62
7
 10
286
 20
105.678117466579
 11
288.5
 21
105.678117466579
  0
LINE
  8
画層12
  6
CONTINUOUS
 62
7
 10
95.9999999999989
 20
14.6781174665791
 11
95.9999999999989
 21
47.1781174665791
  0
LINE
  8
画層12
  6
CONTINUOUS
 62
7
 10
116.999999999999
 20
14.6781174665791
 11
116.999999999999
 21
47.1781174665791
  0
LINE
  8
画層12
  6
CONTINUOUS
 62
7
 10
132.999999999999
 20
14.6781174665791
 11
132.999999999999
 21
34.678117466579
  0
LINE
  8
画層12
  6
CONTINUOUS
 62
7
 10
148.999999999999
 20
14.6781174665791
 11
148.999999999999
 21
34.678117466579
  0
LINE
  8
画層12
  6
CONTINUOUS
 62
7
 10
164.999999999999
 20
14.6781174665791
 11
164.999999999999
 21
47.1781174665791
  0
TEXT
  8
画層12
 62
7
  6
CENTER
 62
7
 10
169.062499999999
 20
30.6031174665791
 40
3.15
  1
承 認
  7
Font_0
 72
1
 11
172.999999999999
 21
32.1781174665791
 73
2
  0
TEXT
  8
画層12
 62
7
  6
CENTER
 62
7
 10
153.062499999999
 20
30.6031174665791
 40
3.15
  1
検 図
  7
Font_0
 72
1
 11
156.999999999999
 21
32.1781174665791
 73
2
  0
TEXT
  8
画層12
 62
7
  6
CENTER
 62
7
 10
121.062499999999
 20
30.6031174665791
 40
3.15
  1
製 図
  7
Font_0
 72
1
 11
124.999999999999
 21
32.1781174665791
 73
2
  0
TEXT
  8
画層12
 62
7
  6
CENTER
 62
7
 10
131.549999999999
 20
35.603117466579
 40
3.15
  1
部   品   名
  7
Font_0
 72
1
 11
140.999999999999
 21
37.178117466579
 73
2
  0
TEXT
  8
画層12
 62
7
  6
CENTER
 62
7
 10
244.975
 20
35.603117466579
 40
3.15
  1
表  面  処  理
  7
Font_0
 72
1
 11
256
 21
37.178117466579
 73
2
  0
LINE
  8
画層12
  6
CONTINUOUS
 62
7
 10
95.9999999999989
 20
19.678117466579
 11
116.999999999999
 21
19.678117466579
  0
TEXT
  8
画層12
 62
7
  6
CENTER
 62
7
 10
15.9191204138997
 20
18.3524119161791
 40
3.15
  1
日付
  7
Font_0
  0
TEXT
  8
画層12
 62
7
  6
CENTER
 62
7
 10
100.829999999999
 20
15.8281174665791
 40
2.7
 41
1.2
  1
 三角法
  7
Font_0
 72
1
 11
106.499999999999
 21
17.1781174665791
 73
2
  0
LINE
  8
画層12
  6
CONTINUOUS
 62
7
 10
95.9999999999989
 20
29.678117466579
 11
180.999999999999
 21
29.678117466579
  0
LINE
  8
画層12
  6
CONTINUOUS
 62
7
 10
37
 20
24.6781174665791
 11
37
 21
34.678117466579
  0
LINE
  8
画層12
  6
CONTINUOUS
 62
7
 10
11
 20
31.344784133279
 11
95.9999999999989
 21
31.344784133279
  0
LINE
  8
画層12
  6
CONTINUOUS
 62
7
 10
11
 20
28.0114507998791
 11
95.9999999999989
 21
28.0114507998791
  0
LINE
  8
画層12
  6
CONTINUOUS
 62
7
 10
11
 20
24.6781174665791
 11
95.9999999999989
 21
24.6781174665791
  0
LINE
  8
画層12
  6
CONTINUOUS
 62
7
 10
29
 20
14.6781174665791
 11
29
 21
34.678117466579
  0
LINE
  8
画層12
  6
CONTINUOUS
 62
7
 10
16.3999999999996
 20
24.6781174665791
 11
16.3999999999996
 21
34.678117466579
  0
TEXT
  8
画層12
 62
7
  6
CENTER
 62
7
 10
54.0534365004487
 20
25.1889461196279
 40
2.4
  1
訂  正  記  事
  7
Font_0
  0
TEXT
  8
画層12
 62
7
  6
CENTER
 62
7
 10
11.8994858767996
 20
25.5275661468331
 40
1.8
  1
符号
  7
Font_0
  0
LINE
  8
画層12
  6
CONTINUOUS
 62
7
 10
13.8775258042998
 20
34.208314179879
 11
15.2108591376
 21
31.8989131030791
  0
LINE
  8
画層12
  6
CONTINUOUS
 62
7
 10
15.2108591376
 20
31.8989131030791
 11
12.5441924708999
 21
31.8989131030791
  0
LINE
  8
画層12
  6
CONTINUOUS
 62
7
 10
12.5441924708999
 20
31.8989131030791
 11
13.8775258042998
 21
34.208314179879
  0
LINE
  8
画層12
  6
CONTINUOUS
 62
7
 10
12.5465360781898
 20
28.5868109766479
 11
13.8798694114894
 21
30.8962120533479
  0
LINE
  8
画層12
  6
CONTINUOUS
 62
7
 10
15.2132027448897
 20
28.5868109766479
 11
12.5465360781898
 21
28.5868109766479
  0
LINE
  8
画層12
  6
CONTINUOUS
 62
7
 10
13.8798694114894
 20
30.8962120533479
 11
15.2132027448897
 21
28.5868109766479
  0
TEXT
  8
画層12
 62
7
  6
CENTER
 62
7
 10
30.6123853524139
 20
25.2275660037818
 40
2.4
  1
担当
  7
Font_0
  0
TEXT
  8
画層12
 62
7
  6
CENTER
 62
7
 10
18.9280507624824
 20
25.1607351363458
 40
2.4
  1
年月日
  7
Font_0
  0
TEXT
  8
画層12
 62
7
  6
CENTER
 62
7
 10
13.7402442393472
 20
28.8247111778673
 40
1.35600025863647
 41
0.577433297908475
  1
1
  7
Font_0
  0
TEXT
  8
画層12
 62
7
  6
CENTER
 62
7
 10
13.6076941802875
 20
32.1509517079524
 40
1.35600025863647
 41
0.577433297908475
  1
2
  7
Font_0
  0
TEXT
  8
画層12
 62
7
  6
CENTER
 62
7
 10
197.2
 20
35.603117466579
 40
3.15
  1
材    質
  7
Font_0
 72
1
 11
203.5
 21
37.178117466579
 73
2
  0
TEXT
  8
画層12
 62
7
  6
CENTER
 62
7
 10
169.849999999999
 20
35.603117466579
 40
3.15
  1
個数
  7
Font_0
 72
1
 11
172.999999999999
 21
37.178117466579
 73
2
  0
TEXT
  8
画層12
 62
7
  6
CENTER
 62
7
 10
100.199999999999
 20
35.603117466579
 40
3.15
  1
部品番号
  7
Font_0
 72
1
 11
106.499999999999
 21
37.178117466579
 73
2
  0
TEXT
  8
画層12
 62
7
  6
CENTER
 62
7
 10
102.652499999999
 20
30.6031174665791
 40
3.15
 41
1.22142857142857
  1
尺度
  7
Font_0
 72
1
 11
106.499999999999
 21
32.1781174665791
 73
2
  0
LINE
  8
画層12
  6
CONTINUOUS
 62
7
 10
185.999999999999
 20
14.6781174665791
 11
185.999999999999
 21
34.678117466579
  0
LINE
  8
画層12
  6
CONTINUOUS
 62
7
 10
95.9999999999989
 20
39.6781174665791
 11
286
 21
39.6781174665791
  0
TEXT
  8
画層12
 62
7
  6
CENTER
 62
7
 10
226.65
 20
16.328117466579
 40
2.7
 41
1.26666666666666
  1
番
  7
Font_0
  0
TEXT
  8
画層12
 62
7
  6
CENTER
 62
7
 10
226.65
 20
20.828117466579
 40
2.7
 41
1.26666666666666
  1
図
  7
Font_0
  0
TEXT
  8
画層12
 62
7
  6
CENTER
 62
7
 10
181.668525536581
 20
30.045350111879
 40
2.7
 41
1.26666666666666
  1
仕
  7
Font_0
  0
TEXT
  8
画層12
 62
7
  6
CENTER
 62
7
 10
181.668525536581
 20
26.545350111879
 40
2.7
 41
1.27
  1
上
  7
Font_0
  0
TEXT
  8
画層12
 62
7
  6
CENTER
 62
7
 10
182.015468175663
 20
16.773478051679
 40
2.7
 41
1.20333331823349
  1
取
  7
Font_0
  0
TEXT
  8
画層12
 62
7
  6
CENTER
 62
7
 10
182.015468175663
 20
20.273478051679
 40
2.7
 41
1.20333331823349
  1
面
  7
Font_0
  0
TEXT
  8
画層12
 62
7
  6
CENTER
 62
7
 10
137.062499999999
 20
30.6031174665791
 40
3.15
  1
設 計
  7
Font_0
 72
1
 11
140.999999999999
 21
32.1781174665791
 73
2
  0
TEXT
  8
画層12
 62
7
  6
CENTER
 62
7
 10
226.72991426151
 20
25.363669304179
 40
2.7
 41
1.26666666666666
  1
名
  7
Font_0
  0
TEXT
  8
画層12
 62
7
  6
CENTER
 62
7
 10
226.72991426151
 20
28.463669304179
 40
2.7
 41
1.26666666666666
  1
品
  7
Font_0
  0
TEXT
  8
画層12
 62
7
  6
CENTER
 62
7
 10
226.72991426151
 20
31.563669304179
 40
2.7
 41
1.26666666666666
  1
製
  7
Font_0
  0
LINE
  8
画層12
  6
CONTINUOUS
 62
7
 10
286
 20
24.6781174665791
 11
180.999999999999
 21
24.6781174665791
  0
LINE
  8
画層12
  6
CONTINUOUS
 62
7
 10
231
 20
14.6781174665791
 11
231
 21
34.678117466579
  0
LINE
  8
画層12
  6
CONTINUOUS
 62
7
 10
180.999999999999
 20
14.6781174665791
 11
180.999999999999
 21
47.1781174665791
  0
LINE
  8
画層12
  6
CONTINUOUS
 62
7
 10
286
 20
34.678117466579
 11
10.9999999999997
 21
34.678117466579
  0
LINE
  8
画層12
  6
CONTINUOUS
 62
7
 10
226
 20
47.1781174665791
 11
226
 21
14.6781174665791
  0
LINE
  8
画層12
  6
CONTINUOUS
 62
7
 10
95.9999999999989
 20
47.1781174665791
 11
286
 21
47.1781174665791
  0
LINE
  8
画層12
  6
CONTINUOUS
 62
7
 10
286
 20
14.6781174665791
 11
11
 21
14.6781174665791
  0
LINE
  8
画層12
  6
CONTINUOUS
 62
7
 10
147.5
 20
201.678117466579
 11
147.5
 21
204.178117466579
  0
LINE
  8
画層12
  6
CONTINUOUS
 62
7
 10
286
 20
201.678117466579
 11
286
 21
14.6781174665791
  0
LINE
  8
画層12
  6
CONTINUOUS
 62
7
 10
11
 20
201.678117466579
 11
11
 21
14.6781174665791
  0
LINE
  8
画層12
  6
CONTINUOUS
 62
7
 10
286
 20
201.678117466579
 11
11
 21
201.678117466579
  0
TEXT
  8
画層0
 62
7
  6
CONTINUOUS
 62
7
 10
70.8
 20
139.678117466579
 40
3.2
  1
６９
  7
Font_0
 72
1
 11
74
 21
141.278117466579
 73
2
  0
TEXT
  8
画層0
 62
7
  6
CONTINUOUS
 62
7
 10
66
 20
146.078117466579
 40
3.2
  1
０．１１％
  7
Font_0
 72
1
 11
74
 21
147.678117466579
 73
2
  0
TEXT
  8
画層0
 62
7
  6
CONTINUOUS
 62
7
 10
66
 20
152.478117466579
 40
3.2
  1
０．０３５
  7
Font_0
 72
1
 11
74
 21
154.078117466579
 73
2
  0
TEXT
  8
画層0
 62
7
  6
CONTINUOUS
 62
7
 10
67.6
 20
165.278117466579
 40
3.2
  1
９．６μ
  7
Font_0
 72
1
 11
74
 21
166.878117466579
 73
2
  0
TEXT
  8
画層0
 62
7
  6
CONTINUOUS
 62
7
 10
66
 20
171.678117466579
 40
3.2
  1
１１４０μ
  7
Font_0
 72
1
 11
74
 21
173.278117466579
 73
2
  0
TEXT
  8
画層0
 62
7
  6
CONTINUOUS
 62
7
 10
67.6
 20
158.878117466579
 40
3.2
  1
１４．２
  7
Font_0
 72
1
 11
74
 21
160.478117466579
 73
2
  0
TEXT
  8
画層0
 62
7
  6
CONTINUOUS
 62
7
 10
67.6
 20
133.278117466579
 40
3.2
  1
１／２″
  7
Font_0
 72
1
 11
74
 21
134.878117466579
 73
2
  0
LINE
  8
画層1
  6
CONTINUOUS
 62
7
 10
178.602041181661
 20
93.6781174665791
 11
178.602041181661
 21
82.0384266143832
  0
LINE
  8
画層1
  6
CONTINUOUS
 62
7
 10
130.90204118166
 20
83.0384266143832
 11
175.602041181661
 21
83.0384266143832
  0
TEXT
  8
画層1
 62
7
  6
BYLAYER
 62
7
 10
150.05204118166
 20
83.5717266143833
 40
3.2
  1
50.7
  7
Font_0
 72
1
 11
153.25204118166
 21
85.1717266143832
 73
2
  0
LINE
  8
画層0
  6
CONTINUOUS
 62
7
 10
130.90204118166
 20
82.2345796143832
 11
127.90204118166
 21
83.0384266143832
  0
LINE
  8
画層0
  6
CONTINUOUS
 62
7
 10
127.90204118166
 20
83.0384266143832
 11
130.90204118166
 21
83.8422736143832
  0
LINE
  8
画層0
  6
CONTINUOUS
 62
7
 10
127.90204118166
 20
83.0384266143832
 11
130.90204118166
 21
83.0384266143832
  0
LINE
  8
画層0
  6
CONTINUOUS
 62
7
 10
175.602041181661
 20
83.8422736143832
 11
178.602041181661
 21
83.0384266143832
  0
LINE
  8
画層0
  6
CONTINUOUS
 62
7
 10
178.602041181661
 20
83.0384266143832
 11
175.602041181661
 21
82.2345796143832
  0
LINE
  8
画層0
  6
CONTINUOUS
 62
7
 10
178.602041181661
 20
83.0384266143832
 11
175.602041181661
 21
83.0384266143832
  0
LINE
  8
画層1
  6
CONTINUOUS
 62
7
 10
127.90204118166
 20
99.978117466579
 11
127.90204118166
 21
82.0384266143832
  0
LINE
  8
画層1
  6
CONTINUOUS
 62
7
 10
122.90204118166
 20
83.0384266143832
 11
124.90204118166
 21
83.0384266143832
  0
TEXT
  8
画層1
 62
7
  6
BYLAYER
 62
7
 10
123.102041181661
 20
83.5717266143833
 40
3.2
  1
8
  7
Font_0
 72
1
 11
123.902041181661
 21
85.1717266143832
 73
2
  0
LINE
  8
画層0
  6
CONTINUOUS
 62
7
 10
119.90204118166
 20
83.0384266143832
 11
122.90204118166
 21
83.0384266143832
  0
LINE
  8
画層0
  6
CONTINUOUS
 62
7
 10
127.90204118166
 20
83.0384266143832
 11
124.90204118166
 21
83.0384266143832
  0
LINE
  8
画層1
  6
CONTINUOUS
 62
7
 10
89.9020411816607
 20
100.978117466579
 11
89.9020411816607
 21
82.0384266143832
  0
LINE
  8
画層1
  6
CONTINUOUS
 62
7
 10
119.90204118166
 20
96.043510316002
 11
119.90204118166
 21
82.0384266143832
  0
LINE
  8
画層1
  6
CONTINUOUS
 62
7
 10
92.9020411816607
 20
83.0384266143832
 11
116.90204118166
 21
83.0384266143832
  0
TEXT
  8
画層1
 62
7
  6
BYLAYER
 62
7
 10
103.302041181661
 20
83.5717266143833
 40
3.2
  1
30
  7
Font_0
 72
1
 11
104.902041181661
 21
85.1717266143832
 73
2
  0
LINE
  8
画層0
  6
CONTINUOUS
 62
7
 10
92.9020411816607
 20
82.2345796143832
 11
89.9020411816607
 21
83.0384266143832
  0
LINE
  8
画層0
  6
CONTINUOUS
 62
7
 10
89.9020411816607
 20
83.0384266143832
 11
92.9020411816607
 21
83.8422736143832
  0
LINE
  8
画層0
  6
CONTINUOUS
 62
7
 10
89.9020411816607
 20
83.0384266143832
 11
92.9020411816607
 21
83.0384266143832
  0
LINE
  8
画層0
  6
CONTINUOUS
 62
7
 10
116.90204118166
 20
83.8422736143832
 11
119.90204118166
 21
83.0384266143832
  0
LINE
  8
画層0
  6
CONTINUOUS
 62
7
 10
119.90204118166
 20
83.0384266143832
 11
116.90204118166
 21
82.2345796143832
  0
LINE
  8
画層0
  6
CONTINUOUS
 62
7
 10
119.90204118166
 20
83.0384266143832
 11
116.90204118166
 21
83.0384266143832
  0
LINE
  8
画層1
  6
CONTINUOUS
 62
7
 10
201.645742224402
 20
96.978117466579
 11
189.50204118166
 21
96.978117466579
  0
LINE
  8
画層1
  6
CONTINUOUS
 62
7
 10
201.645742224402
 20
122.378117466579
 11
189.50204118166
 21
122.378117466579
  0
LINE
  8
画層1
  6
CONTINUOUS
 62
7
 10
200.645742224402
 20
99.978117466579
 11
200.645742224402
 21
119.378117466579
  0
TEXT
  8
画層1
 62
7
  6
BYLAYER
 62
7
 10
200.112442224402
 20
101.678117466579
 40
3.2
  1
Ｃマウント
  7
Font_0
 50
90
 72
1
 11
198.512442224402
 21
109.678117466579
 73
2
  0
LINE
  8
画層0
  6
CONTINUOUS
 62
7
 10
201.449589224402
 20
99.978117466579
 11
200.645742224402
 21
96.978117466579
  0
LINE
  8
画層0
  6
CONTINUOUS
 62
7
 10
200.645742224402
 20
96.978117466579
 11
199.841895224402
 21
99.978117466579
  0
LINE
  8
画層0
  6
CONTINUOUS
 62
7
 10
200.645742224402
 20
96.978117466579
 11
200.645742224402
 21
99.978117466579
  0
LINE
  8
画層0
  6
CONTINUOUS
 62
7
 10
199.841895224402
 20
119.378117466579
 11
200.645742224402
 21
122.378117466579
  0
LINE
  8
画層0
  6
CONTINUOUS
 62
7
 10
200.645742224402
 20
122.378117466579
 11
201.449589224402
 21
119.378117466579
  0
LINE
  8
画層0
  6
CONTINUOUS
 62
7
 10
200.645742224402
 20
122.378117466579
 11
200.645742224402
 21
119.378117466579
  0
LINE
  8
画層1
  6
CONTINUOUS
 62
7
 10
206.804140480493
 20
94.178117466579
 11
185.80204118166
 21
94.178117466579
  0
LINE
  8
画層1
  6
CONTINUOUS
 62
7
 10
206.804140480493
 20
125.178117466579
 11
185.80204118166
 21
125.178117466579
  0
LINE
  8
画層1
  6
CONTINUOUS
 62
7
 10
205.804140480493
 20
97.178117466579
 11
205.804140480493
 21
122.178117466579
  0
TEXT
  8
画層1
 62
7
  6
BYLAYER
 62
7
 10
205.270840480493
 20
106.478117466579
 40
3.2
  1
%%c31
  7
Font_0
 50
90
 72
1
 11
203.670840480493
 21
109.678117466579
 73
2
  0
LINE
  8
画層0
  6
CONTINUOUS
 62
7
 10
206.607987480493
 20
97.178117466579
 11
205.804140480493
 21
94.178117466579
  0
LINE
  8
画層0
  6
CONTINUOUS
 62
7
 10
205.804140480493
 20
94.178117466579
 11
205.000293480493
 21
97.178117466579
  0
LINE
  8
画層0
  6
CONTINUOUS
 62
7
 10
205.804140480493
 20
94.178117466579
 11
205.804140480493
 21
97.178117466579
  0
LINE
  8
画層0
  6
CONTINUOUS
 62
7
 10
205.000293480493
 20
122.178117466579
 11
205.804140480493
 21
125.178117466579
  0
LINE
  8
画層0
  6
CONTINUOUS
 62
7
 10
205.804140480493
 20
125.178117466579
 11
206.607987480493
 21
122.178117466579
  0
LINE
  8
画層0
  6
CONTINUOUS
 62
7
 10
205.804140480493
 20
125.178117466579
 11
205.804140480493
 21
122.178117466579
  0
LINE
  8
画層0
  6
CONTINUOUS
 62
7
 10
179.10204118166
 20
125.178117466579
 11
178.602041181661
 21
124.678117466579
  0
LINE
  8
画層0
  6
CONTINUOUS
 62
7
 10
185.10204118166
 20
124.878117466579
 11
184.80204118166
 21
125.178117466579
  0
LINE
  8
画層0
  6
CONTINUOUS
 62
7
 10
184.80204118166
 20
125.178117466579
 11
179.10204118166
 21
125.178117466579
  0
LINE
  8
画層0
  6
CONTINUOUS
 62
7
 10
188.50204118166
 20
122.378117466579
 11
189.102041181661
 21
121.778117466579
  0
LINE
  8
画層0
  6
CONTINUOUS
 62
7
 10
188.50204118166
 20
122.378117466579
 11
186.102041181661
 21
122.378117466579
  0
LINE
  8
画層0
  6
CONTINUOUS
 62
7
 10
185.10204118166
 20
121.928117466579
 11
188.95204118166
 21
121.928117466579
  0
LINE
  8
画層0
  6
CONTINUOUS
 62
7
 10
185.10204118166
 20
94.478117466579
 11
185.10204118166
 21
124.878117466579
  0
LINE
  8
画層0
  6
CONTINUOUS
 62
7
 10
178.602041181661
 20
94.678117466579
 11
178.602041181661
 21
124.678117466579
  0
LINE
  8
画層0
  6
CONTINUOUS
 62
7
 10
189.102041181661
 20
97.578117466579
 11
189.102041181661
 21
121.778117466579
  0
LINE
  8
画層0
  6
CONTINUOUS
 62
7
 10
188.50204118166
 20
96.978117466579
 11
188.50204118166
 21
122.378117466579
  0
LINE
  8
画層0
  6
CONTINUOUS
 62
7
 10
179.10204118166
 20
94.178117466579
 11
179.10204118166
 21
125.178117466579
  0
LINE
  8
画層0
  6
CONTINUOUS
 62
7
 10
184.80204118166
 20
94.178117466579
 11
184.80204118166
 21
125.178117466579
  0
LINE
  8
画層0
  6
CONTINUOUS
 62
7
 10
186.102041181661
 20
96.978117466579
 11
186.102041181661
 21
122.378117466579
  0
LINE
  8
画層0
  6
CENTER
 62
7
 10
119.90204118166
 20
130.987097413963
 11
119.90204118166
 21
99.0928901159055
  0
LINE
  8
画層1
  6
CONTINUOUS
 62
7
 10
189.102041181661
 20
76.3421155439388
 11
189.102041181661
 21
96.5781174665791
  0
LINE
  8
画層1
  6
CONTINUOUS
 62
7
 10
185.10204118166
 20
77.3421155439388
 11
189.102041181661
 21
77.3421155439388
  0
LINE
  8
画層1
  6
CONTINUOUS
 62
7
 10
183.10204118166
 20
77.3421155439388
 11
181.10204118166
 21
77.3421155439388
  0
LINE
  8
画層1
  6
CONTINUOUS
 62
7
 10
192.102041181661
 20
77.3421155439388
 11
195.768674514994
 21
77.3421155439388
  0
TEXT
  8
画層1
 62
7
  6
BYLAYER
 62
7
 10
193.902007848328
 20
77.8754155439389
 40
3.2
  1
4
  7
Font_0
 72
1
 11
194.702007848328
 21
79.4754155439389
 73
2
  0
LINE
  8
画層0
  6
CONTINUOUS
 62
7
 10
185.10204118166
 20
77.3421155439388
 11
183.10204118166
 21
77.3421155439388
  0
LINE
  8
画層0
  6
CONTINUOUS
 62
7
 10
192.102041181661
 20
76.5382685439388
 11
189.102041181661
 21
77.3421155439388
  0
LINE
  8
画層0
  6
CONTINUOUS
 62
7
 10
189.102041181661
 20
77.3421155439388
 11
192.102041181661
 21
78.1459625439388
  0
LINE
  8
画層0
  6
CONTINUOUS
 62
7
 10
189.102041181661
 20
77.3421155439388
 11
192.102041181661
 21
77.3421155439388
  0
LINE
  8
画層0
  6
CENTER
 62
7
 10
181.902041181661
 20
112.678117466579
 11
181.902041181661
 21
106.678117466579
  0
CIRCLE
  8
画層0
  6
CONTINUOUS
 62
7
 10
181.902041181661
 20
109.678117466579
 40
1.50000000000023
  0
CIRCLE
  8
画層0
  6
CONTINUOUS
 62
7
 10
181.902041181661
 20
109.678117466579
 40
1.24999999999977
  0
LINE
  8
画層0
  6
CONTINUOUS
 62
7
 10
185.10204118166
 20
97.4281174665791
 11
188.95204118166
 21
97.4281174665791
  0
LINE
  8
画層0
  6
CONTINUOUS
 62
7
 10
188.50204118166
 20
96.978117466579
 11
186.102041181661
 21
96.978117466579
  0
LINE
  8
画層0
  6
CONTINUOUS
 62
7
 10
188.50204118166
 20
96.978117466579
 11
189.102041181661
 21
97.578117466579
  0
LINE
  8
画層0
  6
CONTINUOUS
 62
7
 10
184.80204118166
 20
94.178117466579
 11
179.10204118166
 21
94.178117466579
  0
LINE
  8
画層0
  6
CONTINUOUS
 62
7
 10
185.10204118166
 20
94.478117466579
 11
184.80204118166
 21
94.178117466579
  0
LINE
  8
画層0
  6
CONTINUOUS
 62
7
 10
179.10204118166
 20
94.178117466579
 11
178.602041181661
 21
94.678117466579
  0
LINE
  8
画層0
  6
CONTINUOUS
 62
7
 10
24.9020411816608
 20
106.909290466579
 11
24.9020411816608
 21
112.446944466579
  0
LINE
  8
画層0
  6
CENTER
 62
7
 10
21.3576691877686
 20
109.678117466579
 11
193.842178598264
 21
109.678117466579
  0
LINE
  8
画層0
  6
CONTINUOUS
 62
7
 10
89.9020411816607
 20
117.378117466579
 11
90.2020411816607
 21
117.678117466579
  0
LINE
  8
画層0
  6
CONTINUOUS
 62
7
 10
90.2020411816607
 20
101.678117466579
 11
89.9020411816607
 21
101.978117466579
  0
LINE
  8
画層0
  6
CONTINUOUS
 62
7
 10
127.90204118166
 20
101.678117466579
 11
152.70204118166
 21
101.678117466579
  0
LINE
  8
画層0
  6
CONTINUOUS
 62
7
 10
111.90204118166
 20
101.678117466579
 11
90.2020411816607
 21
101.678117466579
  0
LINE
  8
画層0
  6
CONTINUOUS
 62
7
 10
178.602041181661
 20
117.678117466579
 11
128.00204118166
 21
117.678117466579
  0
LINE
  8
画層0
  6
CONTINUOUS
 62
7
 10
127.90204118166
 20
117.578117466579
 11
127.802041181661
 21
117.678117466579
  0
LINE
  8
画層0
  6
CONTINUOUS
 62
7
 10
128.00204118166
 20
117.678117466579
 11
127.90204118166
 21
117.578117466579
  0
LINE
  8
画層0
  6
CONTINUOUS
 62
7
 10
112.002041181661
 20
117.678117466579
 11
127.802041181661
 21
117.678117466579
  0
LINE
  8
画層0
  6
CONTINUOUS
 62
7
 10
111.90204118166
 20
117.578117466579
 11
112.002041181661
 21
117.678117466579
  0
LINE
  8
画層0
  6
CONTINUOUS
 62
7
 10
111.802041181661
 20
117.678117466579
 11
111.90204118166
 21
117.578117466579
  0
LINE
  8
画層0
  6
CONTINUOUS
 62
7
 10
111.802041181661
 20
117.678117466579
 11
90.2020411816607
 21
117.678117466579
  0
LINE
  8
画層0
  6
CONTINUOUS
 62
7
 10
90.2020411816607
 20
101.678117466579
 11
90.2020411816607
 21
117.678117466579
  0
LINE
  8
画層0
  6
CONTINUOUS
 62
7
 10
89.9020411816607
 20
101.978117466579
 11
89.9020411816607
 21
117.378117466579
  0
LINE
  8
画層0
  6
CONTINUOUS
 62
7
 10
135.302041181661
 20
101.678117466579
 11
178.602041181661
 21
101.678117466579
  0
LINE
  8
画層1
  6
CONTINUOUS
 62
7
 10
24.9020411816608
 20
76.3421155439388
 11
24.9020411816608
 21
105.909290466579
  0
LINE
  8
画層1
  6
CONTINUOUS
 62
7
 10
89.9020411816607
 20
76.3421155439388
 11
89.9020411816607
 21
100.978117466579
  0
LINE
  8
画層1
  6
CONTINUOUS
 62
7
 10
27.9020411816608
 20
77.3421155439388
 11
86.9020411816607
 21
77.3421155439388
  0
TEXT
  8
画層1
 62
7
  6
BYLAYER
 62
7
 10
49.4020411816605
 20
77.8754155439389
 40
3.2
  1
W.D.=65%%p2
  7
Font_0
 72
1
 11
57.4020411816605
 21
79.4754155439389
 73
2
  0
LINE
  8
画層0
  6
CONTINUOUS
 62
7
 10
27.9020411816608
 20
76.5382685439388
 11
24.9020411816608
 21
77.3421155439388
  0
LINE
  8
画層0
  6
CONTINUOUS
 62
7
 10
24.9020411816608
 20
77.3421155439388
 11
27.9020411816608
 21
78.1459625439388
  0
LINE
  8
画層0
  6
CONTINUOUS
 62
7
 10
24.9020411816608
 20
77.3421155439388
 11
27.9020411816608
 21
77.3421155439388
  0
LINE
  8
画層0
  6
CONTINUOUS
 62
7
 10
86.9020411816607
 20
78.1459625439388
 11
89.9020411816607
 21
77.3421155439388
  0
LINE
  8
画層0
  6
CONTINUOUS
 62
7
 10
89.9020411816607
 20
77.3421155439388
 11
86.9020411816607
 21
76.5382685439388
  0
LINE
  8
画層0
  6
CONTINUOUS
 62
7
 10
89.9020411816607
 20
77.3421155439388
 11
86.9020411816607
 21
77.3421155439388
  0
LINE
  8
画層1
  6
CONTINUOUS
 62
7
 10
185.10204118166
 20
93.478117466579
 11
185.10204118166
 21
76.3421155439388
  0
LINE
  8
画層1
  6
CONTINUOUS
 62
7
 10
92.9020411816607
 20
77.3421155439388
 11
182.10204118166
 21
77.3421155439388
  0
TEXT
  8
画層1
 62
7
  6
BYLAYER
 62
7
 10
134.30204118166
 20
77.8754155439389
 40
3.2
  1
95.2
  7
Font_0
 72
1
 11
137.50204118166
 21
79.4754155439389
 73
2
  0
LINE
  8
画層0
  6
CONTINUOUS
 62
7
 10
92.9020411816607
 20
76.5382685439388
 11
89.9020411816607
 21
77.3421155439388
  0
LINE
  8
画層0
  6
CONTINUOUS
 62
7
 10
89.9020411816607
 20
77.3421155439388
 11
92.9020411816607
 21
78.1459625439388
  0
LINE
  8
画層0
  6
CONTINUOUS
 62
7
 10
89.9020411816607
 20
77.3421155439388
 11
92.9020411816607
 21
77.3421155439388
  0
LINE
  8
画層0
  6
CONTINUOUS
 62
7
 10
182.10204118166
 20
78.1459625439388
 11
185.10204118166
 21
77.3421155439388
  0
LINE
  8
画層0
  6
CONTINUOUS
 62
7
 10
185.10204118166
 20
77.3421155439388
 11
182.10204118166
 21
76.5382685439388
  0
LINE
  8
画層0
  6
CONTINUOUS
 62
7
 10
185.10204118166
 20
77.3421155439388
 11
182.10204118166
 21
77.3421155439388
  0
TEXT
  8
画層0
 62
7
  6
CONTINUOUS
 62
7
 10
169.508399999999
 20
18.3722304684828
 40
2.03
 41
0.86
  1
10/02/01
  7
Font_0
 72
1
 11
172.999999999999
 21
19.3872304684828
 73
2
  0
TEXT
  8
画層0
 62
7
  6
CONTINUOUS
 62
7
 10
153.508399999999
 20
18.3722304684828
 40
2.03
 41
0.86
  1
10/02/01
  7
Font_0
 72
1
 11
156.999999999999
 21
19.3872304684828
 73
2
  0
TEXT
  8
画層0
 62
7
  6
CONTINUOUS
 62
7
 10
137.508399999999
 20
18.3722304684828
 40
2.03
 41
0.86
  1
10/02/01
  7
Font_0
 72
1
 11
140.999999999999
 21
19.3872304684828
 73
2
  0
INSERT
  8
画層0
  6
CONTINUOUS
 62
7
  2
13462_KCAD_FINI_2
 10
202.304958277186
 20
27.7117494972845
 30
0.0
  0
TEXT
  8
画層0
 62
7
  6
CONTINUOUS
 62
7
 10
121.508399999999
 20
18.3722304684828
 40
2.03
 41
0.86
  1
10/02/01
  7
Font_0
 72
1
 11
124.999999999999
 21
19.3872304684828
 73
2
  0
TEXT
  8
画層0
 62
7
  6
CONTINUOUS
 62
7
 10
119.741749998088
 20
22.4592161170758
 40
3.6
 41
0.973750000353902
  1
宇賀田
  7
Font_0
 72
1
 11
124.999999999999
 21
24.2592161170758
 73
2
  0
TEXT
  8
画層0
 62
7
  6
CONTINUOUS
 62
7
 10
152.618124998406
 20
22.4592161170758
 40
3.6
 41
0.973750000353902
  1
藤 田
  7
Font_0
 72
1
 11
156.999999999999
 21
24.2592161170758
 73
2
  0
TEXT
  8
画層0
 62
7
  6
CONTINUOUS
 62
7
 10
201.199999999999
 20
17.678117466579
 40
4
 41
1.2
  1
C0.1
  7
Font_0
 72
1
 11
205.999999999999
 21
19.678117466579
 73
2
  0
TEXT
  8
画層0
 62
7
  6
CONTINUOUS
 62
7
 10
168.618124998406
 20
22.4592161170758
 40
3.6
 41
0.973750000353902
  1
藤 田
  7
Font_0
 72
1
 11
172.999999999999
 21
24.2592161170758
 73
2
  0
TEXT
  8
画層0
 62
7
  6
CONTINUOUS
 62
7
 10
135.741749998088
 20
22.4592161170758
 40
3.6
 41
0.973750000353902
  1
宇賀田
  7
Font_0
 72
1
 11
140.999999999999
 21
24.2592161170758
 73
2
  0
TEXT
  8
画層0
 62
7
  6
CENTER
 62
7
 10
101.099999999999
 20
41.6281174665791
 40
3.6
  1
０００
  7
Font_0
 72
1
 11
106.499999999999
 21
43.4281174665791
 73
2
  0
TEXT
  8
画層0
 62
7
  6
CENTER
 62
7
 10
133.799999999999
 20
41.7604140937173
 40
3.6
  1
組 立 図
  7
Font_0
 72
1
 11
140.999999999999
 21
43.5604140937173
 73
2
  0
TEXT
  8
画層0
 62
7
  6
CENTER
 62
7
 10
172.099999999999
 20
41.6281174665791
 40
3.6
  1
1
  7
Font_0
 72
1
 11
172.999999999999
 21
43.4281174665791
 73
2
  0
TEXT
  8
画層0
 62
7
  6
CENTER
 62
7
 10
191.249999999999
 20
41.6781174665791
 40
3.5
  1
Ａ５０５２ＴＤ
  7
Font_0
 72
1
 11
203.499999999999
 21
43.4281174665791
 73
2
  0
TEXT
  8
画層0
 62
7
  6
CENTER
 62
7
 10
240.25
 20
41.6781174665791
 40
3.5
  1
サテン黒アルマイト
  7
Font_0
 72
1
 11
256
 21
43.4281174665791
 73
2
  0
TEXT
  8
画層0
 62
7
  6
CONTINUOUS
 62
7
 10
241.87360882142
 20
17.6612276278196
 40
4
  1
ＫＶＴ－１０１９
  7
Font_0
 72
1
 11
257.87360882142
 21
19.6612276278196
 73
2
  0
TEXT
  8
画層0
 62
7
  6
CONTINUOUS
 62
7
 10
237.71846658175
 20
27.8940483906698
 40
3.3
  1
ＫＣＭ－１Ｄ－６５Ｃ（８）
  7
Font_0
  0
TEXT
  8
画層0
 62
7
  6
CENTER
 62
7
 10
43.6349999999995
 20
17.963117466579
 40
3.43
  1
２０１０年　２月　１日
  7
Font_0
 72
1
 11
62.4999999999995
 21
19.678117466579
 73
2
  0
TEXT
  8
画層0
 62
7
  6
CENTER
 62
7
 10
102.768749999999
 20
22.6441174665791
 40
4.068
 41
1.22295968534906
  1
1/1
  7
Font_0
 72
1
 11
106.499999999999
 21
24.6781174665791
 73
2
  0
LINE
  8
画層0
  6
CENTER
 62
7
 10
119.90204118166
 20
135.71097955626
 11
119.90204118166
 21
97.0435103160021
  0
LINE
  8
画層0
  6
CONTINUOUS
 62
7
 10
126.40204118166
 20
132.178117466579
 11
126.90204118166
 21
131.678117466579
  0
LINE
  8
画層0
  6
CONTINUOUS
 62
7
 10
127.902041181661
 20
119.378117466579
 11
127.602041181661
 21
119.678117466579
  0
LINE
  8
画層0
  6
CONTINUOUS
 62
7
 10
126.90204118166
 20
131.678117466579
 11
126.902041181661
 21
119.678117466579
  0
LINE
  8
画層0
  6
CONTINUOUS
 62
7
 10
113.402041181661
 20
132.178117466579
 11
126.40204118166
 21
132.178117466579
  0
LINE
  8
画層0
  6
CONTINUOUS
 62
7
 10
112.902041181661
 20
131.678117466579
 11
113.402041181661
 21
132.178117466579
  0
CIRCLE
  8
画層0
  6
CONTINUOUS
 62
7
 10
119.90204118166
 20
129.178117466579
 40
1.25
  0
CIRCLE
  8
画層0
  6
CONTINUOUS
 62
7
 10
119.90204118166
 20
129.178117466579
 40
1.5
  0
LINE
  8
画層0
  6
CENTER
 62
7
 10
122.90204118166
 20
129.178117466579
 11
116.90204118166
 21
129.178117466579
  0
LINE
  8
画層0
  6
CONTINUOUS
 62
7
 10
111.902041181661
 20
119.378117466579
 11
112.202041181661
 21
119.678117466579
  0
LINE
  8
画層0
  6
CONTINUOUS
 62
7
 10
112.902041181661
 20
131.678117466579
 11
112.902041181661
 21
119.678117466579
  0
LINE
  8
画層0
  6
CONTINUOUS
 62
7
 10
127.602041181661
 20
119.678117466579
 11
112.202041181661
 21
119.678117466579
  0
LINE
  8
画層0
  6
CONTINUOUS
 62
7
 10
127.90204118166
 20
100.978117466579
 11
127.602041181661
 21
100.678117466579
  0
LINE
  8
画層0
  6
CONTINUOUS
 62
7
 10
111.90204118166
 20
100.978117466579
 11
112.202041181661
 21
100.678117466579
  0
LINE
  8
画層0
  6
CONTINUOUS
 62
7
 10
111.90204118166
 20
101.740863533385
 11
127.90204118166
 21
101.740863533385
  0
LINE
  8
画層0
  6
CONTINUOUS
 62
7
 10
112.202041181661
 20
100.678117466579
 11
127.602041181661
 21
100.678117466579
  0
LINE
  8
画層0
  6
CONTINUOUS
 62
7
 10
127.90204118166
 20
100.978117466579
 11
127.902041181661
 21
119.378117466579
  0
LINE
  8
画層0
  6
CONTINUOUS
 62
7
 10
111.90204118166
 20
100.978117466579
 11
111.902041181661
 21
119.378117466579
  0
LINE
  8
画層0
  6
CONTINUOUS
 62
7
 10
112.902041181661
 20
131.678117466579
 11
126.90204118166
 21
131.678117466579
  0
LINE
  8
画層1
  6
CONTINUOUS
 62
7
 10
89.2020411816607
 20
101.678117466579
 11
81.1035315851613
 21
101.678117466579
  0
LINE
  8
画層1
  6
CONTINUOUS
 62
7
 10
89.2020411816607
 20
117.678117466579
 11
81.1035315851613
 21
117.678117466579
  0
LINE
  8
画層1
  6
CONTINUOUS
 62
7
 10
82.1035315851611
 20
104.678117466579
 11
82.1035315851611
 21
114.678117466579
  0
TEXT
  8
画層1
 62
7
  6
BYLAYER
 62
7
 10
81.5702315851612
 20
106.478117466579
 40
3.2
  1
%%c16
  7
Font_0
 50
90
 72
1
 11
79.9702315851612
 21
109.678117466579
 73
2
  0
LINE
  8
画層0
  6
CONTINUOUS
 62
7
 10
82.9073785851613
 20
104.678117466579
 11
82.1035315851611
 21
101.678117466579
  0
LINE
  8
画層0
  6
CONTINUOUS
 62
7
 10
82.1035315851611
 20
101.678117466579
 11
81.2996845851612
 21
104.678117466579
  0
LINE
  8
画層0
  6
CONTINUOUS
 62
7
 10
82.1035315851611
 20
101.678117466579
 11
82.1035315851611
 21
104.678117466579
  0
LINE
  8
画層0
  6
CONTINUOUS
 62
7
 10
81.2996845851612
 20
114.678117466579
 11
82.1035315851611
 21
117.678117466579
  0
LINE
  8
画層0
  6
CONTINUOUS
 62
7
 10
82.1035315851611
 20
117.678117466579
 11
82.9073785851613
 21
114.678117466579
  0
LINE
  8
画層0
  6
CONTINUOUS
 62
7
 10
82.1035315851611
 20
117.678117466579
 11
82.1035315851611
 21
114.678117466579
  0
TEXT
  8
画層0
 62
7
  6
CONTINUOUS
 62
7
 10
64.4
 20
178.078117466579
 40
3.2
  1
６５．０ｍｍ
  7
Font_0
 72
1
 11
74
 21
179.678117466579
 73
2
  0
TEXT
  8
画層0
 62
7
  6
CONTINUOUS
 62
7
 10
62.8
 20
184.478117466579
 40
3.2
  1
１７７．７ｍｍ
  7
Font_0
 72
1
 11
74
 21
186.078117466579
 73
2
  0
TEXT
  8
画層0
 62
7
  6
CONTINUOUS
 62
7
 10
69.2
 20
190.878117466579
 40
3.2
  1
１．０
  7
Font_0
 72
1
 11
74
 21
192.478117466579
 73
2
  0
LINE
  8
画層0
  6
CONTINUOUS
 62
7
 10
89
 20
131.678117466579
 11
17
 21
131.678117466579
  0
LINE
  8
画層0
  6
CONTINUOUS
 62
7
 10
89
 20
138.078117466579
 11
17
 21
138.078117466579
  0
LINE
  8
画層0
  6
CONTINUOUS
 62
7
 10
89
 20
144.478117466579
 11
17
 21
144.478117466579
  0
LINE
  8
画層0
  6
CONTINUOUS
 62
7
 10
17
 20
150.878117466579
 11
89
 21
150.878117466579
  0
LINE
  8
画層0
  6
CONTINUOUS
 62
7
 10
89
 20
157.278117466579
 11
17
 21
157.278117466579
  0
LINE
  8
画層0
  6
CONTINUOUS
 62
7
 10
17
 20
163.678117466579
 11
89
 21
163.678117466579
  0
LINE
  8
画層0
  6
CONTINUOUS
 62
7
 10
89
 20
170.078117466579
 11
17
 21
170.078117466579
  0
LINE
  8
画層0
  6
CONTINUOUS
 62
7
 10
17
 20
176.478117466579
 11
89
 21
176.478117466579
  0
LINE
  8
画層0
  6
CONTINUOUS
 62
7
 10
89
 20
182.878117466579
 11
17
 21
182.878117466579
  0
LINE
  8
画層0
  6
CONTINUOUS
 62
7
 10
17
 20
189.278117466579
 11
89
 21
189.278117466579
  0
LINE
  8
画層0
  6
CONTINUOUS
 62
7
 10
17
 20
195.678117466579
 11
17
 21
131.678117466579
  0
LINE
  8
画層0
  6
CONTINUOUS
 62
7
 10
89
 20
195.678117466579
 11
17
 21
195.678117466579
  0
LINE
  8
画層0
  6
CONTINUOUS
 62
7
 10
89
 20
131.678117466579
 11
89
 21
195.678117466579
  0
TEXT
  8
画層0
 62
7
  6
BYLAYER
 62
7
 10
19
 20
133.278117466579
 40
3.2
  1
対応素子サイズ
  7
Font_0
 11
19
 21
134.878117466579
 73
2
  0
TEXT
  8
画層0
 62
7
  6
BYLAYER
 62
7
 10
19
 20
139.678117466579
 40
3.2
  1
重量
  7
Font_0
 11
19
 21
141.278117466579
 73
2
  0
TEXT
  8
画層0
 62
7
  6
BYLAYER
 62
7
 10
19
 20
146.078117466579
 40
3.2
  1
ＴＶディストーション
  7
Font_0
 11
19
 21
147.678117466579
 73
2
  0
TEXT
  8
画層0
 62
7
  6
BYLAYER
 62
7
 10
19
 20
152.478117466579
 40
3.2
  1
Ｎ．Ａ．
  7
Font_0
 11
19
 21
154.078117466579
 73
2
  0
TEXT
  8
画層0
 62
7
  6
BYLAYER
 62
7
 10
19
 20
158.878117466579
 40
3.2
  1
有効Ｆナンバー
  7
Font_0
 11
19
 21
160.478117466579
 73
2
  0
TEXT
  8
画層0
 62
7
  6
BYLAYER
 62
7
 10
19
 20
165.278117466579
 40
3.2
  1
分解能
  7
Font_0
 11
19
 21
166.878117466579
 73
2
  0
TEXT
  8
画層0
 62
7
  6
BYLAYER
 62
7
 10
19
 20
171.678117466579
 40
3.2
  1
被写界深度
  7
Font_0
 11
19
 21
173.278117466579
 73
2
  0
TEXT
  8
画層0
 62
7
  6
BYLAYER
 62
7
 10
19
 20
178.078117466579
 40
3.2
  1
Ｗ．Ｄ．
  7
Font_0
 11
19
 21
179.678117466579
 73
2
  0
TEXT
  8
画層0
 62
7
  6
BYLAYER
 62
7
 10
19
 20
184.478117466579
 40
3.2
  1
Ｏ／Ｉ
  7
Font_0
 11
19
 21
186.078117466579
 73
2
  0
TEXT
  8
画層0
 62
7
  6
BYLAYER
 62
7
 10
19
 20
190.878117466579
 40
3.2
  1
倍率
  7
Font_0
 11
19
 21
192.478117466579
 73
2
  0
LINE
  8
画層0
  6
CONTINUOUS
 62
7
 10
59
 20
195.678117466579
 11
59
 21
131.678117466579
  0
LINE
  8
画層7
  6
BYLAYER
 62
7
 10
126.577041181661
 20
160.411803321649
 11
127.402041181661
 21
160.411803321649
  0
LINE
  8
画層7
  6
BYLAYER
 62
7
 10
127.402041181661
 20
160.411803321649
 11
127.402041181661
 21
160.961803321649
  0
LINE
  8
画層7
  6
BYLAYER
 62
7
 10
127.402041181661
 20
160.961803321649
 11
126.577041181661
 21
160.961803321649
  0
LINE
  8
画層7
  6
BYLAYER
 62
7
 10
126.577041181661
 20
160.961803321649
 11
126.577041181661
 21
161.786803321649
  0
LINE
  8
画層7
  6
BYLAYER
 62
7
 10
126.577041181661
 20
161.786803321649
 11
126.02704118166
 21
161.786803321649
  0
LINE
  8
画層7
  6
BYLAYER
 62
7
 10
126.02704118166
 20
161.786803321649
 11
126.02704118166
 21
160.961803321649
  0
LINE
  8
画層7
  6
BYLAYER
 62
7
 10
125.20204118166
 20
160.411803321649
 11
126.02704118166
 21
160.411803321649
  0
LINE
  8
画層7
  6
BYLAYER
 62
7
 10
126.02704118166
 20
160.961803321649
 11
125.20204118166
 21
160.961803321649
  0
LINE
  8
画層7
  6
BYLAYER
 62
7
 10
125.20204118166
 20
160.961803321649
 11
125.20204118166
 21
160.411803321649
  0
LINE
  8
画層7
  6
BYLAYER
 62
7
 10
126.02704118166
 20
159.586803321649
 11
126.577041181661
 21
159.586803321649
  0
LINE
  8
画層7
  6
BYLAYER
 62
7
 10
126.577041181661
 20
159.586803321649
 11
126.577041181661
 21
160.411803321649
  0
LINE
  8
画層7
  6
BYLAYER
 62
7
 10
126.02704118166
 20
160.411803321649
 11
126.02704118166
 21
159.586803321649
  0
CIRCLE
  8
画層0
  6
CONTINUOUS
 62
7
 10
126.302041181661
 20
160.686803321649
 40
1.59999999999991
  0
LINE
  8
画層7
  6
BYLAYER
 62
7
 10
113.77704118166
 20
160.411803321649
 11
114.60204118166
 21
160.411803321649
  0
LINE
  8
画層7
  6
BYLAYER
 62
7
 10
114.60204118166
 20
160.411803321649
 11
114.60204118166
 21
160.961803321649
  0
LINE
  8
画層7
  6
BYLAYER
 62
7
 10
114.60204118166
 20
160.961803321649
 11
113.77704118166
 21
160.961803321649
  0
LINE
  8
画層7
  6
BYLAYER
 62
7
 10
113.77704118166
 20
160.961803321649
 11
113.77704118166
 21
161.786803321649
  0
LINE
  8
画層7
  6
BYLAYER
 62
7
 10
113.77704118166
 20
161.786803321649
 11
113.227041181661
 21
161.786803321649
  0
LINE
  8
画層7
  6
BYLAYER
 62
7
 10
113.227041181661
 20
161.786803321649
 11
113.227041181661
 21
160.961803321649
  0
LINE
  8
画層7
  6
BYLAYER
 62
7
 10
112.40204118166
 20
160.411803321649
 11
113.227041181661
 21
160.411803321649
  0
LINE
  8
画層7
  6
BYLAYER
 62
7
 10
113.227041181661
 20
160.961803321649
 11
112.40204118166
 21
160.961803321649
  0
LINE
  8
画層7
  6
BYLAYER
 62
7
 10
112.40204118166
 20
160.961803321649
 11
112.40204118166
 21
160.411803321649
  0
LINE
  8
画層7
  6
BYLAYER
 62
7
 10
113.227041181661
 20
159.586803321649
 11
113.77704118166
 21
159.586803321649
  0
LINE
  8
画層7
  6
BYLAYER
 62
7
 10
113.77704118166
 20
159.586803321649
 11
113.77704118166
 21
160.411803321649
  0
LINE
  8
画層7
  6
BYLAYER
 62
7
 10
113.227041181661
 20
160.411803321649
 11
113.227041181661
 21
159.586803321649
  0
CIRCLE
  8
画層0
  6
CONTINUOUS
 62
7
 10
113.502041181661
 20
160.686803321649
 40
1.60000000000014
  0
LINE
  8
画層7
  6
BYLAYER
 62
7
 10
126.577041181661
 20
174.611803321649
 11
127.402041181661
 21
174.611803321649
  0
LINE
  8
画層7
  6
BYLAYER
 62
7
 10
127.402041181661
 20
174.611803321649
 11
127.402041181661
 21
175.161803321649
  0
LINE
  8
画層7
  6
BYLAYER
 62
7
 10
127.402041181661
 20
175.161803321649
 11
126.577041181661
 21
175.161803321649
  0
LINE
  8
画層7
  6
BYLAYER
 62
7
 10
126.577041181661
 20
175.161803321649
 11
126.577041181661
 21
175.986803321649
  0
LINE
  8
画層7
  6
BYLAYER
 62
7
 10
126.577041181661
 20
175.986803321649
 11
126.02704118166
 21
175.986803321649
  0
LINE
  8
画層7
  6
BYLAYER
 62
7
 10
126.02704118166
 20
175.986803321649
 11
126.02704118166
 21
175.161803321649
  0
LINE
  8
画層7
  6
BYLAYER
 62
7
 10
125.20204118166
 20
174.611803321649
 11
126.02704118166
 21
174.611803321649
  0
LINE
  8
画層7
  6
BYLAYER
 62
7
 10
126.02704118166
 20
175.161803321649
 11
125.20204118166
 21
175.161803321649
  0
LINE
  8
画層7
  6
BYLAYER
 62
7
 10
125.20204118166
 20
175.161803321649
 11
125.20204118166
 21
174.611803321649
  0
LINE
  8
画層7
  6
BYLAYER
 62
7
 10
126.02704118166
 20
173.786803321649
 11
126.577041181661
 21
173.786803321649
  0
LINE
  8
画層7
  6
BYLAYER
 62
7
 10
126.577041181661
 20
173.786803321649
 11
126.577041181661
 21
174.611803321649
  0
LINE
  8
画層7
  6
BYLAYER
 62
7
 10
126.02704118166
 20
174.611803321649
 11
126.02704118166
 21
173.786803321649
  0
CIRCLE
  8
画層0
  6
CONTINUOUS
 62
7
 10
126.302041181661
 20
174.886803321649
 40
1.59999999999991
  0
CIRCLE
  8
画層0
  6
CONTINUOUS
 62
7
 10
113.502041181661
 20
174.886803321649
 40
1.60000000000014
  0
LINE
  8
画層5
  6
BYLAYER
 62
7
 10
113.502041181661
 20
156.436803321649
 11
113.502041181661
 21
164.936803321649
  0
LINE
  8
画層5
  6
BYLAYER
 62
7
 10
109.252041181661
 20
160.686803321649
 11
117.75204118166
 21
160.686803321649
  0
LINE
  8
画層7
  6
BYLAYER
 62
7
 10
113.227041181661
 20
174.611803321649
 11
113.227041181661
 21
173.786803321649
  0
LINE
  8
画層7
  6
BYLAYER
 62
7
 10
113.77704118166
 20
173.786803321649
 11
113.77704118166
 21
174.611803321649
  0
LINE
  8
画層7
  6
BYLAYER
 62
7
 10
113.227041181661
 20
173.786803321649
 11
113.77704118166
 21
173.786803321649
  0
LINE
  8
画層7
  6
BYLAYER
 62
7
 10
112.40204118166
 20
175.161803321649
 11
112.40204118166
 21
174.611803321649
  0
LINE
  8
画層7
  6
BYLAYER
 62
7
 10
113.227041181661
 20
175.161803321649
 11
112.40204118166
 21
175.161803321649
  0
LINE
  8
画層7
  6
BYLAYER
 62
7
 10
112.40204118166
 20
174.611803321649
 11
113.227041181661
 21
174.611803321649
  0
LINE
  8
画層7
  6
BYLAYER
 62
7
 10
113.227041181661
 20
175.986803321649
 11
113.227041181661
 21
175.161803321649
  0
LINE
  8
画層7
  6
BYLAYER
 62
7
 10
113.77704118166
 20
175.986803321649
 11
113.227041181661
 21
175.986803321649
  0
LINE
  8
画層7
  6
BYLAYER
 62
7
 10
113.77704118166
 20
175.161803321649
 11
113.77704118166
 21
175.986803321649
  0
LINE
  8
画層7
  6
BYLAYER
 62
7
 10
114.60204118166
 20
175.161803321649
 11
113.77704118166
 21
175.161803321649
  0
LINE
  8
画層7
  6
BYLAYER
 62
7
 10
114.60204118166
 20
174.611803321649
 11
114.60204118166
 21
175.161803321649
  0
LINE
  8
画層7
  6
BYLAYER
 62
7
 10
113.77704118166
 20
174.611803321649
 11
114.60204118166
 21
174.611803321649
  0
CIRCLE
  8
画層0
  6
CONTINUOUS
 62
7
 10
119.90204118166
 20
167.786803321649
 40
2
  0
CIRCLE
  8
画層0
  6
CONTINUOUS
 62
7
 10
119.90204118166
 20
167.786803321649
 40
4
  0
LINE
  8
画層0
  6
CONTINUOUS
 62
7
 10
111.90204118166
 20
157.786803321649
 11
127.90204118166
 21
157.786803321649
  0
LINE
  8
画層0
  6
CONTINUOUS
 62
7
 10
111.90204118166
 20
177.786803321649
 11
127.90204118166
 21
177.786803321649
  0
LINE
  8
画層0
  6
CONTINUOUS
 62
7
 10
111.90204118166
 20
177.786803321649
 11
111.90204118166
 21
157.786803321649
  0
LINE
  8
画層0
  6
CONTINUOUS
 62
7
 10
127.90204118166
 20
176.731075231648
 11
111.90204118166
 21
176.731075231648
  0
LINE
  8
画層0
  6
CONTINUOUS
 62
7
 10
127.90204118166
 20
157.786803321649
 11
127.90204118166
 21
177.786803321649
  0
LINE
  8
画層0
  6
CONTINUOUS
 62
7
 10
111.90204118166
 20
158.84253141165
 11
127.90204118166
 21
158.84253141165
  0
LINE
  8
画層0
  6
CENTER
 62
7
 10
119.90204118166
 20
179.286803321649
 11
119.90204118166
 21
156.286803321649
  0
LINE
  8
画層0
  6
CENTER
 62
7
 10
99.2709939168183
 20
167.786803321649
 11
140.606837336017
 21
167.786803321649
  0
CIRCLE
  8
画層0
  6
CONTINUOUS
 62
7
 10
119.90204118166
 20
167.786803321649
 40
7
  0
LINE
  8
画層0
  6
CENTER
 62
7
 10
113.502041181661
 20
177.436803321649
 11
113.502041181661
 21
158.136803321649
  0
LINE
  8
画層0
  6
CENTER
 62
7
 10
128.852041181661
 20
174.886803321649
 11
110.952041181661
 21
174.886803321649
  0
LINE
  8
画層0
  6
CENTER
 62
7
 10
126.302041181661
 20
158.136803321649
 11
126.302041181661
 21
177.436803321649
  0
LINE
  8
画層0
  6
CENTER
 62
7
 10
110.952041181661
 20
160.686803321649
 11
128.852041181661
 21
160.686803321649
  0
LINE
  8
画層0
  6
CONTINUOUS
 62
7
 10
111.90204118166
 20
175.786803321649
 11
104.202041181661
 21
175.786803321649
  0
LINE
  8
画層0
  6
CONTINUOUS
 62
7
 10
111.90204118166
 20
159.786803321649
 11
104.202041181661
 21
159.786803321649
  0
LINE
  8
画層0
  6
CONTINUOUS
 62
7
 10
127.90204118166
 20
175.786803321649
 11
135.60204118166
 21
175.786803321649
  0
LINE
  8
画層0
  6
CONTINUOUS
 62
7
 10
127.90204118166
 20
159.786803321649
 11
135.602041181661
 21
159.786803321649
  0
ARC
  8
画層0
  6
CONTINUOUS
 62
7
 10
109.884990132511
 20
171.786803321649
 40
6.94952579518701
 50
144.859821158985
 51
215.140178841015
  0
ARC
  8
画層0
  6
CONTINUOUS
 62
7
 10
109.884990132511
 20
163.786803321649
 40
6.94952579518701
 50
144.859821158985
 51
215.140178841015
  0
ARC
  8
画層0
  6
CONTINUOUS
 62
7
 10
98.5190922308107
 20
163.786803321649
 40
6.94952579518713
 50
324.859821158985
 51
35.140178841015
  0
ARC
  8
画層0
  6
CONTINUOUS
 62
7
 10
141.284990132511
 20
171.786803321649
 40
6.9495257951869
 50
144.859821158985
 51
215.140178841015
  0
ARC
  8
画層0
  6
CONTINUOUS
 62
7
 10
129.91909223081
 20
171.786803321649
 40
6.94952579518724
 50
324.859821158985
 51
35.1401788410148
  0
ARC
  8
画層0
  6
CONTINUOUS
 62
7
 10
129.91909223081
 20
163.786803321649
 40
6.94952579518724
 50
324.859821158985
 51
35.1401788410151
  0
LINE
  8
画層0
  6
HIDDEN
 62
7
 10
115.902041181661
 20
132.178117466579
 11
115.902041181661
 21
120.478117466579
  0
LINE
  8
画層0
  6
HIDDEN
 62
7
 10
115.90204118166
 20
120.478117466579
 11
123.902041181661
 21
120.478117466579
  0
LINE
  8
画層0
  6
HIDDEN
 62
7
 10
123.902041181661
 20
132.178117466579
 11
123.902041181661
 21
120.478117466579
  0
POLYLINE
  8
画層0
 62
7
  6
CONTINUOUS
 10
0.0
 20
0.0
 30
0.0
 66
1
  0
VERTEX
  8
画層0
 10
134.472181075212
  20
138.256241293513
  0
VERTEX
  8
画層0
 10
136.1247330554
  20
138.256241293513
  0
SEQEND
100
AcDbEntity
  8
画層0
  0
LINE
  8
画層0
  6
CONTINUOUS
 62
7
 10
136.1247330554
 20
138.256241293513
 11
168.338066388734
 21
138.256241293513
  0
TEXT
  8
画層0
 62
7
  6
BYLAYER
 62
7
 10
136.1247330554
 20
138.656241293513
 40
3.2
  1
%%c8ライトガイド用
  7
Font_0
  0
LINE
  8
画層1
  6
CONTINUOUS
 62
7
 10
115.902041181661
 20
133.178117466579
 11
115.902041181661
 21
139.202878805172
  0
LINE
  8
画層1
  6
CONTINUOUS
 62
7
 10
123.902041181661
 20
133.178117466579
 11
123.902041181661
 21
139.202878805172
  0
LINE
  8
画層1
  6
CONTINUOUS
 62
7
 10
118.902041181661
 20
138.202878805172
 11
120.902041181661
 21
138.202878805172
  0
TEXT
  8
画層1
 62
7
  6
BYLAYER
 62
7
 10
117.502041181661
 20
138.736178805172
 40
3.2
  1
%%c8
  7
Font_0
 72
1
 11
119.902041181661
 21
140.336178805172
 73
2
  0
LINE
  8
画層0
  6
CONTINUOUS
 62
7
 10
118.902041181661
 20
137.399031805172
 11
115.902041181661
 21
138.202878805172
  0
LINE
  8
画層0
  6
CONTINUOUS
 62
7
 10
115.902041181661
 20
138.202878805172
 11
118.902041181661
 21
139.006725805172
  0
LINE
  8
画層0
  6
CONTINUOUS
 62
7
 10
115.902041181661
 20
138.202878805172
 11
118.902041181661
 21
138.202878805172
  0
LINE
  8
画層0
  6
CONTINUOUS
 62
7
 10
120.902041181661
 20
139.006725805172
 11
123.902041181661
 21
138.202878805172
  0
LINE
  8
画層0
  6
CONTINUOUS
 62
7
 10
123.902041181661
 20
138.202878805172
 11
120.902041181661
 21
137.399031805172
  0
LINE
  8
画層0
  6
CONTINUOUS
 62
7
 10
123.902041181661
 20
138.202878805172
 11
120.902041181661
 21
138.202878805172
  0
LINE
  8
画層1
  6
CONTINUOUS
 62
7
 10
112.902041181661
 20
132.678117466579
 11
112.902041181661
 21
145.136402829542
  0
LINE
  8
画層1
  6
CONTINUOUS
 62
7
 10
126.90204118166
 20
132.678117466579
 11
126.90204118166
 21
145.136402829542
  0
LINE
  8
画層1
  6
CONTINUOUS
 62
7
 10
115.902041181661
 20
144.136402829542
 11
123.90204118166
 21
144.136402829542
  0
TEXT
  8
画層1
 62
7
  6
BYLAYER
 62
7
 10
116.70204118166
 20
144.669702829542
 40
3.2
  1
%%c14
  7
Font_0
 72
1
 11
119.90204118166
 21
146.269702829542
 73
2
  0
LINE
  8
画層0
  6
CONTINUOUS
 62
7
 10
115.902041181661
 20
143.332555829542
 11
112.902041181661
 21
144.136402829542
  0
LINE
  8
画層0
  6
CONTINUOUS
 62
7
 10
112.902041181661
 20
144.136402829542
 11
115.902041181661
 21
144.940249829542
  0
LINE
  8
画層0
  6
CONTINUOUS
 62
7
 10
112.902041181661
 20
144.136402829542
 11
115.902041181661
 21
144.136402829542
  0
LINE
  8
画層0
  6
CONTINUOUS
 62
7
 10
123.90204118166
 20
144.940249829542
 11
126.90204118166
 21
144.136402829542
  0
LINE
  8
画層0
  6
CONTINUOUS
 62
7
 10
126.90204118166
 20
144.136402829542
 11
123.90204118166
 21
143.332555829542
  0
LINE
  8
画層0
  6
CONTINUOUS
 62
7
 10
126.90204118166
 20
144.136402829542
 11
123.90204118166
 21
144.136402829542
  0
LINE
  8
画層1
  6
CONTINUOUS
 62
7
 10
112.402041181661
 20
132.178117466579
 11
105.48066697654
 21
132.178117466579
  0
LINE
  8
画層1
  6
CONTINUOUS
 62
7
 10
110.802041181661
 20
117.678117466579
 11
105.48066697654
 21
117.678117466579
  0
LINE
  8
画層1
  6
CONTINUOUS
 62
7
 10
106.48066697654
 20
129.178117466579
 11
106.48066697654
 21
120.678117466579
  0
TEXT
  8
画層1
 62
7
  6
BYLAYER
 62
7
 10
105.94736697654
 20
121.728117466579
 40
3.2
  1
14.5
  7
Font_0
 50
90
 72
1
 11
104.34736697654
 21
124.928117466579
 73
2
  0
LINE
  8
画層0
  6
CONTINUOUS
 62
7
 10
105.67681997654
 20
129.178117466579
 11
106.48066697654
 21
132.178117466579
  0
LINE
  8
画層0
  6
CONTINUOUS
 62
7
 10
106.48066697654
 20
132.178117466579
 11
107.28451397654
 21
129.178117466579
  0
LINE
  8
画層0
  6
CONTINUOUS
 62
7
 10
106.48066697654
 20
132.178117466579
 11
106.48066697654
 21
129.178117466579
  0
LINE
  8
画層0
  6
CONTINUOUS
 62
7
 10
107.28451397654
 20
120.678117466579
 11
106.48066697654
 21
117.678117466579
  0
LINE
  8
画層0
  6
CONTINUOUS
 62
7
 10
106.48066697654
 20
117.678117466579
 11
105.67681997654
 21
120.678117466579
  0
LINE
  8
画層0
  6
CONTINUOUS
 62
7
 10
106.48066697654
 20
117.678117466579
 11
106.48066697654
 21
120.678117466579
  0
LINE
  8
画層1
  6
CONTINUOUS
 62
7
 10
235.713908729525
 20
140.178117466579
 11
231.483109360603
 21
140.178117466579
  0
LINE
  8
画層1
  6
CONTINUOUS
 62
7
 10
236.213908729525
 20
117.678117466579
 11
231.483109360603
 21
117.678117466579
  0
LINE
  8
画層1
  6
CONTINUOUS
 62
7
 10
232.483109360603
 20
137.178117466579
 11
232.483109360603
 21
120.678117466579
  0
TEXT
  8
画層1
 62
7
  6
BYLAYER
 62
7
 10
231.949809360603
 20
125.728117466579
 40
3.2
  1
22.5
  7
Font_0
 50
90
 72
1
 11
230.349809360603
 21
128.928117466579
 73
2
  0
LINE
  8
画層0
  6
CONTINUOUS
 62
7
 10
231.679262360603
 20
137.178117466579
 11
232.483109360603
 21
140.178117466579
  0
LINE
  8
画層0
  6
CONTINUOUS
 62
7
 10
232.483109360603
 20
140.178117466579
 11
233.286956360603
 21
137.178117466579
  0
LINE
  8
画層0
  6
CONTINUOUS
 62
7
 10
232.483109360603
 20
140.178117466579
 11
232.483109360603
 21
137.178117466579
  0
LINE
  8
画層0
  6
CONTINUOUS
 62
7
 10
233.286956360603
 20
120.678117466579
 11
232.483109360603
 21
117.678117466579
  0
LINE
  8
画層0
  6
CONTINUOUS
 62
7
 10
232.483109360603
 20
117.678117466579
 11
231.679262360603
 21
120.678117466579
  0
LINE
  8
画層0
  6
CONTINUOUS
 62
7
 10
232.483109360603
 20
117.678117466579
 11
232.483109360603
 21
120.678117466579
  0
LINE
  8
画層0
  6
CONTINUOUS
 62
7
 10
230.604349483961
 20
160.246429253405
 11
261.493741957125
 21
160.246429253405
  0
TEXT
  8
画層0
 62
7
  6
BYLAYER
 62
7
 10
230.604349483961
 20
160.646429253405
 40
3.2
  1
%%c12ライトガイド用
  7
Font_0
  0
POLYLINE
  8
画層0
 62
7
  6
CONTINUOUS
 10
0.0
 20
0.0
 30
0.0
 66
1
  0
VERTEX
  8
画層0
 10
229.233151665768
  20
160.246429253405
  0
VERTEX
  8
画層0
 10
230.604349483961
  20
160.246429253405
  0
SEQEND
100
AcDbEntity
  8
画層0
  0
LINE
  8
画層1
  6
CONTINUOUS
 62
7
 10
236.213908729525
 20
140.678117466579
 11
236.213908729525
 21
152.641824570278
  0
LINE
  8
画層1
  6
CONTINUOUS
 62
7
 10
254.213908729525
 20
140.678117466579
 11
254.213908729525
 21
152.641824570278
  0
LINE
  8
画層1
  6
CONTINUOUS
 62
7
 10
239.213908729525
 20
151.641824570278
 11
251.213908729525
 21
151.641824570278
  0
TEXT
  8
画層1
 62
7
  6
BYLAYER
 62
7
 10
242.013908729525
 20
152.175124570278
 40
3.2
  1
%%c18
  7
Font_0
 72
1
 11
245.213908729525
 21
153.775124570278
 73
2
  0
LINE
  8
画層0
  6
CONTINUOUS
 62
7
 10
239.213908729525
 20
150.837977570278
 11
236.213908729525
 21
151.641824570278
  0
LINE
  8
画層0
  6
CONTINUOUS
 62
7
 10
236.213908729525
 20
151.641824570278
 11
239.213908729525
 21
152.445671570278
  0
LINE
  8
画層0
  6
CONTINUOUS
 62
7
 10
236.213908729525
 20
151.641824570278
 11
239.213908729525
 21
151.641824570278
  0
LINE
  8
画層0
  6
CONTINUOUS
 62
7
 10
251.213908729525
 20
152.445671570278
 11
254.213908729525
 21
151.641824570278
  0
LINE
  8
画層0
  6
CONTINUOUS
 62
7
 10
254.213908729525
 20
151.641824570278
 11
251.213908729525
 21
150.837977570278
  0
LINE
  8
画層0
  6
CONTINUOUS
 62
7
 10
254.213908729525
 20
151.641824570278
 11
251.213908729525
 21
151.641824570278
  0
LINE
  8
画層1
  6
CONTINUOUS
 62
7
 10
239.213908729525
 20
141.178117466579
 11
239.213908729525
 21
147.400901235607
  0
LINE
  8
画層1
  6
CONTINUOUS
 62
7
 10
251.213908729525
 20
141.178117466579
 11
251.213908729525
 21
147.400901235607
  0
LINE
  8
画層1
  6
CONTINUOUS
 62
7
 10
242.213908729525
 20
146.400901235607
 11
248.213908729525
 21
146.400901235607
  0
TEXT
  8
画層1
 62
7
  6
BYLAYER
 62
7
 10
242.013908729525
 20
146.934201235607
 40
3.2
  1
%%c12
  7
Font_0
 72
1
 11
245.213908729525
 21
148.534201235607
 73
2
  0
LINE
  8
画層0
  6
CONTINUOUS
 62
7
 10
242.213908729525
 20
145.597054235607
 11
239.213908729525
 21
146.400901235607
  0
LINE
  8
画層0
  6
CONTINUOUS
 62
7
 10
239.213908729525
 20
146.400901235607
 11
242.213908729525
 21
147.204748235607
  0
LINE
  8
画層0
  6
CONTINUOUS
 62
7
 10
239.213908729525
 20
146.400901235607
 11
242.213908729525
 21
146.400901235607
  0
LINE
  8
画層0
  6
CONTINUOUS
 62
7
 10
248.213908729525
 20
147.204748235607
 11
251.213908729525
 21
146.400901235607
  0
LINE
  8
画層0
  6
CONTINUOUS
 62
7
 10
251.213908729525
 20
146.400901235607
 11
248.213908729525
 21
145.597054235607
  0
LINE
  8
画層0
  6
CONTINUOUS
 62
7
 10
251.213908729525
 20
146.400901235607
 11
248.213908729525
 21
146.400901235607
  0
LINE
  8
画層0
  6
CONTINUOUS
 62
7
 10
237.213908729525
 20
101.678117466579
 11
229.513908729525
 21
101.678117466579
  0
LINE
  8
画層0
  6
CONTINUOUS
 62
7
 10
229.513908729525
 20
117.678117466579
 11
260.913908729525
 21
117.678117466579
  0
LINE
  8
画層0
  6
CENTER
 62
7
 10
224.582861464682
 20
109.678117466579
 11
265.918704883881
 21
109.678117466579
  0
LINE
  8
画層0
  6
CONTINUOUS
 62
7
 10
253.213908729525
 20
101.678117466579
 11
260.913908729525
 21
101.678117466579
  0
ARC
  8
画層0
  6
CONTINUOUS
 62
7
 10
255.230959778675
 20
105.678117466579
 40
6.94952579518724
 50
324.859821158984
 51
35.1401788410166
  0
ARC
  8
画層0
  6
CONTINUOUS
 62
7
 10
255.230959778675
 20
113.678117466579
 40
6.94952579518724
 50
324.859821158983
 51
35.1401788410166
  0
ARC
  8
画層0
  6
CONTINUOUS
 62
7
 10
266.596857680375
 20
113.678117466579
 40
6.9495257951869
 50
144.859821158984
 51
215.140178841017
  0
ARC
  8
画層0
  6
CONTINUOUS
 62
7
 10
223.830959778675
 20
105.678117466579
 40
6.94952579518679
 50
324.859821158984
 51
35.1401788410167
  0
ARC
  8
画層0
  6
CONTINUOUS
 62
7
 10
235.196857680375
 20
105.678117466579
 40
6.94952579518713
 50
144.859821158983
 51
215.140178841017
  0
ARC
  8
画層0
  6
CONTINUOUS
 62
7
 10
235.196857680375
 20
113.678117466579
 40
6.94952579518713
 50
144.859821158983
 51
215.140178841016
  0
LINE
  8
画層0
  6
CONTINUOUS
 62
7
 10
253.213908729525
 20
100.978117466579
 11
253.213908729525
 21
119.378117466579
  0
LINE
  8
画層0
  6
CONTINUOUS
 62
7
 10
237.213908729525
 20
100.978117466579
 11
237.213908729525
 21
119.378117466579
  0
LINE
  8
画層0
  6
CONTINUOUS
 62
7
 10
237.213908729525
 20
100.978117466579
 11
237.513908729525
 21
100.678117466579
  0
LINE
  8
画層0
  6
CONTINUOUS
 62
7
 10
252.913908729525
 20
100.678117466579
 11
253.213908729525
 21
100.978117466579
  0
LINE
  8
画層0
  6
CONTINUOUS
 62
7
 10
237.213908729525
 20
101.740863533385
 11
253.213908729525
 21
101.740863533385
  0
LINE
  8
画層0
  6
CONTINUOUS
 62
7
 10
252.913908729525
 20
100.678117466579
 11
237.513908729525
 21
100.678117466579
  0
LINE
  8
画層0
  6
CONTINUOUS
 62
7
 10
236.213908729525
 20
139.678117466579
 11
236.713908729525
 21
140.178117466579
  0
LINE
  8
画層0
  6
CONTINUOUS
 62
7
 10
236.213908729525
 20
134.678117466579
 11
236.213908729525
 21
139.678117466579
  0
LINE
  8
画層0
  6
CONTINUOUS
 62
7
 10
236.713908729525
 20
134.178117466579
 11
236.213908729525
 21
134.678117466579
  0
LINE
  8
画層0
  6
CONTINUOUS
 62
7
 10
236.713908729525
 20
134.178117466579
 11
253.713908729525
 21
134.178117466579
  0
LINE
  8
画層0
  6
CONTINUOUS
 62
7
 10
238.213908729525
 20
134.178117466579
 11
238.213908729525
 21
119.678117466579
  0
LINE
  8
画層0
  6
HIDDEN
 62
7
 10
239.213908729525
 20
120.478117466579
 11
251.213908729525
 21
120.478117466579
  0
LINE
  8
画層0
  6
HIDDEN
 62
7
 10
239.213908729525
 20
120.478117466579
 11
239.213908729525
 21
140.178117466579
  0
LINE
  8
画層0
  6
CONTINUOUS
 62
7
 10
236.713908729525
 20
140.178117466579
 11
253.713908729525
 21
140.178117466579
  0
LINE
  8
画層0
  6
CONTINUOUS
 62
7
 10
253.713908729525
 20
140.178117466579
 11
254.213908729525
 21
139.678117466579
  0
CIRCLE
  8
画層0
  6
CONTINUOUS
 62
7
 10
245.213908729525
 20
137.178117466579
 40
1.25
  0
CIRCLE
  8
画層0
  6
CONTINUOUS
 62
7
 10
245.213908729525
 20
137.178117466579
 40
1.5
  0
LINE
  8
画層0
  6
CENTER
 62
7
 10
248.213908729525
 20
137.178117466579
 11
242.213908729525
 21
137.178117466579
  0
LINE
  8
画層0
  6
CENTER
 62
7
 10
245.213908729525
 20
143.678117466579
 11
245.213908729525
 21
97.0435103160021
  0
LINE
  8
画層0
  6
CONTINUOUS
 62
7
 10
254.213908729525
 20
139.678117466579
 11
254.213908729525
 21
134.678117466579
  0
LINE
  8
画層0
  6
CONTINUOUS
 62
7
 10
253.713908729525
 20
134.178117466579
 11
254.213908729525
 21
134.678117466579
  0
LINE
  8
画層0
  6
CONTINUOUS
 62
7
 10
252.213908729525
 20
134.178117466579
 11
252.213908729525
 21
119.678117466579
  0
LINE
  8
画層0
  6
HIDDEN
 62
7
 10
251.213908729525
 20
120.478117466579
 11
251.213908729525
 21
140.178117466579
  0
LINE
  8
画層0
  6
CONTINUOUS
 62
7
 10
252.913908729525
 20
119.678117466579
 11
237.513908729525
 21
119.678117466579
  0
LINE
  8
画層0
  6
CONTINUOUS
 62
7
 10
253.213908729525
 20
119.378117466579
 11
252.913908729525
 21
119.678117466579
  0
LINE
  8
画層0
  6
CONTINUOUS
 62
7
 10
237.213908729525
 20
119.378117466579
 11
237.513908729525
 21
119.678117466579
  0
TEXT
  8
画層0
 62
7
  6
BYLAYER
 62
7
 10
223.861704957348
 20
87.9293710425016
 40
3.2
  1
製品名：ＫＣＭ－１Ｄ－６５Ｃ
  7
Font_0
  0
TEXT
  8
画層0
 62
7
  6
BYLAYER
 62
7
 10
230.471264202913
 20
81.2234751844356
 40
3.2
  1
（カスタム対応可能）
  7
Font_0
  0
POLYLINE
  8
画層0
  6
CONTINUOUS
 10
0.0
 20
0.0
 30
0.0
 66
1
 70
     1
  0
VERTEX
  8
画層0
 10
275.213908729525
  20
170.478117466579
  0
VERTEX
  8
画層0
 10
215.213908729525
  20
170.478117466579
  0
VERTEX
  8
画層0
 10
215.213908729525
  20
70.478117466579
  0
VERTEX
  8
画層0
 10
275.213908729525
  20
70.478117466579
  0
SEQEND
100
AcDbEntity
  8
画層0
  0
ENDSEC
  0
EOF
