999
Outputted By AR_CAD Ver.1.5.2a
  0
SECTION
  2
HEADER
  9
$ACADVER
  1
AC1009
  9
$DWGCODEPAGE
  3
DOS932
  9
$EXTMIN
 10
0
 20
0
  9
$EXTMAX
 10
297
 20
210
  9
$INSBASE
 10
0.0
 20
0.0
 30
0.0
  9
$HANDLING
 70
     1
  9
$LTSCALE
 40
1
  0
ENDSEC
  0
SECTION
  2
TABLES
  0
TABLE
  2
LTYPE
 70
     8
  0
LTYPE
  2
BYBLOCK
 70
    64
 3

 72
    65
 73
    0
 40
    0
  0
LTYPE
  2
BYLAYER
 70
    64
 3

 72
    65
 73
    0
 40
    0
  0
LTYPE
  2
CONTINUOUS
 70
    64
 3
CONTINUOUS
 72
    65
 73
    0
 40
    0
  0
LTYPE
  2
DASHED
 70
    64
 3

 72
    65
 73
    2
 40
    3.5
 49
    2.91666666666667
 49
    -0.583333333333333
  0
LTYPE
  2
DOT
 70
    64
 3

 72
    65
 73
    2
 40
    0.5
 49
    0.25
 49
    -0.25
  0
LTYPE
  2
DASHDOT
 70
    64
 3

 72
    65
 73
    4
 40
    3.5
 49
    1.84210526315789
 49
    -0.552631578947368
 49
    0.552631578947368
 49
    -0.552631578947368
  0
LTYPE
  2
DIVIDE
 70
    64
 3

 72
    65
 73
    6
 40
    3.5
 49
    1.4
 49
    -0.42
 49
    0.42
 49
    -0.42
 49
    0.42
 49
    -0.42
  0
LTYPE
  2
HIDDEN
 70
    64
 3

 72
    65
 73
    2
 40
    4
 49
    2
 49
    -2
  0
LTYPE
  2
CENTER
 70
    64
 3

 72
    65
 73
    4
 40
    50.8
 49
    31.75
 49
    -6.35
 49
    6.35
 49
    -6.35
  0
ENDTAB
  0
TABLE
  2
LAYER
 70
   257
  0
LAYER
  2
画層0
 70
    0
 62
7
  6
CONTINUOUS
  0
LAYER
  2
画層1
 70
    0
 62
3
  6
CONTINUOUS
  0
LAYER
  2
画層2
 70
    0
 62
9
  6
CONTINUOUS
  0
LAYER
  2
画層3
 70
    0
 62
7
  6
CONTINUOUS
  0
LAYER
  2
画層4
 70
    0
 62
6
  6
CONTINUOUS
  0
LAYER
  2
画層5
 70
    0
 62
1
  6
CONTINUOUS
  0
LAYER
  2
画層6
 70
    0
 62
7
  6
CONTINUOUS
  0
LAYER
  2
画層7
 70
    0
 62
51
  6
CONTINUOUS
  0
LAYER
  2
画層8
 70
    0
 62
61
  6
CONTINUOUS
  0
LAYER
  2
画層9
 70
    0
 62
111
  6
CONTINUOUS
  0
LAYER
  2
画層10
 70
    0
 62
91
  6
CONTINUOUS
  0
LAYER
  2
画層11
 70
    0
 62
131
  6
CONTINUOUS
  0
LAYER
  2
画層12
 70
    0
 62
161
  6
CONTINUOUS
  0
LAYER
  2
画層13
 70
    0
 62
5
  6
CONTINUOUS
  0
LAYER
  2
画層14
 70
    0
 62
7
  6
CONTINUOUS
  0
LAYER
  2
画層15
 70
    0
 62
11
  6
CONTINUOUS
  0
LAYER
  2
画層16
 70
    0
 62
7
  6
CONTINUOUS
  0
LAYER
  2
画層17
 70
    0
 62
70
  6
CONTINUOUS
  0
LAYER
  2
画層18
 70
    0
 62
211
  6
CONTINUOUS
  0
LAYER
  2
画層19
 70
    0
 62
137
  6
CONTINUOUS
  0
LAYER
  2
画層20
 70
    0
 62
4
  6
CONTINUOUS
  0
LAYER
  2
画層21
 70
    0
 62
131
  6
CONTINUOUS
  0
LAYER
  2
画層22
 70
    0
 62
4
  6
CONTINUOUS
  0
LAYER
  2
画層23
 70
    0
 62
4
  6
CONTINUOUS
  0
LAYER
  2
画層24
 70
    0
 62
7
  6
CONTINUOUS
  0
LAYER
  2
画層25
 70
    0
 62
7
  6
CONTINUOUS
  0
LAYER
  2
画層26
 70
    0
 62
7
  6
CONTINUOUS
  0
LAYER
  2
画層27
 70
    0
 62
7
  6
CONTINUOUS
  0
LAYER
  2
画層28
 70
    0
 62
7
  6
CONTINUOUS
  0
LAYER
  2
画層29
 70
    0
 62
7
  6
CONTINUOUS
  0
LAYER
  2
画層30
 70
    0
 62
7
  6
CONTINUOUS
  0
LAYER
  2
画層31
 70
    0
 62
7
  6
CONTINUOUS
  0
LAYER
  2
画層32
 70
    0
 62
7
  6
CONTINUOUS
  0
LAYER
  2
画層33
 70
    0
 62
7
  6
CONTINUOUS
  0
LAYER
  2
画層34
 70
    0
 62
7
  6
CONTINUOUS
  0
LAYER
  2
画層35
 70
    0
 62
7
  6
CONTINUOUS
  0
LAYER
  2
画層36
 70
    0
 62
7
  6
CONTINUOUS
  0
LAYER
  2
画層37
 70
    0
 62
7
  6
CONTINUOUS
  0
LAYER
  2
画層38
 70
    0
 62
7
  6
CONTINUOUS
  0
LAYER
  2
画層39
 70
    0
 62
7
  6
CONTINUOUS
  0
LAYER
  2
画層40
 70
    0
 62
7
  6
CONTINUOUS
  0
LAYER
  2
画層41
 70
    0
 62
7
  6
CONTINUOUS
  0
LAYER
  2
画層42
 70
    0
 62
7
  6
CONTINUOUS
  0
LAYER
  2
画層43
 70
    0
 62
7
  6
CONTINUOUS
  0
LAYER
  2
画層44
 70
    0
 62
7
  6
CONTINUOUS
  0
LAYER
  2
画層45
 70
    0
 62
7
  6
CONTINUOUS
  0
LAYER
  2
画層46
 70
    0
 62
7
  6
CONTINUOUS
  0
LAYER
  2
画層47
 70
    0
 62
7
  6
CONTINUOUS
  0
LAYER
  2
画層48
 70
    0
 62
7
  6
CONTINUOUS
  0
LAYER
  2
画層49
 70
    0
 62
7
  6
CONTINUOUS
  0
LAYER
  2
画層50
 70
    0
 62
7
  6
CONTINUOUS
  0
LAYER
  2
画層51
 70
    0
 62
7
  6
CONTINUOUS
  0
LAYER
  2
画層52
 70
    0
 62
7
  6
CONTINUOUS
  0
LAYER
  2
画層53
 70
    0
 62
7
  6
CONTINUOUS
  0
LAYER
  2
画層54
 70
    0
 62
7
  6
CONTINUOUS
  0
LAYER
  2
画層55
 70
    0
 62
7
  6
CONTINUOUS
  0
LAYER
  2
画層56
 70
    0
 62
7
  6
CONTINUOUS
  0
LAYER
  2
画層57
 70
    0
 62
7
  6
CONTINUOUS
  0
LAYER
  2
画層58
 70
    0
 62
7
  6
CONTINUOUS
  0
LAYER
  2
画層59
 70
    0
 62
7
  6
CONTINUOUS
  0
LAYER
  2
画層60
 70
    0
 62
7
  6
CONTINUOUS
  0
LAYER
  2
画層61
 70
    0
 62
7
  6
CONTINUOUS
  0
LAYER
  2
画層62
 70
    0
 62
7
  6
CONTINUOUS
  0
LAYER
  2
画層63
 70
    0
 62
7
  6
CONTINUOUS
  0
LAYER
  2
画層64
 70
    0
 62
7
  6
CONTINUOUS
  0
LAYER
  2
画層65
 70
    0
 62
7
  6
CONTINUOUS
  0
LAYER
  2
画層66
 70
    0
 62
7
  6
CONTINUOUS
  0
LAYER
  2
画層67
 70
    0
 62
7
  6
CONTINUOUS
  0
LAYER
  2
画層68
 70
    0
 62
7
  6
CONTINUOUS
  0
LAYER
  2
画層69
 70
    0
 62
7
  6
CONTINUOUS
  0
LAYER
  2
画層70
 70
    0
 62
7
  6
CONTINUOUS
  0
LAYER
  2
画層71
 70
    0
 62
7
  6
CONTINUOUS
  0
LAYER
  2
画層72
 70
    0
 62
7
  6
CONTINUOUS
  0
LAYER
  2
画層73
 70
    0
 62
7
  6
CONTINUOUS
  0
LAYER
  2
画層74
 70
    0
 62
7
  6
CONTINUOUS
  0
LAYER
  2
画層75
 70
    0
 62
7
  6
CONTINUOUS
  0
LAYER
  2
画層76
 70
    0
 62
7
  6
CONTINUOUS
  0
LAYER
  2
画層77
 70
    0
 62
7
  6
CONTINUOUS
  0
LAYER
  2
画層78
 70
    0
 62
7
  6
CONTINUOUS
  0
LAYER
  2
画層79
 70
    0
 62
7
  6
CONTINUOUS
  0
LAYER
  2
画層80
 70
    0
 62
7
  6
CONTINUOUS
  0
LAYER
  2
画層81
 70
    0
 62
7
  6
CONTINUOUS
  0
LAYER
  2
画層82
 70
    0
 62
7
  6
CONTINUOUS
  0
LAYER
  2
画層83
 70
    0
 62
7
  6
CONTINUOUS
  0
LAYER
  2
画層84
 70
    0
 62
7
  6
CONTINUOUS
  0
LAYER
  2
画層85
 70
    0
 62
7
  6
CONTINUOUS
  0
LAYER
  2
画層86
 70
    0
 62
7
  6
CONTINUOUS
  0
LAYER
  2
画層87
 70
    0
 62
7
  6
CONTINUOUS
  0
LAYER
  2
画層88
 70
    0
 62
7
  6
CONTINUOUS
  0
LAYER
  2
画層89
 70
    0
 62
7
  6
CONTINUOUS
  0
LAYER
  2
画層90
 70
    0
 62
7
  6
CONTINUOUS
  0
LAYER
  2
画層91
 70
    0
 62
7
  6
CONTINUOUS
  0
LAYER
  2
画層92
 70
    0
 62
7
  6
CONTINUOUS
  0
LAYER
  2
画層93
 70
    0
 62
7
  6
CONTINUOUS
  0
LAYER
  2
画層94
 70
    0
 62
7
  6
CONTINUOUS
  0
LAYER
  2
画層95
 70
    0
 62
7
  6
CONTINUOUS
  0
LAYER
  2
画層96
 70
    0
 62
7
  6
CONTINUOUS
  0
LAYER
  2
画層97
 70
    0
 62
7
  6
CONTINUOUS
  0
LAYER
  2
画層98
 70
    0
 62
7
  6
CONTINUOUS
  0
LAYER
  2
画層99
 70
    0
 62
7
  6
CONTINUOUS
  0
LAYER
  2
画層100
 70
    0
 62
7
  6
CONTINUOUS
  0
LAYER
  2
画層101
 70
    0
 62
7
  6
CONTINUOUS
  0
LAYER
  2
画層102
 70
    0
 62
7
  6
CONTINUOUS
  0
LAYER
  2
画層103
 70
    0
 62
7
  6
CONTINUOUS
  0
LAYER
  2
画層104
 70
    0
 62
7
  6
CONTINUOUS
  0
LAYER
  2
画層105
 70
    0
 62
7
  6
CONTINUOUS
  0
LAYER
  2
画層106
 70
    0
 62
7
  6
CONTINUOUS
  0
LAYER
  2
画層107
 70
    0
 62
7
  6
CONTINUOUS
  0
LAYER
  2
画層108
 70
    0
 62
7
  6
CONTINUOUS
  0
LAYER
  2
画層109
 70
    0
 62
7
  6
CONTINUOUS
  0
LAYER
  2
画層110
 70
    0
 62
7
  6
CONTINUOUS
  0
LAYER
  2
画層111
 70
    0
 62
7
  6
CONTINUOUS
  0
LAYER
  2
画層112
 70
    0
 62
7
  6
CONTINUOUS
  0
LAYER
  2
画層113
 70
    0
 62
7
  6
CONTINUOUS
  0
LAYER
  2
画層114
 70
    0
 62
7
  6
CONTINUOUS
  0
LAYER
  2
画層115
 70
    0
 62
7
  6
CONTINUOUS
  0
LAYER
  2
画層116
 70
    0
 62
7
  6
CONTINUOUS
  0
LAYER
  2
画層117
 70
    0
 62
7
  6
CONTINUOUS
  0
LAYER
  2
画層118
 70
    0
 62
7
  6
CONTINUOUS
  0
LAYER
  2
画層119
 70
    0
 62
7
  6
CONTINUOUS
  0
LAYER
  2
画層120
 70
    0
 62
7
  6
CONTINUOUS
  0
LAYER
  2
画層121
 70
    0
 62
7
  6
CONTINUOUS
  0
LAYER
  2
画層122
 70
    0
 62
7
  6
CONTINUOUS
  0
LAYER
  2
画層123
 70
    0
 62
7
  6
CONTINUOUS
  0
LAYER
  2
画層124
 70
    0
 62
7
  6
CONTINUOUS
  0
LAYER
  2
画層125
 70
    0
 62
7
  6
CONTINUOUS
  0
LAYER
  2
画層126
 70
    0
 62
7
  6
CONTINUOUS
  0
LAYER
  2
画層127
 70
    0
 62
7
  6
CONTINUOUS
  0
LAYER
  2
画層128
 70
    0
 62
7
  6
CONTINUOUS
  0
LAYER
  2
画層129
 70
    0
 62
7
  6
CONTINUOUS
  0
LAYER
  2
画層130
 70
    0
 62
7
  6
CONTINUOUS
  0
LAYER
  2
画層131
 70
    0
 62
7
  6
CONTINUOUS
  0
LAYER
  2
画層132
 70
    0
 62
7
  6
CONTINUOUS
  0
LAYER
  2
画層133
 70
    0
 62
7
  6
CONTINUOUS
  0
LAYER
  2
画層134
 70
    0
 62
7
  6
CONTINUOUS
  0
LAYER
  2
画層135
 70
    0
 62
7
  6
CONTINUOUS
  0
LAYER
  2
画層136
 70
    0
 62
7
  6
CONTINUOUS
  0
LAYER
  2
画層137
 70
    0
 62
7
  6
CONTINUOUS
  0
LAYER
  2
画層138
 70
    0
 62
7
  6
CONTINUOUS
  0
LAYER
  2
画層139
 70
    0
 62
7
  6
CONTINUOUS
  0
LAYER
  2
画層140
 70
    0
 62
7
  6
CONTINUOUS
  0
LAYER
  2
画層141
 70
    0
 62
7
  6
CONTINUOUS
  0
LAYER
  2
画層142
 70
    0
 62
7
  6
CONTINUOUS
  0
LAYER
  2
画層143
 70
    0
 62
7
  6
CONTINUOUS
  0
LAYER
  2
画層144
 70
    0
 62
7
  6
CONTINUOUS
  0
LAYER
  2
画層145
 70
    0
 62
7
  6
CONTINUOUS
  0
LAYER
  2
画層146
 70
    0
 62
7
  6
CONTINUOUS
  0
LAYER
  2
画層147
 70
    0
 62
7
  6
CONTINUOUS
  0
LAYER
  2
画層148
 70
    0
 62
7
  6
CONTINUOUS
  0
LAYER
  2
画層149
 70
    0
 62
7
  6
CONTINUOUS
  0
LAYER
  2
画層150
 70
    0
 62
7
  6
CONTINUOUS
  0
LAYER
  2
画層151
 70
    0
 62
7
  6
CONTINUOUS
  0
LAYER
  2
画層152
 70
    0
 62
7
  6
CONTINUOUS
  0
LAYER
  2
画層153
 70
    0
 62
7
  6
CONTINUOUS
  0
LAYER
  2
画層154
 70
    0
 62
7
  6
CONTINUOUS
  0
LAYER
  2
画層155
 70
    0
 62
7
  6
CONTINUOUS
  0
LAYER
  2
画層156
 70
    0
 62
7
  6
CONTINUOUS
  0
LAYER
  2
画層157
 70
    0
 62
7
  6
CONTINUOUS
  0
LAYER
  2
画層158
 70
    0
 62
7
  6
CONTINUOUS
  0
LAYER
  2
画層159
 70
    0
 62
7
  6
CONTINUOUS
  0
LAYER
  2
画層160
 70
    0
 62
7
  6
CONTINUOUS
  0
LAYER
  2
画層161
 70
    0
 62
7
  6
CONTINUOUS
  0
LAYER
  2
画層162
 70
    0
 62
7
  6
CONTINUOUS
  0
LAYER
  2
画層163
 70
    0
 62
7
  6
CONTINUOUS
  0
LAYER
  2
画層164
 70
    0
 62
7
  6
CONTINUOUS
  0
LAYER
  2
画層165
 70
    0
 62
7
  6
CONTINUOUS
  0
LAYER
  2
画層166
 70
    0
 62
7
  6
CONTINUOUS
  0
LAYER
  2
画層167
 70
    0
 62
7
  6
CONTINUOUS
  0
LAYER
  2
画層168
 70
    0
 62
7
  6
CONTINUOUS
  0
LAYER
  2
画層169
 70
    0
 62
7
  6
CONTINUOUS
  0
LAYER
  2
画層170
 70
    0
 62
7
  6
CONTINUOUS
  0
LAYER
  2
画層171
 70
    0
 62
7
  6
CONTINUOUS
  0
LAYER
  2
画層172
 70
    0
 62
7
  6
CONTINUOUS
  0
LAYER
  2
画層173
 70
    0
 62
7
  6
CONTINUOUS
  0
LAYER
  2
画層174
 70
    0
 62
7
  6
CONTINUOUS
  0
LAYER
  2
画層175
 70
    0
 62
7
  6
CONTINUOUS
  0
LAYER
  2
画層176
 70
    0
 62
7
  6
CONTINUOUS
  0
LAYER
  2
画層177
 70
    0
 62
7
  6
CONTINUOUS
  0
LAYER
  2
画層178
 70
    0
 62
7
  6
CONTINUOUS
  0
LAYER
  2
画層179
 70
    0
 62
7
  6
CONTINUOUS
  0
LAYER
  2
画層180
 70
    0
 62
7
  6
CONTINUOUS
  0
LAYER
  2
画層181
 70
    0
 62
7
  6
CONTINUOUS
  0
LAYER
  2
画層182
 70
    0
 62
7
  6
CONTINUOUS
  0
LAYER
  2
画層183
 70
    0
 62
7
  6
CONTINUOUS
  0
LAYER
  2
画層184
 70
    0
 62
7
  6
CONTINUOUS
  0
LAYER
  2
画層185
 70
    0
 62
7
  6
CONTINUOUS
  0
LAYER
  2
画層186
 70
    0
 62
7
  6
CONTINUOUS
  0
LAYER
  2
画層187
 70
    0
 62
7
  6
CONTINUOUS
  0
LAYER
  2
画層188
 70
    0
 62
7
  6
CONTINUOUS
  0
LAYER
  2
画層189
 70
    0
 62
7
  6
CONTINUOUS
  0
LAYER
  2
画層190
 70
    0
 62
7
  6
CONTINUOUS
  0
LAYER
  2
画層191
 70
    0
 62
7
  6
CONTINUOUS
  0
LAYER
  2
画層192
 70
    0
 62
7
  6
CONTINUOUS
  0
LAYER
  2
画層193
 70
    0
 62
7
  6
CONTINUOUS
  0
LAYER
  2
画層194
 70
    0
 62
7
  6
CONTINUOUS
  0
LAYER
  2
画層195
 70
    0
 62
7
  6
CONTINUOUS
  0
LAYER
  2
画層196
 70
    0
 62
7
  6
CONTINUOUS
  0
LAYER
  2
画層197
 70
    0
 62
7
  6
CONTINUOUS
  0
LAYER
  2
画層198
 70
    0
 62
7
  6
CONTINUOUS
  0
LAYER
  2
画層199
 70
    0
 62
7
  6
CONTINUOUS
  0
LAYER
  2
画層200
 70
    0
 62
7
  6
CONTINUOUS
  0
LAYER
  2
画層201
 70
    0
 62
7
  6
CONTINUOUS
  0
LAYER
  2
画層202
 70
    0
 62
7
  6
CONTINUOUS
  0
LAYER
  2
画層203
 70
    0
 62
7
  6
CONTINUOUS
  0
LAYER
  2
画層204
 70
    0
 62
7
  6
CONTINUOUS
  0
LAYER
  2
画層205
 70
    0
 62
7
  6
CONTINUOUS
  0
LAYER
  2
画層206
 70
    0
 62
7
  6
CONTINUOUS
  0
LAYER
  2
画層207
 70
    0
 62
7
  6
CONTINUOUS
  0
LAYER
  2
画層208
 70
    0
 62
7
  6
CONTINUOUS
  0
LAYER
  2
画層209
 70
    0
 62
7
  6
CONTINUOUS
  0
LAYER
  2
画層210
 70
    0
 62
7
  6
CONTINUOUS
  0
LAYER
  2
画層211
 70
    0
 62
7
  6
CONTINUOUS
  0
LAYER
  2
画層212
 70
    0
 62
7
  6
CONTINUOUS
  0
LAYER
  2
画層213
 70
    0
 62
7
  6
CONTINUOUS
  0
LAYER
  2
画層214
 70
    0
 62
7
  6
CONTINUOUS
  0
LAYER
  2
画層215
 70
    0
 62
7
  6
CONTINUOUS
  0
LAYER
  2
画層216
 70
    0
 62
7
  6
CONTINUOUS
  0
LAYER
  2
画層217
 70
    0
 62
7
  6
CONTINUOUS
  0
LAYER
  2
画層218
 70
    0
 62
7
  6
CONTINUOUS
  0
LAYER
  2
画層219
 70
    0
 62
7
  6
CONTINUOUS
  0
LAYER
  2
画層220
 70
    0
 62
7
  6
CONTINUOUS
  0
LAYER
  2
画層221
 70
    0
 62
7
  6
CONTINUOUS
  0
LAYER
  2
画層222
 70
    0
 62
7
  6
CONTINUOUS
  0
LAYER
  2
画層223
 70
    0
 62
7
  6
CONTINUOUS
  0
LAYER
  2
画層224
 70
    0
 62
7
  6
CONTINUOUS
  0
LAYER
  2
画層225
 70
    0
 62
7
  6
CONTINUOUS
  0
LAYER
  2
画層226
 70
    0
 62
7
  6
CONTINUOUS
  0
LAYER
  2
画層227
 70
    0
 62
7
  6
CONTINUOUS
  0
LAYER
  2
画層228
 70
    0
 62
7
  6
CONTINUOUS
  0
LAYER
  2
画層229
 70
    0
 62
7
  6
CONTINUOUS
  0
LAYER
  2
画層230
 70
    0
 62
7
  6
CONTINUOUS
  0
LAYER
  2
画層231
 70
    0
 62
7
  6
CONTINUOUS
  0
LAYER
  2
画層232
 70
    0
 62
7
  6
CONTINUOUS
  0
LAYER
  2
画層233
 70
    0
 62
7
  6
CONTINUOUS
  0
LAYER
  2
画層234
 70
    0
 62
7
  6
CONTINUOUS
  0
LAYER
  2
画層235
 70
    0
 62
7
  6
CONTINUOUS
  0
LAYER
  2
画層236
 70
    0
 62
7
  6
CONTINUOUS
  0
LAYER
  2
画層237
 70
    0
 62
7
  6
CONTINUOUS
  0
LAYER
  2
画層238
 70
    0
 62
7
  6
CONTINUOUS
  0
LAYER
  2
画層239
 70
    0
 62
7
  6
CONTINUOUS
  0
LAYER
  2
画層240
 70
    0
 62
7
  6
CONTINUOUS
  0
LAYER
  2
画層241
 70
    0
 62
7
  6
CONTINUOUS
  0
LAYER
  2
画層242
 70
    0
 62
7
  6
CONTINUOUS
  0
LAYER
  2
画層243
 70
    0
 62
7
  6
CONTINUOUS
  0
LAYER
  2
画層244
 70
    0
 62
7
  6
CONTINUOUS
  0
LAYER
  2
画層245
 70
    0
 62
7
  6
CONTINUOUS
  0
LAYER
  2
画層246
 70
    0
 62
7
  6
CONTINUOUS
  0
LAYER
  2
画層247
 70
    0
 62
7
  6
CONTINUOUS
  0
LAYER
  2
画層248
 70
    0
 62
7
  6
CONTINUOUS
  0
LAYER
  2
画層249
 70
    0
 62
7
  6
CONTINUOUS
  0
LAYER
  2
画層250
 70
    0
 62
7
  6
CONTINUOUS
  0
LAYER
  2
画層251
 70
    0
 62
7
  6
CONTINUOUS
  0
LAYER
  2
画層252
 70
    0
 62
7
  6
CONTINUOUS
  0
LAYER
  2
画層253
 70
    0
 62
7
  6
CONTINUOUS
  0
LAYER
  2
画層254
 70
    0
 62
7
  6
CONTINUOUS
  0
LAYER
  2
画層255
 70
    0
 62
7
  6
CONTINUOUS
  0
LAYER
  2
0
 70
   64
 62
    7
  6
CONTINUOUS
  0
ENDTAB
  0
TABLE
  2
STYLE
 70
     1
  0
STYLE
  2
Standard
 70
     0
 40
0.0
 41
1.0
 50
0.0
 71
     0
 42
3.2
  3
TXT
  4
BIGFONT
  0
STYLE
  2
Font_0
 70
     0
 40
0.0
 41
1.0
 50
0.0
 71
     0
 42
3.2
  3
txt
  4
BIGFONT
  0
ENDTAB
  0
ENDSEC
  0
SECTION
  2
BLOCKS
  0
BLOCK
  8
画層0
  2
13462_KCAD_FINI
 70
    0
 10
0
 20
0
 30
0.0
  3
13462_KCAD_FINI
  1

  0
LINE
  8
画層0
  6
CONTINUOUS
 62
134
 10
0
 20
0
 11
1.8475208614068
 21
3.2
  0
LINE
  8
画層0
  6
CONTINUOUS
 62
134
 10
1.8475208614068
 20
3.2
 11
-1.8475208614068
 21
3.2
  0
LINE
  8
画層0
  6
CONTINUOUS
 62
134
 10
-1.8475208614068
 20
3.2
 11
0
 21
0
  0
LINE
  8
画層0
  6
CONTINUOUS
 62
134
 10
3.69504172281361
 20
0
 11
5.54256258422041
 21
3.2
  0
LINE
  8
画層0
  6
CONTINUOUS
 62
134
 10
5.54256258422041
 20
3.2
 11
1.8475208614068
 21
3.2
  0
LINE
  8
画層0
  6
CONTINUOUS
 62
134
 10
1.8475208614068
 20
3.2
 11
3.69504172281361
 21
0
  0
LINE
  8
画層0
  6
CONTINUOUS
 62
134
 10
7.39008344562721
 20
0
 11
9.23760430703401
 21
3.2
  0
LINE
  8
画層0
  6
CONTINUOUS
 62
134
 10
9.23760430703401
 20
3.2
 11
5.54256258422041
 21
3.2
  0
LINE
  8
画層0
  6
CONTINUOUS
 62
134
 10
5.54256258422041
 20
3.2
 11
7.39008344562721
 21
0
  0
ENDBLK
  0
ENDSEC
  0
SECTION
  2
ENTITIES
  0
INSERT
  8
画層0
  6
CONTINUOUS
 62
7
  2
13462_KCAD_FINI
 10
202.676205263818
 20
27.3405025106536
 30
0.0
  0
TEXT
  8
画層0
 62
7
  6
CONTINUOUS
 62
7
 10
120.11299698472
 20
22.0879691304446
 40
3.6
 41
0.973750000353902
  1
宇賀田
  7
Font_0
 72
1
 11
125.371246986631
 21
23.8879691304446
 73
2
  0
TEXT
  8
画層0
 62
7
  6
CONTINUOUS
 62
7
 10
152.989371985038
 20
22.0879691304446
 40
3.6
 41
0.973750000353902
  1
藤 田
  7
Font_0
 72
1
 11
157.371246986631
 21
23.8879691304446
 73
2
  0
TEXT
  8
画層0
 62
7
  6
CONTINUOUS
 62
7
 10
201.571246986631
 20
17.3068704799476
 40
4
 41
1.2
  1
C0.1
  7
Font_0
 72
1
 11
206.371246986631
 21
19.3068704799476
 73
2
  0
TEXT
  8
画層0
 62
7
  6
CONTINUOUS
 62
7
 10
168.989371985038
 20
22.0879691304446
 40
3.6
 41
0.973750000353902
  1
藤 田
  7
Font_0
 72
1
 11
173.371246986631
 21
23.8879691304446
 73
2
  0
TEXT
  8
画層0
 62
7
  6
CONTINUOUS
 62
7
 10
136.11299698472
 20
22.0879691304446
 40
3.6
 41
0.973750000353902
  1
宇賀田
  7
Font_0
 72
1
 11
141.371246986631
 21
23.8879691304446
 73
2
  0
TEXT
  8
画層0
 62
7
  6
CENTER
 62
7
 10
101.471246986631
 20
41.2568704799476
 40
3.6
  1
０００
  7
Font_0
 72
1
 11
106.871246986631
 21
43.0568704799476
 73
2
  0
TEXT
  8
画層0
 62
7
  6
CENTER
 62
7
 10
134.171246986631
 20
41.3891671070856
 40
3.6
  1
組 立 図
  7
Font_0
 72
1
 11
141.371246986631
 21
43.1891671070856
 73
2
  0
TEXT
  8
画層0
 62
7
  6
CENTER
 62
7
 10
172.471246986631
 20
41.2568704799476
 40
3.6
  1
1
  7
Font_0
 72
1
 11
173.371246986631
 21
43.0568704799476
 73
2
  0
TEXT
  8
画層0
 62
7
  6
CENTER
 62
7
 10
191.621246986631
 20
41.3068704799476
 40
3.5
  1
Ａ５０５２ＴＤ
  7
Font_0
 72
1
 11
203.871246986631
 21
43.0568704799476
 73
2
  0
TEXT
  8
画層0
 62
7
  6
CENTER
 62
7
 10
240.621246986632
 20
41.3068704799476
 40
3.5
  1
サテン黒アルマイト
  7
Font_0
 72
1
 11
256.371246986632
 21
43.0568704799476
 73
2
  0
TEXT
  8
画層0
 62
7
  6
CONTINUOUS
 62
7
 10
242.244855808053
 20
17.2899806411886
 40
4
  1
ＫＶＴ－１０１３
  7
Font_0
 72
1
 11
258.244855808053
 21
19.2899806411886
 73
2
  0
TEXT
  8
画層0
 62
7
  6
CONTINUOUS
 62
7
 10
236.12884613619
 20
26.9758813019175
 40
3.3
  1
ＫＣＭ－２Ｄ－１１０Ｃ（８）
  7
Font_0
  0
LINE
  8
画層12
  6
CONTINUOUS
 62
7
 10
162.871257878615
 20
7.30687047994758
 11
162.871257878615
 21
9.61035812758058
  0
LINE
  8
画層12
  6
CONTINUOUS
 62
7
 10
161.809433665243
 20
8.08592628063957
 11
161.809433665243
 21
8.61566869434759
  0
LINE
  8
画層12
  6
CONTINUOUS
 62
7
 10
161.809433665243
 20
9.81546496858957
 11
161.809433665243
 21
9.41028250412458
  0
POLYLINE
  8
画層12
 62
7
  6
CONTINUOUS
 10
0.0
 20
0.0
 30
0.0
 66
1
  0
VERTEX
  8
画層12
 10
162.871257878615
  20
9.61035812758058
  0
VERTEX
  8
画層12
 10
162.856185488409
  20
9.84022945266457
  0
VERTEX
  8
画層12
 10
162.821580159431
  20
10.0610680647496
  0
VERTEX
  8
画層12
 10
162.749473975249
  20
10.2675358403076
  0
VERTEX
  8
画層12
 10
162.628978948693
  20
10.4426567461676
  0
VERTEX
  8
画層12
 10
162.465709509086
  20
10.5845834012356
  0
VERTEX
  8
画層12
 10
162.263480351359
  20
10.6832522388456
  0
VERTEX
  8
画層12
 10
162.055020935534
  20
10.7406066638386
  0
VERTEX
  8
画層12
 10
161.864161734052
  20
10.7712061082706
  0
VERTEX
  8
画層12
 10
161.702145755877
  20
10.7843246782546
  0
SEQEND
100
AcDbEntity
  8
画層12
  0
ARC
  8
画層12
  6
CONTINUOUS
 62
7
 10
161.628444523385
 20
9.81546496858957
 40
0.180989141858106
 50
0
 51
90
  0
LINE
  8
画層12
  6
CONTINUOUS
 62
7
 10
158.710086976874
 20
7.30687047994758
 11
162.871257878615
 21
7.30687047994758
  0
LINE
  8
画層12
  6
CONTINUOUS
 62
7
 10
158.710086976072
 20
7.30687047994758
 11
158.710086976874
 21
7.30687047994758
  0
LINE
  8
画層12
  6
CONTINUOUS
 62
7
 10
158.710086976874
 20
8.08592628063957
 11
161.809433665243
 21
8.08592628063957
  0
LINE
  8
画層12
  6
CONTINUOUS
 62
7
 10
161.809433665243
 20
8.61566869434759
 11
158.710086976874
 21
8.61566869434759
  0
LINE
  8
画層12
  6
CONTINUOUS
 62
7
 10
158.710086976874
 20
8.61566869434759
 11
158.710086976874
 21
8.08592628063957
  0
LINE
  8
画層12
  6
CONTINUOUS
 62
7
 10
161.809433665243
 20
9.41028250412458
 11
158.710086976874
 21
9.41028250412458
  0
POLYLINE
  8
画層12
 62
7
  6
CONTINUOUS
 10
0.0
 20
0.0
 30
0.0
 66
1
  0
VERTEX
  8
画層12
 10
158.710086976874
  20
7.30687047994758
  0
VERTEX
  8
画層12
 10
158.480906197239
  20
7.31406892558158
  0
VERTEX
  8
画層12
 10
158.252444091684
  20
7.33834031136357
  0
VERTEX
  8
画層12
 10
158.055231834711
  20
7.38105539891157
  0
VERTEX
  8
画層12
 10
157.899289627433
  20
7.43813343502657
  0
VERTEX
  8
画層12
 10
157.781666022442
  20
7.50410241670457
  0
VERTEX
  8
画層12
 10
157.687683795042
  20
7.57967032459257
  0
VERTEX
  8
画層12
 10
157.617088662603
  20
7.66446890523758
  0
VERTEX
  8
画層12
 10
157.56467264722
  20
7.75408263551557
  0
VERTEX
  8
画層12
 10
157.529119606233
  20
7.85916485684558
  0
VERTEX
  8
画層12
 10
157.509393089326
  20
7.97702319226357
  0
VERTEX
  8
画層12
 10
157.505677656631
  20
8.10148428972457
  0
SEQEND
100
AcDbEntity
  8
画層12
  0
LINE
  8
画層12
  6
CONTINUOUS
 62
7
 10
157.505677656631
 20
8.61566869434759
 11
157.505677656631
 21
8.08592628063957
  0
POLYLINE
  8
画層12
 62
7
  6
CONTINUOUS
 10
0.0
 20
0.0
 30
0.0
 66
1
  0
VERTEX
  8
画層12
 10
158.710086976874
  20
9.41028250412458
  0
VERTEX
  8
画層12
 10
158.480906197239
  20
9.40308405849157
  0
VERTEX
  8
画層12
 10
158.252444091684
  20
9.37881267270859
  0
VERTEX
  8
画層12
 10
158.055231834711
  20
9.33609758516059
  0
VERTEX
  8
画層12
 10
157.899289627433
  20
9.27901954904559
  0
VERTEX
  8
画層12
 10
157.781666022442
  20
9.21305056736759
  0
VERTEX
  8
画層12
 10
157.687683795042
  20
9.13748265947959
  0
VERTEX
  8
画層12
 10
157.617088662603
  20
9.05268407883557
  0
VERTEX
  8
画層12
 10
157.56467264722
  20
8.96307034855658
  0
VERTEX
  8
画層12
 10
157.529119606233
  20
8.85798812722658
  0
VERTEX
  8
画層12
 10
157.509393089326
  20
8.74012979180858
  0
VERTEX
  8
画層12
 10
157.505677656631
  20
8.61566869434759
  0
SEQEND
100
AcDbEntity
  8
画層12
  0
LINE
  8
画層12
  6
CONTINUOUS
 62
7
 10
157.585971517286
 20
9.99645411044759
 11
161.628444523385
 21
9.99645411044759
  0
LINE
  8
画層12
  6
CONTINUOUS
 62
7
 10
157.585971517286
 20
10.7843246782546
 11
157.585971517286
 21
9.99645411044759
  0
LINE
  8
画層12
  6
CONTINUOUS
 62
7
 10
161.702145755877
 20
10.7843246782546
 11
157.585971517286
 21
10.7843246782546
  0
LINE
  8
画層12
  6
CONTINUOUS
 62
7
 10
156.946756526977
 20
9.73458765547758
 11
156.946756526977
 21
7.30687047994758
  0
LINE
  8
画層12
  6
CONTINUOUS
 62
7
 10
156.946756526977
 20
7.30687047994758
 11
155.886876226434
 21
7.30687047994758
  0
LINE
  8
画層12
  6
CONTINUOUS
 62
7
 10
155.886876226434
 20
7.30687047994758
 11
155.886876226434
 21
9.67620718749558
  0
ARC
  8
画層12
  6
CONTINUOUS
 62
7
 10
155.8970195042
 20
9.73458765547758
 40
1.04973702277687
 50
0
 51
90
  0
ARC
  8
画層12
  6
CONTINUOUS
 62
7
 10
155.669689256204
 20
9.67620718749558
 40
0.217186970229704
 50
0
 51
90
  0
LINE
  8
画層12
  6
CONTINUOUS
 62
7
 10
155.669689256204
 20
9.89339415772557
 11
152.827676644695
 21
9.89339415772557
  0
LINE
  8
画層12
  6
CONTINUOUS
 62
7
 10
152.827676644695
 20
9.89339415772557
 11
152.827676644695
 21
7.30687047994758
  0
LINE
  8
画層12
  6
CONTINUOUS
 62
7
 10
152.827676644695
 20
7.30687047994758
 11
151.767796344152
 21
7.30687047994758
  0
LINE
  8
画層12
  6
CONTINUOUS
 62
7
 10
151.767796344152
 20
7.30687047994758
 11
151.767796344152
 21
10.7843246782546
  0
LINE
  8
画層12
  6
CONTINUOUS
 62
7
 10
151.767796344152
 20
10.7843246782546
 11
155.8970195042
 21
10.7843246782546
  0
LINE
  8
画層12
  6
CONTINUOUS
 62
7
 10
151.151154085129
 20
7.30687047994758
 11
151.151154085129
 21
10.7843246782546
  0
LINE
  8
画層12
  6
CONTINUOUS
 62
7
 10
151.151154085129
 20
11.0319632607476
 11
151.151154085129
 21
11.8277568887366
  0
LINE
  8
画層12
  6
CONTINUOUS
 62
7
 10
150.09607468158
 20
7.30687047994758
 11
151.151154085129
 21
7.30687047994758
  0
LINE
  8
画層12
  6
CONTINUOUS
 62
7
 10
150.09607468158
 20
10.7843246782546
 11
150.09607468158
 21
7.30687047994758
  0
LINE
  8
画層12
  6
CONTINUOUS
 62
7
 10
151.151154085129
 20
10.7843246782546
 11
150.09607468158
 21
10.7843246782546
  0
LINE
  8
画層12
  6
CONTINUOUS
 62
7
 10
150.09607468158
 20
11.0319632607476
 11
151.151154085129
 21
11.0319632607476
  0
LINE
  8
画層12
  6
CONTINUOUS
 62
7
 10
151.151154085129
 20
11.8277568887366
 11
150.09607468158
 21
11.8277568887366
  0
LINE
  8
画層12
  6
CONTINUOUS
 62
7
 10
150.09607468158
 20
11.8277568887366
 11
150.09607468158
 21
11.0319632607476
  0
LINE
  8
画層12
  6
CONTINUOUS
 62
7
 10
147.612714964949
 20
7.30687047994758
 11
149.42483396542
 21
7.30687047994758
  0
LINE
  8
画層12
  6
CONTINUOUS
 62
7
 10
149.36862815718
 20
10.7843246782546
 11
147.706543372818
 21
10.7843246782546
  0
LINE
  8
画層12
  6
CONTINUOUS
 62
7
 10
146.769254579075
 20
9.04778048877259
 11
149.42483396542
 21
7.30687047994758
  0
LINE
  8
画層12
  6
CONTINUOUS
 62
7
 10
149.36862815718
 20
10.7843246782546
 11
146.769254579075
 21
9.04778048877259
  0
LINE
  8
画層12
  6
CONTINUOUS
 62
7
 10
147.612714964949
 20
7.30687047994758
 11
145.444436237699
 21
8.94362413576758
  0
LINE
  8
画層12
  6
CONTINUOUS
 62
7
 10
147.706543372818
 20
10.7843246782546
 11
145.44245839177
 21
9.15433942139859
  0
LINE
  8
画層12
  6
CONTINUOUS
 62
7
 10
145.270417217541
 20
7.30687047994758
 11
145.270417217541
 21
8.85695208506058
  0
ARC
  8
画層12
  6
CONTINUOUS
 62
7
 10
145.379010702656
 20
8.85695208506058
 40
0.108593485114852
 50
52.9521908437076
 51
180
  0
ARC
  8
画層12
  6
CONTINUOUS
 62
7
 10
145.379010702656
 20
9.24246964184258
 40
0.108593485114852
 50
180
 51
305.751288374722
  0
LINE
  8
画層12
  6
CONTINUOUS
 62
7
 10
144.214751431435
 20
7.30687047994758
 11
145.270417217541
 21
7.30687047994758
  0
LINE
  8
画層12
  6
CONTINUOUS
 62
7
 10
145.270417217541
 20
9.24246964184258
 11
145.270417217541
 21
11.8277568887366
  0
LINE
  8
画層12
  6
CONTINUOUS
 62
7
 10
145.270417217541
 20
11.8277568887366
 11
144.214751431435
 21
11.8277568887366
  0
LINE
  8
画層12
  6
CONTINUOUS
 62
7
 10
144.214751431435
 20
11.8277568887366
 11
144.214751431435
 21
7.30687047994758
  0
LINE
  8
画層12
  6
CONTINUOUS
 62
7
 10
143.669303172676
 20
8.50139881621058
 11
143.669303172676
 21
9.59748351421757
  0
ARC
  8
画層12
  6
CONTINUOUS
 62
7
 10
142.474774836412
 20
8.50139881621058
 40
1.19452833626337
 50
270
 51
0
  0
ARC
  8
画層12
  6
CONTINUOUS
 62
7
 10
142.392367048796
 20
8.36490378339158
 40
0.162890227672278
 50
270
 51
0
  0
LINE
  8
画層12
  6
CONTINUOUS
 62
7
 10
142.555257276468
 20
8.36490378339158
 11
142.555257276468
 21
9.74072052757458
  0
ARC
  8
画層12
  6
CONTINUOUS
 62
7
 10
142.392367048796
 20
9.74072052757458
 40
0.162890227672278
 50
0
 51
90
  0
ARC
  8
画層12
  6
CONTINUOUS
 62
7
 10
142.474774836412
 20
9.59748351421757
 40
1.19452833626337
 50
0
 51
90
  0
LINE
  8
画層12
  6
CONTINUOUS
 62
7
 10
139.516253901394
 20
7.30687047994758
 11
142.474774836412
 21
7.30687047994758
  0
LINE
  8
画層12
  6
CONTINUOUS
 62
7
 10
139.456172705584
 20
8.20201355571959
 11
142.392367048796
 21
8.20201355571959
  0
LINE
  8
画層12
  6
CONTINUOUS
 62
7
 10
135.096939553535
 20
7.30687047994758
 11
136.285290172168
 21
7.30687047994758
  0
ARC
  8
画層12
  6
CONTINUOUS
 62
7
 10
139.456172705584
 20
8.36490378339158
 40
0.162890227672278
 50
180
 51
270
  0
LINE
  8
画層12
  6
CONTINUOUS
 62
7
 10
132.871246986632
 20
11.8277568887366
 11
132.871246986632
 21
10.8324831597736
  0
ARC
  8
画層12
  6
CONTINUOUS
 62
7
 10
139.516253901394
 20
8.50139881621058
 40
1.19452833626337
 50
180
 51
270
  0
LINE
  8
画層12
  6
CONTINUOUS
 62
7
 10
142.392367048796
 20
9.90361075524658
 11
139.456172705584
 21
9.90361075524658
  0
LINE
  8
画層12
  6
CONTINUOUS
 62
7
 10
139.293282477912
 20
9.74072052757458
 11
139.293282477912
 21
8.36490378339158
  0
ARC
  8
画層12
  6
CONTINUOUS
 62
7
 10
139.456172705584
 20
9.74072052757458
 40
0.162890227672278
 50
90
 51
180
  0
LINE
  8
画層12
  6
CONTINUOUS
 62
7
 10
142.474774836412
 20
10.7920118504806
 11
139.516253901394
 21
10.7920118504806
  0
LINE
  8
画層12
  6
CONTINUOUS
 62
7
 10
138.321725565131
 20
9.59748351421757
 11
138.321725565131
 21
8.50139881621058
  0
ARC
  8
画層12
  6
CONTINUOUS
 62
7
 10
139.516253901394
 20
9.59748351421757
 40
1.19452833626337
 50
90
 51
180
  0
LINE
  8
画層12
  6
CONTINUOUS
 62
7
 10
138.54654879809
 20
10.8324831597736
 11
138.54654879809
 21
11.8277568887366
  0
LINE
  8
画層12
  6
CONTINUOUS
 62
7
 10
132.871246986632
 20
10.8324831597736
 11
135.096939553535
 21
10.8324831597736
  0
LINE
  8
画層12
  6
CONTINUOUS
 62
7
 10
135.096939553535
 20
10.8324831597736
 11
135.096939553535
 21
7.30687047994758
  0
LINE
  8
画層12
  6
CONTINUOUS
 62
7
 10
136.285290172168
 20
7.30687047994758
 11
136.285290172168
 21
10.8324831597736
  0
LINE
  8
画層12
  6
CONTINUOUS
 62
7
 10
136.285290172168
 20
10.8324831597736
 11
138.54654879809
 21
10.8324831597736
  0
LINE
  8
画層12
  6
CONTINUOUS
 62
7
 10
138.54654879809
 20
11.8277568887366
 11
132.871246986632
 21
11.8277568887366
  0
LINE
  8
画層12
  6
CONTINUOUS
 62
7
 10
11.3712469866316
 20
105.306870479948
 11
8.8712469866316
 21
105.306870479948
  0
LINE
  8
画層12
  6
CONTINUOUS
 62
7
 10
286.371246986632
 20
105.306870479948
 11
288.871246986632
 21
105.306870479948
  0
LINE
  8
画層12
  6
CONTINUOUS
 62
7
 10
96.3712469866306
 20
14.3068704799476
 11
96.3712469866306
 21
46.8068704799476
  0
LINE
  8
画層12
  6
CONTINUOUS
 62
7
 10
117.371246986631
 20
14.3068704799476
 11
117.371246986631
 21
46.8068704799476
  0
LINE
  8
画層12
  6
CONTINUOUS
 62
7
 10
133.371246986631
 20
14.3068704799476
 11
133.371246986631
 21
34.3068704799476
  0
LINE
  8
画層12
  6
CONTINUOUS
 62
7
 10
149.371246986631
 20
14.3068704799476
 11
149.371246986631
 21
34.3068704799476
  0
LINE
  8
画層12
  6
CONTINUOUS
 62
7
 10
165.371246986631
 20
14.3068704799476
 11
165.371246986631
 21
46.8068704799476
  0
TEXT
  8
画層12
 62
7
  6
CENTER
 62
7
 10
169.433746986631
 20
30.2318704799476
 40
3.15
  1
承 認
  7
Font_0
 72
1
 11
173.371246986631
 21
31.8068704799476
 73
2
  0
TEXT
  8
画層12
 62
7
  6
CENTER
 62
7
 10
153.433746986631
 20
30.2318704799476
 40
3.15
  1
検 図
  7
Font_0
 72
1
 11
157.371246986631
 21
31.8068704799476
 73
2
  0
TEXT
  8
画層12
 62
7
  6
CENTER
 62
7
 10
121.433746986631
 20
30.2318704799476
 40
3.15
  1
製 図
  7
Font_0
 72
1
 11
125.371246986631
 21
31.8068704799476
 73
2
  0
TEXT
  8
画層12
 62
7
  6
CENTER
 62
7
 10
131.921246986631
 20
35.2318704799476
 40
3.15
  1
部   品   名
  7
Font_0
 72
1
 11
141.371246986631
 21
36.8068704799476
 73
2
  0
TEXT
  8
画層12
 62
7
  6
CENTER
 62
7
 10
245.346246986632
 20
35.2318704799476
 40
3.15
  1
表  面  処  理
  7
Font_0
 72
1
 11
256.371246986632
 21
36.8068704799476
 73
2
  0
LINE
  8
画層12
  6
CONTINUOUS
 62
7
 10
96.3712469866306
 20
19.3068704799476
 11
117.371246986631
 21
19.3068704799476
  0
TEXT
  8
画層12
 62
7
  6
CENTER
 62
7
 10
16.2903674005316
 20
17.9811649295476
 40
3.15
  1
日付
  7
Font_0
  0
TEXT
  8
画層12
 62
7
  6
CENTER
 62
7
 10
101.201246986631
 20
15.4568704799476
 40
2.7
 41
1.2
  1
 三角法
  7
Font_0
 72
1
 11
106.871246986631
 21
16.8068704799476
 73
2
  0
LINE
  8
画層12
  6
CONTINUOUS
 62
7
 10
96.3712469866306
 20
29.3068704799476
 11
181.371246986631
 21
29.3068704799476
  0
LINE
  8
画層12
  6
CONTINUOUS
 62
7
 10
37.3712469866316
 20
24.3068704799476
 11
37.3712469866316
 21
34.3068704799476
  0
LINE
  8
画層12
  6
CONTINUOUS
 62
7
 10
11.3712469866316
 20
30.9735371466476
 11
96.3712469866306
 21
30.9735371466476
  0
LINE
  8
画層12
  6
CONTINUOUS
 62
7
 10
11.3712469866316
 20
27.6402038132476
 11
96.3712469866306
 21
27.6402038132476
  0
LINE
  8
画層12
  6
CONTINUOUS
 62
7
 10
11.3712469866316
 20
24.3068704799476
 11
96.3712469866306
 21
24.3068704799476
  0
LINE
  8
画層12
  6
CONTINUOUS
 62
7
 10
29.3712469866316
 20
14.3068704799476
 11
29.3712469866316
 21
34.3068704799476
  0
LINE
  8
画層12
  6
CONTINUOUS
 62
7
 10
16.7712469866316
 20
24.3068704799476
 11
16.7712469866316
 21
34.3068704799476
  0
TEXT
  8
画層12
 62
7
  6
CENTER
 62
7
 10
54.4246834870804
 20
24.8176991329966
 40
2.4
  1
訂  正  記  事
  7
Font_0
  0
TEXT
  8
画層12
 62
7
  6
CENTER
 62
7
 10
12.2707328634316
 20
25.1563191602016
 40
1.8
  1
符号
  7
Font_0
  0
LINE
  8
画層12
  6
CONTINUOUS
 62
7
 10
14.2487727909316
 20
33.8370671932476
 11
15.5821061242316
 21
31.5276661164476
  0
LINE
  8
画層12
  6
CONTINUOUS
 62
7
 10
15.5821061242316
 20
31.5276661164476
 11
12.9154394575315
 21
31.5276661164476
  0
LINE
  8
画層12
  6
CONTINUOUS
 62
7
 10
12.9154394575315
 20
31.5276661164476
 11
14.2487727909316
 21
33.8370671932476
  0
LINE
  8
画層12
  6
CONTINUOUS
 62
7
 10
12.9177830648213
 20
28.2155639900166
 11
14.2511163981213
 21
30.5249650667166
  0
LINE
  8
画層12
  6
CONTINUOUS
 62
7
 10
15.5844497315212
 20
28.2155639900166
 11
12.9177830648213
 21
28.2155639900166
  0
LINE
  8
画層12
  6
CONTINUOUS
 62
7
 10
14.2511163981213
 20
30.5249650667166
 11
15.5844497315212
 21
28.2155639900166
  0
TEXT
  8
画層12
 62
7
  6
CENTER
 62
7
 10
30.9836323390454
 20
24.8563190171506
 40
2.4
  1
担当
  7
Font_0
  0
TEXT
  8
画層12
 62
7
  6
CENTER
 62
7
 10
19.299297749114
 20
24.7894881497146
 40
2.4
  1
年月日
  7
Font_0
  0
TEXT
  8
画層12
 62
7
  6
CENTER
 62
7
 10
14.111491225979
 20
28.4534641912356
 40
1.35600025863647
 41
0.577433297908475
  1
1
  7
Font_0
  0
TEXT
  8
画層12
 62
7
  6
CENTER
 62
7
 10
13.9789411669191
 20
31.7797047213216
 40
1.35600025863647
 41
0.577433297908475
  1
2
  7
Font_0
  0
TEXT
  8
画層0
 62
7
  6
CENTER
 62
7
 10
103.139996986631
 20
22.2728704799476
 40
4.068
 41
1.22295968534907
  1
1/1
  7
Font_0
 72
1
 11
106.871246986631
 21
24.3068704799476
 73
2
  0
TEXT
  8
画層12
 62
7
  6
CENTER
 62
7
 10
197.571246986631
 20
35.2318704799476
 40
3.15
  1
材    質
  7
Font_0
 72
1
 11
203.871246986631
 21
36.8068704799476
 73
2
  0
TEXT
  8
画層12
 62
7
  6
CENTER
 62
7
 10
170.221246986631
 20
35.2318704799476
 40
3.15
  1
個数
  7
Font_0
 72
1
 11
173.371246986631
 21
36.8068704799476
 73
2
  0
TEXT
  8
画層12
 62
7
  6
CENTER
 62
7
 10
100.571246986631
 20
35.2318704799476
 40
3.15
  1
部品番号
  7
Font_0
 72
1
 11
106.871246986631
 21
36.8068704799476
 73
2
  0
TEXT
  8
画層12
 62
7
  6
CENTER
 62
7
 10
103.023746986631
 20
30.2318704799476
 40
3.15
 41
1.22142857142857
  1
尺度
  7
Font_0
 72
1
 11
106.871246986631
 21
31.8068704799476
 73
2
  0
LINE
  8
画層12
  6
CONTINUOUS
 62
7
 10
186.371246986631
 20
14.3068704799476
 11
186.371246986631
 21
34.3068704799476
  0
LINE
  8
画層12
  6
CONTINUOUS
 62
7
 10
96.3712469866306
 20
39.3068704799476
 11
286.371246986632
 21
39.3068704799476
  0
TEXT
  8
画層12
 62
7
  6
CENTER
 62
7
 10
227.021246986632
 20
15.9568704799476
 40
2.7
 41
1.26666666666667
  1
番
  7
Font_0
  0
TEXT
  8
画層12
 62
7
  6
CENTER
 62
7
 10
227.021246986632
 20
20.4568704799476
 40
2.7
 41
1.26666666666667
  1
図
  7
Font_0
  0
TEXT
  8
画層12
 62
7
  6
CENTER
 62
7
 10
182.039772523213
 20
29.6741031252476
 40
2.7
 41
1.26666666666667
  1
仕
  7
Font_0
  0
TEXT
  8
画層12
 62
7
  6
CENTER
 62
7
 10
182.039772523213
 20
26.1741031252476
 40
2.7
 41
1.27
  1
上
  7
Font_0
  0
TEXT
  8
画層12
 62
7
  6
CENTER
 62
7
 10
182.386715162295
 20
16.4022310650476
 40
2.7
 41
1.20333331823349
  1
取
  7
Font_0
  0
TEXT
  8
画層12
 62
7
  6
CENTER
 62
7
 10
182.386715162295
 20
19.9022310650476
 40
2.7
 41
1.20333331823349
  1
面
  7
Font_0
  0
TEXT
  8
画層12
 62
7
  6
CENTER
 62
7
 10
137.433746986631
 20
30.2318704799476
 40
3.15
  1
設 計
  7
Font_0
 72
1
 11
141.371246986631
 21
31.8068704799476
 73
2
  0
TEXT
  8
画層12
 62
7
  6
CENTER
 62
7
 10
227.101161248142
 20
24.9924223175476
 40
2.7
 41
1.26666666666667
  1
名
  7
Font_0
  0
TEXT
  8
画層12
 62
7
  6
CENTER
 62
7
 10
227.101161248142
 20
28.0924223175476
 40
2.7
 41
1.26666666666667
  1
品
  7
Font_0
  0
TEXT
  8
画層12
 62
7
  6
CENTER
 62
7
 10
227.101161248142
 20
31.1924223175476
 40
2.7
 41
1.26666666666667
  1
製
  7
Font_0
  0
LINE
  8
画層12
  6
CONTINUOUS
 62
7
 10
286.371246986632
 20
24.3068704799476
 11
181.371246986631
 21
24.3068704799476
  0
LINE
  8
画層12
  6
CONTINUOUS
 62
7
 10
231.371246986632
 20
14.3068704799476
 11
231.371246986632
 21
34.3068704799476
  0
LINE
  8
画層12
  6
CONTINUOUS
 62
7
 10
181.371246986631
 20
14.3068704799476
 11
181.371246986631
 21
46.8068704799476
  0
LINE
  8
画層12
  6
CONTINUOUS
 62
7
 10
286.371246986632
 20
34.3068704799476
 11
11.3712469866315
 21
34.3068704799476
  0
LINE
  8
画層12
  6
CONTINUOUS
 62
7
 10
226.371246986632
 20
46.8068704799476
 11
226.371246986632
 21
14.3068704799476
  0
LINE
  8
画層12
  6
CONTINUOUS
 62
7
 10
96.3712469866306
 20
46.8068704799476
 11
286.371246986632
 21
46.8068704799476
  0
LINE
  8
画層12
  6
CONTINUOUS
 62
7
 10
286.371246986632
 20
14.3068704799476
 11
11.3712469866316
 21
14.3068704799476
  0
LINE
  8
画層12
  6
CONTINUOUS
 62
7
 10
147.871246986632
 20
201.306870479948
 11
147.871246986632
 21
203.806870479948
  0
LINE
  8
画層12
  6
CONTINUOUS
 62
7
 10
286.371246986632
 20
201.306870479948
 11
286.371246986632
 21
14.3068704799476
  0
LINE
  8
画層12
  6
CONTINUOUS
 62
7
 10
11.3712469866316
 20
201.306870479948
 11
11.3712469866316
 21
14.3068704799476
  0
LINE
  8
画層12
  6
CONTINUOUS
 62
7
 10
286.371246986632
 20
201.306870479948
 11
11.3712469866316
 21
201.306870479948
  0
LINE
  8
画層0
  6
CENTER
 62
7
 10
93.2799146208111
 20
109.306870479948
 11
198.204928132782
 21
109.306870479948
  0
LINE
  8
画層0
  6
CENTER
 62
7
 10
142.129145079734
 20
135.339732569629
 11
142.129145079734
 21
96.6722633293706
  0
LINE
  8
画層0
  6
CONTINUOUS
 62
7
 10
39.8791450797339
 20
106.538043479948
 11
39.8791450797339
 21
112.075697479948
  0
LINE
  8
画層0
  6
CONTINUOUS
 62
7
 10
148.629145079734
 20
131.806870479948
 11
149.129145079734
 21
131.306870479948
  0
LINE
  8
画層0
  6
CONTINUOUS
 62
7
 10
150.129145079734
 20
119.006870479948
 11
149.829145079734
 21
119.306870479948
  0
LINE
  8
画層0
  6
CONTINUOUS
 62
7
 10
149.129145079734
 20
131.306870479948
 11
149.129145079734
 21
119.306870479948
  0
LINE
  8
画層0
  6
CONTINUOUS
 62
7
 10
135.629145079734
 20
131.806870479948
 11
148.629145079734
 21
131.806870479948
  0
LINE
  8
画層0
  6
CONTINUOUS
 62
7
 10
135.129145079734
 20
131.306870479948
 11
135.629145079734
 21
131.806870479948
  0
CIRCLE
  8
画層0
  6
CONTINUOUS
 62
7
 10
142.129145079734
 20
128.806870479948
 40
1.25
  0
CIRCLE
  8
画層0
  6
CONTINUOUS
 62
7
 10
142.129145079734
 20
128.806870479948
 40
1.5
  0
LINE
  8
画層0
  6
CENTER
 62
7
 10
145.129145079734
 20
128.806870479948
 11
139.129145079734
 21
128.806870479948
  0
LINE
  8
画層0
  6
CONTINUOUS
 62
7
 10
134.129145079734
 20
119.006870479948
 11
134.429145079734
 21
119.306870479948
  0
LINE
  8
画層0
  6
CONTINUOUS
 62
7
 10
135.129145079734
 20
131.306870479948
 11
135.129145079734
 21
119.306870479948
  0
LINE
  8
画層0
  6
CONTINUOUS
 62
7
 10
149.829145079734
 20
119.306870479948
 11
134.429145079734
 21
119.306870479948
  0
LINE
  8
画層0
  6
CONTINUOUS
 62
7
 10
150.129145079734
 20
100.606870479948
 11
149.829145079734
 21
100.306870479948
  0
LINE
  8
画層0
  6
CONTINUOUS
 62
7
 10
134.129145079734
 20
100.606870479948
 11
134.429145079734
 21
100.306870479948
  0
LINE
  8
画層0
  6
CONTINUOUS
 62
7
 10
99.8791450797336
 20
101.606870479948
 11
100.179145079734
 21
101.306870479948
  0
LINE
  8
画層0
  6
CONTINUOUS
 62
7
 10
134.129145079734
 20
101.369616546754
 11
150.129145079734
 21
101.369616546754
  0
LINE
  8
画層0
  6
CONTINUOUS
 62
7
 10
134.429145079734
 20
100.306870479948
 11
149.829145079734
 21
100.306870479948
  0
LINE
  8
画層0
  6
CONTINUOUS
 62
7
 10
134.129145079734
 20
101.306870479948
 11
100.179145079734
 21
101.306870479948
  0
LINE
  8
画層0
  6
CONTINUOUS
 62
7
 10
150.129145079734
 20
101.306870479948
 11
179.479145079734
 21
101.306870479948
  0
LINE
  8
画層0
  6
CONTINUOUS
 62
7
 10
150.129145079734
 20
100.606870479948
 11
150.129145079734
 21
119.006870479948
  0
LINE
  8
画層0
  6
BYLAYER
 62
7
 10
101.819145079734
 20
109.306870479948
 11
101.819145079734
 21
109.306870479948
  0
LINE
  8
画層0
  6
CONTINUOUS
 62
7
 10
134.129145079734
 20
100.606870479948
 11
134.129145079734
 21
119.006870479948
  0
LINE
  8
画層0
  6
CONTINUOUS
 62
7
 10
100.179145079734
 20
101.306870479948
 11
100.179145079734
 21
117.306870479948
  0
LINE
  8
画層0
  6
CONTINUOUS
 62
7
 10
99.8791450797336
 20
117.006870479948
 11
99.8791450797336
 21
101.606870479948
  0
LINE
  8
画層0
  6
CONTINUOUS
 62
7
 10
185.979145079734
 20
94.1068704799476
 11
185.979145079734
 21
124.506870479948
  0
LINE
  8
画層0
  6
CONTINUOUS
 62
7
 10
179.479145079734
 20
94.3068704799476
 11
179.479145079734
 21
124.306870479948
  0
LINE
  8
画層0
  6
CONTINUOUS
 62
7
 10
185.979145079734
 20
97.0568704799476
 11
189.829145079734
 21
97.0568704799476
  0
LINE
  8
画層0
  6
CONTINUOUS
 62
7
 10
189.379145079734
 20
96.6068704799476
 11
186.979145079734
 21
96.6068704799476
  0
LINE
  8
画層0
  6
CONTINUOUS
 62
7
 10
189.979145079734
 20
97.2068704799476
 11
189.979145079734
 21
121.406870479948
  0
LINE
  8
画層0
  6
CONTINUOUS
 62
7
 10
189.379145079734
 20
96.6068704799476
 11
189.979145079734
 21
97.2068704799476
  0
LINE
  8
画層0
  6
CONTINUOUS
 62
7
 10
189.379145079734
 20
96.6068704799476
 11
189.379145079734
 21
122.006870479948
  0
LINE
  8
画層0
  6
CONTINUOUS
 62
7
 10
185.679145079734
 20
93.8068704799476
 11
179.979145079734
 21
93.8068704799476
  0
LINE
  8
画層0
  6
CONTINUOUS
 62
7
 10
185.979145079734
 20
94.1068704799476
 11
185.679145079734
 21
93.8068704799476
  0
LINE
  8
画層0
  6
CONTINUOUS
 62
7
 10
179.979145079734
 20
93.8068704799476
 11
179.479145079734
 21
94.3068704799476
  0
LINE
  8
画層0
  6
CONTINUOUS
 62
7
 10
179.979145079734
 20
93.8068704799476
 11
179.979145079734
 21
124.806870479948
  0
LINE
  8
画層0
  6
CONTINUOUS
 62
7
 10
185.679145079734
 20
93.8068704799476
 11
185.679145079734
 21
124.806870479948
  0
LINE
  8
画層0
  6
CONTINUOUS
 62
7
 10
186.979145079734
 20
96.6068704799476
 11
186.979145079734
 21
122.006870479948
  0
LINE
  8
画層0
  6
CONTINUOUS
 62
7
 10
135.129145079734
 20
131.306870479948
 11
149.129145079734
 21
131.306870479948
  0
LINE
  8
画層0
  6
CONTINUOUS
 62
7
 10
179.979145079734
 20
124.806870479948
 11
179.479145079734
 21
124.306870479948
  0
LINE
  8
画層0
  6
CONTINUOUS
 62
7
 10
185.979145079734
 20
124.506870479948
 11
185.679145079734
 21
124.806870479948
  0
LINE
  8
画層0
  6
CONTINUOUS
 62
7
 10
185.679145079734
 20
124.806870479948
 11
179.979145079734
 21
124.806870479948
  0
LINE
  8
画層0
  6
CONTINUOUS
 62
7
 10
189.379145079734
 20
122.006870479948
 11
189.979145079734
 21
121.406870479948
  0
LINE
  8
画層0
  6
CONTINUOUS
 62
7
 10
189.379145079734
 20
122.006870479948
 11
186.979145079734
 21
122.006870479948
  0
LINE
  8
画層0
  6
CONTINUOUS
 62
7
 10
185.979145079734
 20
121.556870479948
 11
189.829145079734
 21
121.556870479948
  0
LINE
  8
画層0
  6
BYLAYER
 62
7
 10
101.819145079734
 20
109.306870479948
 11
101.819145079734
 21
109.306870479948
  0
LINE
  8
画層0
  6
CONTINUOUS
 62
7
 10
100.179145079734
 20
117.306870479948
 11
179.479145079734
 21
117.306870479948
  0
LINE
  8
画層0
  6
CONTINUOUS
 62
7
 10
99.8791450797336
 20
117.006870479948
 11
100.179145079734
 21
117.306870479948
  0
CIRCLE
  8
画層0
  6
CONTINUOUS
 62
7
 10
182.779145079734
 20
109.306870479948
 40
1.25
  0
CIRCLE
  8
画層0
  6
CONTINUOUS
 62
7
 10
182.779145079734
 20
109.306870479948
 40
1.50000000000011
  0
LINE
  8
画層0
  6
CENTER
 62
7
 10
182.779145079734
 20
112.306870479948
 11
182.779145079734
 21
106.306870479948
  0
LINE
  8
画層1
  6
CONTINUOUS
 62
7
 10
39.8791450797339
 20
75.9708685573076
 11
39.8791450797339
 21
105.538043479948
  0
LINE
  8
画層1
  6
CONTINUOUS
 62
7
 10
99.8791450797336
 20
75.9708685573076
 11
99.8791450797336
 21
100.606870479948
  0
LINE
  8
画層1
  6
CONTINUOUS
 62
7
 10
42.8791450797339
 20
76.9708685573076
 11
96.879145079734
 21
76.9708685573076
  0
TEXT
  8
画層1
 62
7
  6
BYLAYER
 62
7
 10
61.079145079734
 20
77.5041685573076
 40
3.2
  1
W.D.=110%%p2
  7
Font_0
 72
1
 11
69.879145079734
 21
79.1041685573076
 73
2
  0
LINE
  8
画層0
  6
CONTINUOUS
 62
7
 10
42.8791450797339
 20
76.1670215573076
 11
39.8791450797339
 21
76.9708685573076
  0
LINE
  8
画層0
  6
CONTINUOUS
 62
7
 10
39.8791450797339
 20
76.9708685573076
 11
42.8791450797339
 21
77.7747155573076
  0
LINE
  8
画層0
  6
CONTINUOUS
 62
7
 10
39.8791450797339
 20
76.9708685573076
 11
42.8791450797339
 21
76.9708685573076
  0
LINE
  8
画層0
  6
CONTINUOUS
 62
7
 10
96.879145079734
 20
77.7747155573076
 11
99.8791450797336
 21
76.9708685573076
  0
LINE
  8
画層0
  6
CONTINUOUS
 62
7
 10
99.8791450797336
 20
76.9708685573076
 11
96.879145079734
 21
76.1670215573076
  0
LINE
  8
画層0
  6
CONTINUOUS
 62
7
 10
99.8791450797336
 20
76.9708685573076
 11
96.879145079734
 21
76.9708685573076
  0
LINE
  8
画層1
  6
CONTINUOUS
 62
7
 10
185.979145079734
 20
75.9708685573076
 11
185.979145079734
 21
93.1068704799476
  0
LINE
  8
画層1
  6
CONTINUOUS
 62
7
 10
102.879145079734
 20
76.9708685573076
 11
182.979145079734
 21
76.9708685573076
  0
TEXT
  8
画層1
 62
7
  6
BYLAYER
 62
7
 10
139.729145079734
 20
77.5041685573076
 40
3.2
  1
86.1
  7
Font_0
 72
1
 11
142.929145079734
 21
79.1041685573076
 73
2
  0
LINE
  8
画層0
  6
CONTINUOUS
 62
7
 10
102.879145079734
 20
76.1670215573076
 11
99.8791450797336
 21
76.9708685573076
  0
LINE
  8
画層0
  6
CONTINUOUS
 62
7
 10
99.8791450797336
 20
76.9708685573076
 11
102.879145079734
 21
77.7747155573076
  0
LINE
  8
画層0
  6
CONTINUOUS
 62
7
 10
99.8791450797336
 20
76.9708685573076
 11
102.879145079734
 21
76.9708685573076
  0
LINE
  8
画層0
  6
CONTINUOUS
 62
7
 10
182.979145079734
 20
77.7747155573076
 11
185.979145079734
 21
76.9708685573076
  0
LINE
  8
画層0
  6
CONTINUOUS
 62
7
 10
185.979145079734
 20
76.9708685573076
 11
182.979145079734
 21
76.1670215573076
  0
LINE
  8
画層0
  6
CONTINUOUS
 62
7
 10
185.979145079734
 20
76.9708685573076
 11
182.979145079734
 21
76.9708685573076
  0
LINE
  8
画層1
  6
CONTINUOUS
 62
7
 10
189.979145079734
 20
75.9708685573076
 11
189.979145079734
 21
96.2068704799476
  0
LINE
  8
画層1
  6
CONTINUOUS
 62
7
 10
185.979145079734
 20
76.9708685573076
 11
189.979145079734
 21
76.9708685573076
  0
LINE
  8
画層1
  6
CONTINUOUS
 62
7
 10
183.979145079734
 20
76.9708685573076
 11
181.979145079734
 21
76.9708685573076
  0
LINE
  8
画層1
  6
CONTINUOUS
 62
7
 10
192.979145079734
 20
76.9708685573076
 11
196.645778413068
 21
76.9708685573076
  0
TEXT
  8
画層1
 62
7
  6
BYLAYER
 62
7
 10
194.779111746401
 20
77.5041685573076
 40
3.2
  1
4
  7
Font_0
 72
1
 11
195.579111746401
 21
79.1041685573076
 73
2
  0
LINE
  8
画層0
  6
CONTINUOUS
 62
7
 10
185.979145079734
 20
76.9708685573076
 11
183.979145079734
 21
76.9708685573076
  0
LINE
  8
画層0
  6
CONTINUOUS
 62
7
 10
192.979145079734
 20
76.1670215573076
 11
189.979145079734
 21
76.9708685573076
  0
LINE
  8
画層0
  6
CONTINUOUS
 62
7
 10
189.979145079734
 20
76.9708685573076
 11
192.979145079734
 21
77.7747155573076
  0
LINE
  8
画層0
  6
CONTINUOUS
 62
7
 10
189.979145079734
 20
76.9708685573076
 11
192.979145079734
 21
76.9708685573076
  0
LINE
  8
画層1
  6
CONTINUOUS
 62
7
 10
99.8791450797336
 20
81.6671796277516
 11
99.8791450797336
 21
100.606870479948
  0
LINE
  8
画層1
  6
CONTINUOUS
 62
7
 10
142.129145079734
 20
81.6671796277516
 11
142.129145079734
 21
95.6722633293706
  0
LINE
  8
画層1
  6
CONTINUOUS
 62
7
 10
102.879145079734
 20
82.6671796277516
 11
139.129145079734
 21
82.6671796277516
  0
TEXT
  8
画層1
 62
7
  6
BYLAYER
 62
7
 10
117.004145079734
 20
83.2004796277516
 40
3.2
  1
42.25
  7
Font_0
 72
1
 11
121.004145079734
 21
84.8004796277516
 73
2
  0
LINE
  8
画層0
  6
CONTINUOUS
 62
7
 10
102.879145079734
 20
81.8633326277516
 11
99.8791450797336
 21
82.6671796277516
  0
LINE
  8
画層0
  6
CONTINUOUS
 62
7
 10
99.8791450797336
 20
82.6671796277516
 11
102.879145079734
 21
83.4710266277516
  0
LINE
  8
画層0
  6
CONTINUOUS
 62
7
 10
99.8791450797336
 20
82.6671796277516
 11
102.879145079734
 21
82.6671796277516
  0
LINE
  8
画層0
  6
CONTINUOUS
 62
7
 10
139.129145079734
 20
83.4710266277516
 11
142.129145079734
 21
82.6671796277516
  0
LINE
  8
画層0
  6
CONTINUOUS
 62
7
 10
142.129145079734
 20
82.6671796277516
 11
139.129145079734
 21
81.8633326277516
  0
LINE
  8
画層0
  6
CONTINUOUS
 62
7
 10
142.129145079734
 20
82.6671796277516
 11
139.129145079734
 21
82.6671796277516
  0
LINE
  8
画層1
  6
CONTINUOUS
 62
7
 10
99.1791450797341
 20
101.306870479948
 11
91.0806354832344
 21
101.306870479948
  0
LINE
  8
画層1
  6
CONTINUOUS
 62
7
 10
99.179145079734
 20
117.306870479948
 11
91.0806354832345
 21
117.306870479948
  0
LINE
  8
画層1
  6
CONTINUOUS
 62
7
 10
92.0806354832344
 20
104.306870479948
 11
92.0806354832345
 21
114.306870479948
  0
TEXT
  8
画層1
 62
7
  6
BYLAYER
 62
7
 10
91.5473354832345
 20
106.106870479948
 40
3.2
  1
%%c16
  7
Font_0
 50
90
 72
1
 11
89.9473354832345
 21
109.306870479948
 73
2
  0
LINE
  8
画層0
  6
CONTINUOUS
 62
7
 10
92.8844824832344
 20
104.306870479948
 11
92.0806354832344
 21
101.306870479948
  0
LINE
  8
画層0
  6
CONTINUOUS
 62
7
 10
92.0806354832344
 20
101.306870479948
 11
91.2767884832344
 21
104.306870479948
  0
LINE
  8
画層0
  6
CONTINUOUS
 62
7
 10
92.0806354832344
 20
101.306870479948
 11
92.0806354832344
 21
104.306870479948
  0
LINE
  8
画層0
  6
CONTINUOUS
 62
7
 10
91.2767884832345
 20
114.306870479948
 11
92.0806354832345
 21
117.306870479948
  0
LINE
  8
画層0
  6
CONTINUOUS
 62
7
 10
92.0806354832345
 20
117.306870479948
 11
92.8844824832345
 21
114.306870479948
  0
LINE
  8
画層0
  6
CONTINUOUS
 62
7
 10
92.0806354832345
 20
117.306870479948
 11
92.0806354832345
 21
114.306870479948
  0
TEXT
  8
画層0
 62
7
  6
CONTINUOUS
 62
7
 10
64.7712469866316
 20
145.706870479948
 40
3.2
  1
－０．０３％
  7
Font_0
 72
1
 11
74.3712469866316
 21
147.306870479948
 73
2
  0
TEXT
  8
画層0
 62
7
  6
CONTINUOUS
 62
7
 10
67.9712469866316
 20
132.906870479948
 40
3.2
  1
２／３″
  7
Font_0
 72
1
 11
74.3712469866316
 21
134.506870479948
 73
2
  0
TEXT
  8
画層0
 62
7
  6
CONTINUOUS
 62
7
 10
71.1712469866316
 20
139.306870479948
 40
3.2
  1
５２
  7
Font_0
 72
1
 11
74.3712469866316
 21
140.906870479948
 73
2
  0
TEXT
  8
画層0
 62
7
  6
CONTINUOUS
 62
7
 10
67.9712469866316
 20
152.106870479948
 40
3.2
  1
０．０４
  7
Font_0
 72
1
 11
74.3712469866316
 21
153.706870479948
 73
2
  0
TEXT
  8
画層0
 62
7
  6
CONTINUOUS
 62
7
 10
67.9712469866316
 20
158.506870479948
 40
3.2
  1
２４．６
  7
Font_0
 72
1
 11
74.3712469866316
 21
160.106870479948
 73
2
  0
TEXT
  8
画層0
 62
7
  6
CONTINUOUS
 62
7
 10
67.9712469866316
 20
164.906870479948
 40
3.2
  1
８．４μ
  7
Font_0
 72
1
 11
74.3712469866316
 21
166.506870479948
 73
2
  0
TEXT
  8
画層0
 62
7
  6
CONTINUOUS
 62
7
 10
67.9712469866316
 20
171.306870479948
 40
3.2
  1
４９０μ
  7
Font_0
 72
1
 11
74.3712469866316
 21
172.906870479948
 73
2
  0
TEXT
  8
画層0
 62
7
  6
CONTINUOUS
 62
7
 10
66.3712469866316
 20
177.706870479948
 40
3.2
  1
１１０ｍｍ
  7
Font_0
 72
1
 11
74.3712469866316
 21
179.306870479948
 73
2
  0
TEXT
  8
画層0
 62
7
  6
CONTINUOUS
 62
7
 10
63.1712469866316
 20
184.106870479948
 40
3.2
  1
２１３．６ｍｍ
  7
Font_0
 72
1
 11
74.3712469866316
 21
185.706870479948
 73
2
  0
TEXT
  8
画層0
 62
7
  6
CONTINUOUS
 62
7
 10
69.5712469866316
 20
190.506870479948
 40
3.2
  1
２．０
  7
Font_0
 72
1
 11
74.3712469866316
 21
192.106870479948
 73
2
  0
LINE
  8
画層0
  6
CONTINUOUS
 62
7
 10
89.3712469866316
 20
131.306870479948
 11
17.3712469866316
 21
131.306870479948
  0
LINE
  8
画層0
  6
CONTINUOUS
 62
7
 10
89.3712469866316
 20
137.706870479948
 11
17.3712469866316
 21
137.706870479948
  0
LINE
  8
画層0
  6
CONTINUOUS
 62
7
 10
89.3712469866316
 20
144.106870479948
 11
17.3712469866316
 21
144.106870479948
  0
LINE
  8
画層0
  6
CONTINUOUS
 62
7
 10
17.3712469866316
 20
150.506870479948
 11
89.3712469866316
 21
150.506870479948
  0
LINE
  8
画層0
  6
CONTINUOUS
 62
7
 10
89.3712469866316
 20
156.906870479948
 11
17.3712469866316
 21
156.906870479948
  0
LINE
  8
画層0
  6
CONTINUOUS
 62
7
 10
17.3712469866316
 20
163.306870479948
 11
89.3712469866316
 21
163.306870479948
  0
LINE
  8
画層0
  6
CONTINUOUS
 62
7
 10
89.3712469866316
 20
169.706870479948
 11
17.3712469866316
 21
169.706870479948
  0
LINE
  8
画層0
  6
CONTINUOUS
 62
7
 10
17.3712469866316
 20
176.106870479948
 11
89.3712469866316
 21
176.106870479948
  0
LINE
  8
画層0
  6
CONTINUOUS
 62
7
 10
89.3712469866316
 20
182.506870479948
 11
17.3712469866316
 21
182.506870479948
  0
LINE
  8
画層0
  6
CONTINUOUS
 62
7
 10
17.3712469866316
 20
188.906870479948
 11
89.3712469866316
 21
188.906870479948
  0
LINE
  8
画層0
  6
CONTINUOUS
 62
7
 10
17.3712469866316
 20
195.306870479948
 11
17.3712469866316
 21
131.306870479948
  0
LINE
  8
画層0
  6
CONTINUOUS
 62
7
 10
89.3712469866316
 20
195.306870479948
 11
17.3712469866316
 21
195.306870479948
  0
LINE
  8
画層0
  6
CONTINUOUS
 62
7
 10
89.3712469866316
 20
131.306870479948
 11
89.3712469866316
 21
195.306870479948
  0
TEXT
  8
画層0
 62
7
  6
BYLAYER
 62
7
 10
19.3712469866316
 20
132.906870479948
 40
3.2
  1
対応素子サイズ
  7
Font_0
 11
19.3712469866316
 21
134.506870479948
 73
2
  0
TEXT
  8
画層0
 62
7
  6
BYLAYER
 62
7
 10
19.3712469866316
 20
139.306870479948
 40
3.2
  1
重量
  7
Font_0
 11
19.3712469866316
 21
140.906870479948
 73
2
  0
TEXT
  8
画層0
 62
7
  6
BYLAYER
 62
7
 10
19.3712469866316
 20
145.706870479948
 40
3.2
  1
ＴＶディストーション
  7
Font_0
 11
19.3712469866316
 21
147.306870479948
 73
2
  0
TEXT
  8
画層0
 62
7
  6
BYLAYER
 62
7
 10
19.3712469866316
 20
152.106870479948
 40
3.2
  1
Ｎ．Ａ．
  7
Font_0
 11
19.3712469866316
 21
153.706870479948
 73
2
  0
TEXT
  8
画層0
 62
7
  6
BYLAYER
 62
7
 10
19.3712469866316
 20
158.506870479948
 40
3.2
  1
有効Ｆナンバー
  7
Font_0
 11
19.3712469866316
 21
160.106870479948
 73
2
  0
TEXT
  8
画層0
 62
7
  6
BYLAYER
 62
7
 10
19.3712469866316
 20
164.906870479948
 40
3.2
  1
分解能
  7
Font_0
 11
19.3712469866316
 21
166.506870479948
 73
2
  0
TEXT
  8
画層0
 62
7
  6
BYLAYER
 62
7
 10
19.3712469866316
 20
171.306870479948
 40
3.2
  1
被写界深度
  7
Font_0
 11
19.3712469866316
 21
172.906870479948
 73
2
  0
TEXT
  8
画層0
 62
7
  6
BYLAYER
 62
7
 10
19.3712469866316
 20
177.706870479948
 40
3.2
  1
Ｗ．Ｄ．
  7
Font_0
 11
19.3712469866316
 21
179.306870479948
 73
2
  0
TEXT
  8
画層0
 62
7
  6
BYLAYER
 62
7
 10
19.3712469866316
 20
184.106870479948
 40
3.2
  1
Ｏ／Ｉ
  7
Font_0
 11
19.3712469866316
 21
185.706870479948
 73
2
  0
TEXT
  8
画層0
 62
7
  6
BYLAYER
 62
7
 10
19.3712469866316
 20
190.506870479948
 40
3.2
  1
倍率
  7
Font_0
 11
19.3712469866316
 21
192.106870479948
 73
2
  0
LINE
  8
画層0
  6
CONTINUOUS
 62
7
 10
59.3712469866316
 20
195.306870479948
 11
59.3712469866316
 21
131.306870479948
  0
LINE
  8
画層1
  6
CONTINUOUS
 62
7
 10
210.295774420954
 20
93.8068704799476
 11
186.679145079734
 21
93.8068704799476
  0
LINE
  8
画層1
  6
CONTINUOUS
 62
7
 10
210.295774420954
 20
124.806870479948
 11
186.679145079734
 21
124.806870479948
  0
LINE
  8
画層1
  6
CONTINUOUS
 62
7
 10
209.295774420954
 20
96.8068704799476
 11
209.295774420954
 21
121.806870479948
  0
TEXT
  8
画層1
 62
7
  6
BYLAYER
 62
7
 10
208.762474420954
 20
106.106870479948
 40
3.2
  1
%%c31
  7
Font_0
 50
90
 72
1
 11
207.162474420954
 21
109.306870479948
 73
2
  0
LINE
  8
画層0
  6
CONTINUOUS
 62
7
 10
210.099621420954
 20
96.8068704799476
 11
209.295774420954
 21
93.8068704799476
  0
LINE
  8
画層0
  6
CONTINUOUS
 62
7
 10
209.295774420954
 20
93.8068704799476
 11
208.491927420954
 21
96.8068704799476
  0
LINE
  8
画層0
  6
CONTINUOUS
 62
7
 10
209.295774420954
 20
93.8068704799476
 11
209.295774420954
 21
96.8068704799476
  0
LINE
  8
画層0
  6
CONTINUOUS
 62
7
 10
208.491927420954
 20
121.806870479948
 11
209.295774420954
 21
124.806870479948
  0
LINE
  8
画層0
  6
CONTINUOUS
 62
7
 10
209.295774420954
 20
124.806870479948
 11
210.099621420954
 21
121.806870479948
  0
LINE
  8
画層0
  6
CONTINUOUS
 62
7
 10
209.295774420954
 20
124.806870479948
 11
209.295774420954
 21
121.806870479948
  0
LINE
  8
画層1
  6
CONTINUOUS
 62
7
 10
204.310941307216
 20
96.6068704799476
 11
190.379145079734
 21
96.6068704799476
  0
LINE
  8
画層1
  6
CONTINUOUS
 62
7
 10
204.310941307216
 20
122.006870479948
 11
190.379145079734
 21
122.006870479948
  0
LINE
  8
画層1
  6
CONTINUOUS
 62
7
 10
203.310941307216
 20
99.6068704799476
 11
203.310941307216
 21
119.006870479948
  0
TEXT
  8
画層1
 62
7
  6
BYLAYER
 62
7
 10
202.777641307217
 20
101.306870479948
 40
3.2
  1
Ｃマウント
  7
Font_0
 50
90
 72
1
 11
201.177641307217
 21
109.306870479948
 73
2
  0
LINE
  8
画層0
  6
CONTINUOUS
 62
7
 10
204.114788307217
 20
99.6068704799476
 11
203.310941307216
 21
96.6068704799476
  0
LINE
  8
画層0
  6
CONTINUOUS
 62
7
 10
203.310941307216
 20
96.6068704799476
 11
202.507094307217
 21
99.6068704799476
  0
LINE
  8
画層0
  6
CONTINUOUS
 62
7
 10
203.310941307216
 20
96.6068704799476
 11
203.310941307216
 21
99.6068704799476
  0
LINE
  8
画層0
  6
CONTINUOUS
 62
7
 10
202.507094307216
 20
119.006870479948
 11
203.310941307216
 21
122.006870479948
  0
LINE
  8
画層0
  6
CONTINUOUS
 62
7
 10
203.310941307216
 20
122.006870479948
 11
204.114788307216
 21
119.006870479948
  0
LINE
  8
画層0
  6
CONTINUOUS
 62
7
 10
203.310941307216
 20
122.006870479948
 11
203.310941307216
 21
119.006870479948
  0
LINE
  8
画層7
  6
BYLAYER
 62
7
 10
148.804145079734
 20
160.040556335017
 11
149.629145079734
 21
160.040556335017
  0
LINE
  8
画層7
  6
BYLAYER
 62
7
 10
149.629145079734
 20
160.040556335017
 11
149.629145079734
 21
160.590556335017
  0
LINE
  8
画層7
  6
BYLAYER
 62
7
 10
149.629145079734
 20
160.590556335017
 11
148.804145079734
 21
160.590556335017
  0
LINE
  8
画層7
  6
BYLAYER
 62
7
 10
148.804145079734
 20
160.590556335017
 11
148.804145079734
 21
161.415556335017
  0
LINE
  8
画層7
  6
BYLAYER
 62
7
 10
148.804145079734
 20
161.415556335017
 11
148.254145079734
 21
161.415556335017
  0
LINE
  8
画層7
  6
BYLAYER
 62
7
 10
148.254145079734
 20
161.415556335017
 11
148.254145079734
 21
160.590556335017
  0
LINE
  8
画層7
  6
BYLAYER
 62
7
 10
147.429145079734
 20
160.040556335017
 11
148.254145079734
 21
160.040556335017
  0
LINE
  8
画層7
  6
BYLAYER
 62
7
 10
148.254145079734
 20
160.590556335017
 11
147.429145079734
 21
160.590556335017
  0
LINE
  8
画層7
  6
BYLAYER
 62
7
 10
147.429145079734
 20
160.590556335017
 11
147.429145079734
 21
160.040556335017
  0
LINE
  8
画層7
  6
BYLAYER
 62
7
 10
148.254145079734
 20
159.215556335017
 11
148.804145079734
 21
159.215556335017
  0
LINE
  8
画層7
  6
BYLAYER
 62
7
 10
148.804145079734
 20
159.215556335017
 11
148.804145079734
 21
160.040556335017
  0
LINE
  8
画層7
  6
BYLAYER
 62
7
 10
148.254145079734
 20
160.040556335017
 11
148.254145079734
 21
159.215556335017
  0
CIRCLE
  8
画層0
  6
CONTINUOUS
 62
7
 10
148.529145079734
 20
160.315556335017
 40
1.60000000000002
  0
LINE
  8
画層7
  6
BYLAYER
 62
7
 10
136.004145079734
 20
160.040556335017
 11
136.829145079734
 21
160.040556335017
  0
LINE
  8
画層7
  6
BYLAYER
 62
7
 10
136.829145079734
 20
160.040556335017
 11
136.829145079734
 21
160.590556335017
  0
LINE
  8
画層7
  6
BYLAYER
 62
7
 10
136.829145079734
 20
160.590556335017
 11
136.004145079734
 21
160.590556335017
  0
LINE
  8
画層7
  6
BYLAYER
 62
7
 10
136.004145079734
 20
160.590556335017
 11
136.004145079734
 21
161.415556335017
  0
LINE
  8
画層7
  6
BYLAYER
 62
7
 10
136.004145079734
 20
161.415556335017
 11
135.454145079734
 21
161.415556335017
  0
LINE
  8
画層7
  6
BYLAYER
 62
7
 10
135.454145079734
 20
161.415556335017
 11
135.454145079734
 21
160.590556335017
  0
LINE
  8
画層7
  6
BYLAYER
 62
7
 10
134.629145079734
 20
160.040556335017
 11
135.454145079734
 21
160.040556335017
  0
LINE
  8
画層7
  6
BYLAYER
 62
7
 10
135.454145079734
 20
160.590556335017
 11
134.629145079734
 21
160.590556335017
  0
LINE
  8
画層7
  6
BYLAYER
 62
7
 10
134.629145079734
 20
160.590556335017
 11
134.629145079734
 21
160.040556335017
  0
LINE
  8
画層7
  6
BYLAYER
 62
7
 10
135.454145079734
 20
159.215556335017
 11
136.004145079734
 21
159.215556335017
  0
LINE
  8
画層7
  6
BYLAYER
 62
7
 10
136.004145079734
 20
159.215556335017
 11
136.004145079734
 21
160.040556335017
  0
LINE
  8
画層7
  6
BYLAYER
 62
7
 10
135.454145079734
 20
160.040556335017
 11
135.454145079734
 21
159.215556335017
  0
CIRCLE
  8
画層0
  6
CONTINUOUS
 62
7
 10
135.729145079734
 20
160.315556335017
 40
1.60000000000002
  0
LINE
  8
画層7
  6
BYLAYER
 62
7
 10
148.804145079734
 20
174.240556335017
 11
149.629145079734
 21
174.240556335017
  0
LINE
  8
画層7
  6
BYLAYER
 62
7
 10
149.629145079734
 20
174.240556335017
 11
149.629145079734
 21
174.790556335017
  0
LINE
  8
画層7
  6
BYLAYER
 62
7
 10
149.629145079734
 20
174.790556335017
 11
148.804145079734
 21
174.790556335017
  0
LINE
  8
画層7
  6
BYLAYER
 62
7
 10
148.804145079734
 20
174.790556335017
 11
148.804145079734
 21
175.615556335017
  0
LINE
  8
画層7
  6
BYLAYER
 62
7
 10
148.804145079734
 20
175.615556335017
 11
148.254145079734
 21
175.615556335017
  0
LINE
  8
画層7
  6
BYLAYER
 62
7
 10
148.254145079734
 20
175.615556335017
 11
148.254145079734
 21
174.790556335017
  0
LINE
  8
画層7
  6
BYLAYER
 62
7
 10
147.429145079734
 20
174.240556335017
 11
148.254145079734
 21
174.240556335017
  0
LINE
  8
画層7
  6
BYLAYER
 62
7
 10
148.254145079734
 20
174.790556335017
 11
147.429145079734
 21
174.790556335017
  0
LINE
  8
画層7
  6
BYLAYER
 62
7
 10
147.429145079734
 20
174.790556335017
 11
147.429145079734
 21
174.240556335017
  0
LINE
  8
画層7
  6
BYLAYER
 62
7
 10
148.254145079734
 20
173.415556335017
 11
148.804145079734
 21
173.415556335017
  0
LINE
  8
画層7
  6
BYLAYER
 62
7
 10
148.804145079734
 20
173.415556335017
 11
148.804145079734
 21
174.240556335017
  0
LINE
  8
画層7
  6
BYLAYER
 62
7
 10
148.254145079734
 20
174.240556335017
 11
148.254145079734
 21
173.415556335017
  0
CIRCLE
  8
画層0
  6
CONTINUOUS
 62
7
 10
148.529145079734
 20
174.515556335017
 40
1.60000000000002
  0
CIRCLE
  8
画層0
  6
CONTINUOUS
 62
7
 10
135.729145079734
 20
174.515556335017
 40
1.60000000000002
  0
LINE
  8
画層5
  6
BYLAYER
 62
7
 10
135.729145079734
 20
156.065556335017
 11
135.729145079734
 21
164.565556335017
  0
LINE
  8
画層5
  6
BYLAYER
 62
7
 10
131.479145079734
 20
160.315556335017
 11
139.979145079734
 21
160.315556335017
  0
LINE
  8
画層7
  6
BYLAYER
 62
7
 10
135.454145079734
 20
174.240556335017
 11
135.454145079734
 21
173.415556335017
  0
LINE
  8
画層7
  6
BYLAYER
 62
7
 10
136.004145079734
 20
173.415556335017
 11
136.004145079734
 21
174.240556335017
  0
LINE
  8
画層7
  6
BYLAYER
 62
7
 10
135.454145079734
 20
173.415556335017
 11
136.004145079734
 21
173.415556335017
  0
LINE
  8
画層7
  6
BYLAYER
 62
7
 10
134.629145079734
 20
174.790556335017
 11
134.629145079734
 21
174.240556335017
  0
LINE
  8
画層7
  6
BYLAYER
 62
7
 10
135.454145079734
 20
174.790556335017
 11
134.629145079734
 21
174.790556335017
  0
LINE
  8
画層7
  6
BYLAYER
 62
7
 10
134.629145079734
 20
174.240556335017
 11
135.454145079734
 21
174.240556335017
  0
LINE
  8
画層7
  6
BYLAYER
 62
7
 10
135.454145079734
 20
175.615556335017
 11
135.454145079734
 21
174.790556335017
  0
LINE
  8
画層7
  6
BYLAYER
 62
7
 10
136.004145079734
 20
175.615556335017
 11
135.454145079734
 21
175.615556335017
  0
LINE
  8
画層7
  6
BYLAYER
 62
7
 10
136.004145079734
 20
174.790556335017
 11
136.004145079734
 21
175.615556335017
  0
LINE
  8
画層7
  6
BYLAYER
 62
7
 10
136.829145079734
 20
174.790556335017
 11
136.004145079734
 21
174.790556335017
  0
LINE
  8
画層7
  6
BYLAYER
 62
7
 10
136.829145079734
 20
174.240556335017
 11
136.829145079734
 21
174.790556335017
  0
LINE
  8
画層7
  6
BYLAYER
 62
7
 10
136.004145079734
 20
174.240556335017
 11
136.829145079734
 21
174.240556335017
  0
CIRCLE
  8
画層0
  6
CONTINUOUS
 62
7
 10
142.129145079734
 20
167.415556335017
 40
2
  0
CIRCLE
  8
画層0
  6
CONTINUOUS
 62
7
 10
142.129145079734
 20
167.415556335017
 40
4
  0
LINE
  8
画層0
  6
CONTINUOUS
 62
7
 10
134.129145079734
 20
157.415556335017
 11
150.129145079734
 21
157.415556335017
  0
LINE
  8
画層0
  6
CONTINUOUS
 62
7
 10
134.129145079734
 20
177.415556335017
 11
150.129145079734
 21
177.415556335017
  0
LINE
  8
画層0
  6
CONTINUOUS
 62
7
 10
134.129145079734
 20
177.415556335017
 11
134.129145079734
 21
157.415556335017
  0
LINE
  8
画層0
  6
CONTINUOUS
 62
7
 10
150.129145079734
 20
176.359828245017
 11
134.129145079734
 21
176.359828245017
  0
LINE
  8
画層0
  6
CONTINUOUS
 62
7
 10
150.129145079734
 20
157.415556335017
 11
150.129145079734
 21
177.415556335017
  0
LINE
  8
画層0
  6
CONTINUOUS
 62
7
 10
134.129145079734
 20
158.471284425018
 11
150.129145079734
 21
158.471284425018
  0
LINE
  8
画層0
  6
CENTER
 62
7
 10
142.129145079734
 20
178.915556335017
 11
142.129145079734
 21
155.915556335017
  0
LINE
  8
画層0
  6
CENTER
 62
7
 10
121.498097814892
 20
167.415556335017
 11
162.833941234091
 21
167.415556335017
  0
CIRCLE
  8
画層0
  6
CONTINUOUS
 62
7
 10
142.129145079734
 20
167.415556335017
 40
7.00000000000006
  0
LINE
  8
画層0
  6
CENTER
 62
7
 10
135.729145079734
 20
177.065556335017
 11
135.729145079734
 21
157.765556335017
  0
LINE
  8
画層0
  6
CENTER
 62
7
 10
151.079145079734
 20
174.515556335017
 11
133.179145079734
 21
174.515556335017
  0
LINE
  8
画層0
  6
CENTER
 62
7
 10
148.529145079734
 20
157.765556335017
 11
148.529145079734
 21
177.065556335017
  0
LINE
  8
画層0
  6
CENTER
 62
7
 10
133.179145079734
 20
160.315556335017
 11
151.079145079734
 21
160.315556335017
  0
LINE
  8
画層0
  6
CONTINUOUS
 62
7
 10
134.129145079734
 20
175.415556335017
 11
126.429145079734
 21
175.415556335017
  0
LINE
  8
画層0
  6
CONTINUOUS
 62
7
 10
134.129145079734
 20
159.415556335017
 11
126.429145079734
 21
159.415556335017
  0
LINE
  8
画層0
  6
CONTINUOUS
 62
7
 10
150.129145079734
 20
175.415556335017
 11
157.829145079734
 21
175.415556335017
  0
LINE
  8
画層0
  6
CONTINUOUS
 62
7
 10
150.129145079734
 20
159.415556335017
 11
157.829145079734
 21
159.415556335017
  0
ARC
  8
画層0
  6
CONTINUOUS
 62
7
 10
132.112094030585
 20
171.415556335017
 40
6.94952579518696
 50
144.859821158984
 51
215.140178841017
  0
ARC
  8
画層0
  6
CONTINUOUS
 62
7
 10
132.112094030585
 20
163.415556335017
 40
6.94952579518696
 50
144.859821158983
 51
215.140178841016
  0
ARC
  8
画層0
  6
CONTINUOUS
 62
7
 10
120.746196128884
 20
163.415556335017
 40
6.94952579518696
 50
324.859821158984
 51
35.1401788410167
  0
ARC
  8
画層0
  6
CONTINUOUS
 62
7
 10
163.512094030584
 20
171.415556335017
 40
6.94952579518696
 50
144.859821158984
 51
215.140178841017
  0
ARC
  8
画層0
  6
CONTINUOUS
 62
7
 10
152.146196128884
 20
171.415556335017
 40
6.94952579518696
 50
324.859821158983
 51
35.1401788410163
  0
ARC
  8
画層0
  6
CONTINUOUS
 62
7
 10
152.146196128884
 20
163.415556335017
 40
6.94952579518696
 50
324.859821158984
 51
35.1401788410173
  0
LINE
  8
画層1
  6
CONTINUOUS
 62
7
 10
142.129145079734
 20
81.6671796277516
 11
142.129145079734
 21
95.6722633293706
  0
LINE
  8
画層1
  6
CONTINUOUS
 62
7
 10
150.129145079734
 20
81.6671796277516
 11
150.129145079734
 21
99.6068704799476
  0
LINE
  8
画層1
  6
CONTINUOUS
 62
7
 10
142.129145079734
 20
82.6671796277516
 11
150.129145079734
 21
82.6671796277516
  0
LINE
  8
画層1
  6
CONTINUOUS
 62
7
 10
139.129145079734
 20
82.6671796277516
 11
136.129145079734
 21
82.6671796277516
  0
LINE
  8
画層1
  6
CONTINUOUS
 62
7
 10
153.129145079734
 20
82.6671796277516
 11
156.129145079734
 21
82.6671796277516
  0
TEXT
  8
画層1
 62
7
  6
BYLAYER
 62
7
 10
145.743368585931
 20
83.2004796277516
 40
3.2
  1
8
  7
Font_0
 72
1
 11
146.543368585931
 21
84.8004796277516
 73
2
  0
LINE
  8
画層0
  6
CONTINUOUS
 62
7
 10
139.129145079734
 20
83.4710266277516
 11
142.129145079734
 21
82.6671796277516
  0
LINE
  8
画層0
  6
CONTINUOUS
 62
7
 10
142.129145079734
 20
82.6671796277516
 11
139.129145079734
 21
81.8633326277516
  0
LINE
  8
画層0
  6
CONTINUOUS
 62
7
 10
142.129145079734
 20
82.6671796277516
 11
139.129145079734
 21
82.6671796277516
  0
LINE
  8
画層0
  6
CONTINUOUS
 62
7
 10
150.129145079734
 20
82.6671796277516
 11
153.129145079734
 21
82.6671796277516
  0
LINE
  8
画層1
  6
CONTINUOUS
 62
7
 10
179.479145079734
 20
93.3068704799476
 11
179.479145079734
 21
81.6671796277516
  0
LINE
  8
画層1
  6
CONTINUOUS
 62
7
 10
153.129145079734
 20
82.6671796277516
 11
176.479145079734
 21
82.6671796277516
  0
TEXT
  8
画層1
 62
7
  6
BYLAYER
 62
7
 10
160.804145079734
 20
83.2004796277516
 40
3.2
  1
29.35
  7
Font_0
 72
1
 11
164.804145079734
 21
84.8004796277516
 73
2
  0
LINE
  8
画層0
  6
CONTINUOUS
 62
7
 10
153.129145079734
 20
81.8633326277516
 11
150.129145079734
 21
82.6671796277516
  0
LINE
  8
画層0
  6
CONTINUOUS
 62
7
 10
150.129145079734
 20
82.6671796277516
 11
153.129145079734
 21
83.4710266277516
  0
LINE
  8
画層0
  6
CONTINUOUS
 62
7
 10
150.129145079734
 20
82.6671796277516
 11
153.129145079734
 21
82.6671796277516
  0
LINE
  8
画層0
  6
CONTINUOUS
 62
7
 10
176.479145079734
 20
83.4710266277516
 11
179.479145079734
 21
82.6671796277516
  0
LINE
  8
画層0
  6
CONTINUOUS
 62
7
 10
179.479145079734
 20
82.6671796277516
 11
176.479145079734
 21
81.8633326277516
  0
LINE
  8
画層0
  6
CONTINUOUS
 62
7
 10
179.479145079734
 20
82.6671796277516
 11
176.479145079734
 21
82.6671796277516
  0
LINE
  8
画層0
  6
HIDDEN
 62
7
 10
138.129145079734
 20
131.806870479948
 11
138.129145079734
 21
120.106870479948
  0
LINE
  8
画層0
  6
HIDDEN
 62
7
 10
138.129145079734
 20
120.106870479948
 11
146.129145079734
 21
120.106870479948
  0
LINE
  8
画層0
  6
HIDDEN
 62
7
 10
146.129145079734
 20
131.806870479948
 11
146.129145079734
 21
120.106870479948
  0
POLYLINE
  8
画層0
 62
7
  6
CONTINUOUS
 10
0.0
 20
0.0
 30
0.0
 66
1
  0
VERTEX
  8
画層0
 10
156.699284973286
  20
137.884994306881
  0
VERTEX
  8
画層0
 10
158.351836953474
  20
137.884994306881
  0
SEQEND
100
AcDbEntity
  8
画層0
  0
LINE
  8
画層0
  6
CONTINUOUS
 62
7
 10
158.351836953474
 20
137.884994306881
 11
190.565170286807
 21
137.884994306881
  0
TEXT
  8
画層0
 62
7
  6
BYLAYER
 62
7
 10
158.351836953474
 20
138.284994306881
 40
3.2
  1
%%c8ライトガイド用
  7
Font_0
  0
LINE
  8
画層1
  6
CONTINUOUS
 62
7
 10
138.129145079734
 20
132.806870479948
 11
138.129145079734
 21
138.83163181854
  0
LINE
  8
画層1
  6
CONTINUOUS
 62
7
 10
146.129145079734
 20
132.806870479948
 11
146.129145079734
 21
138.83163181854
  0
LINE
  8
画層1
  6
CONTINUOUS
 62
7
 10
141.129145079734
 20
137.83163181854
 11
143.129145079734
 21
137.83163181854
  0
TEXT
  8
画層1
 62
7
  6
BYLAYER
 62
7
 10
139.729145079734
 20
138.36493181854
 40
3.2
  1
%%c8
  7
Font_0
 72
1
 11
142.129145079734
 21
139.96493181854
 73
2
  0
LINE
  8
画層0
  6
CONTINUOUS
 62
7
 10
141.129145079734
 20
137.02778481854
 11
138.129145079734
 21
137.83163181854
  0
LINE
  8
画層0
  6
CONTINUOUS
 62
7
 10
138.129145079734
 20
137.83163181854
 11
141.129145079734
 21
138.63547881854
  0
LINE
  8
画層0
  6
CONTINUOUS
 62
7
 10
138.129145079734
 20
137.83163181854
 11
141.129145079734
 21
137.83163181854
  0
LINE
  8
画層0
  6
CONTINUOUS
 62
7
 10
143.129145079734
 20
138.63547881854
 11
146.129145079734
 21
137.83163181854
  0
LINE
  8
画層0
  6
CONTINUOUS
 62
7
 10
146.129145079734
 20
137.83163181854
 11
143.129145079734
 21
137.02778481854
  0
LINE
  8
画層0
  6
CONTINUOUS
 62
7
 10
146.129145079734
 20
137.83163181854
 11
143.129145079734
 21
137.83163181854
  0
LINE
  8
画層1
  6
CONTINUOUS
 62
7
 10
135.129145079734
 20
132.306870479948
 11
135.129145079734
 21
144.76515584291
  0
LINE
  8
画層1
  6
CONTINUOUS
 62
7
 10
149.129145079734
 20
132.306870479948
 11
149.129145079734
 21
144.76515584291
  0
LINE
  8
画層1
  6
CONTINUOUS
 62
7
 10
138.129145079734
 20
143.76515584291
 11
146.129145079734
 21
143.76515584291
  0
TEXT
  8
画層1
 62
7
  6
BYLAYER
 62
7
 10
138.929145079734
 20
144.29845584291
 40
3.2
  1
%%c14
  7
Font_0
 72
1
 11
142.129145079734
 21
145.89845584291
 73
2
  0
LINE
  8
画層0
  6
CONTINUOUS
 62
7
 10
138.129145079734
 20
142.96130884291
 11
135.129145079734
 21
143.76515584291
  0
LINE
  8
画層0
  6
CONTINUOUS
 62
7
 10
135.129145079734
 20
143.76515584291
 11
138.129145079734
 21
144.56900284291
  0
LINE
  8
画層0
  6
CONTINUOUS
 62
7
 10
135.129145079734
 20
143.76515584291
 11
138.129145079734
 21
143.76515584291
  0
LINE
  8
画層0
  6
CONTINUOUS
 62
7
 10
146.129145079734
 20
144.56900284291
 11
149.129145079734
 21
143.76515584291
  0
LINE
  8
画層0
  6
CONTINUOUS
 62
7
 10
149.129145079734
 20
143.76515584291
 11
146.129145079734
 21
142.96130884291
  0
LINE
  8
画層0
  6
CONTINUOUS
 62
7
 10
149.129145079734
 20
143.76515584291
 11
146.129145079734
 21
143.76515584291
  0
LINE
  8
画層1
  6
CONTINUOUS
 62
7
 10
134.629145079734
 20
131.806870479948
 11
127.707770874614
 21
131.806870479948
  0
LINE
  8
画層1
  6
CONTINUOUS
 62
7
 10
133.029145079734
 20
117.306870479948
 11
127.707770874614
 21
117.306870479948
  0
LINE
  8
画層1
  6
CONTINUOUS
 62
7
 10
128.707770874614
 20
128.806870479948
 11
128.707770874614
 21
120.306870479948
  0
TEXT
  8
画層1
 62
7
  6
BYLAYER
 62
7
 10
128.174470874614
 20
121.356870479948
 40
3.2
  1
14.5
  7
Font_0
 50
90
 72
1
 11
126.574470874614
 21
124.556870479948
 73
2
  0
LINE
  8
画層0
  6
CONTINUOUS
 62
7
 10
127.903923874614
 20
128.806870479948
 11
128.707770874614
 21
131.806870479948
  0
LINE
  8
画層0
  6
CONTINUOUS
 62
7
 10
128.707770874614
 20
131.806870479948
 11
129.511617874614
 21
128.806870479948
  0
LINE
  8
画層0
  6
CONTINUOUS
 62
7
 10
128.707770874614
 20
131.806870479948
 11
128.707770874614
 21
128.806870479948
  0
LINE
  8
画層0
  6
CONTINUOUS
 62
7
 10
129.511617874614
 20
120.306870479948
 11
128.707770874614
 21
117.306870479948
  0
LINE
  8
画層0
  6
CONTINUOUS
 62
7
 10
128.707770874614
 20
117.306870479948
 11
127.903923874614
 21
120.306870479948
  0
LINE
  8
画層0
  6
CONTINUOUS
 62
7
 10
128.707770874614
 20
117.306870479948
 11
128.707770874614
 21
120.306870479948
  0
LINE
  8
画層1
  6
CONTINUOUS
 62
7
 10
239.871246986632
 20
139.806870479948
 11
235.64044761771
 21
139.806870479948
  0
LINE
  8
画層1
  6
CONTINUOUS
 62
7
 10
240.371246986632
 20
117.306870479948
 11
235.64044761771
 21
117.306870479948
  0
LINE
  8
画層1
  6
CONTINUOUS
 62
7
 10
236.64044761771
 20
136.806870479948
 11
236.64044761771
 21
120.306870479948
  0
TEXT
  8
画層1
 62
7
  6
BYLAYER
 62
7
 10
236.10714761771
 20
125.356870479948
 40
3.2
  1
22.5
  7
Font_0
 50
90
 72
1
 11
234.50714761771
 21
128.556870479948
 73
2
  0
LINE
  8
画層0
  6
CONTINUOUS
 62
7
 10
235.83660061771
 20
136.806870479948
 11
236.64044761771
 21
139.806870479948
  0
LINE
  8
画層0
  6
CONTINUOUS
 62
7
 10
236.64044761771
 20
139.806870479948
 11
237.44429461771
 21
136.806870479948
  0
LINE
  8
画層0
  6
CONTINUOUS
 62
7
 10
236.64044761771
 20
139.806870479948
 11
236.64044761771
 21
136.806870479948
  0
LINE
  8
画層0
  6
CONTINUOUS
 62
7
 10
237.44429461771
 20
120.306870479948
 11
236.64044761771
 21
117.306870479948
  0
LINE
  8
画層0
  6
CONTINUOUS
 62
7
 10
236.64044761771
 20
117.306870479948
 11
235.83660061771
 21
120.306870479948
  0
LINE
  8
画層0
  6
CONTINUOUS
 62
7
 10
236.64044761771
 20
117.306870479948
 11
236.64044761771
 21
120.306870479948
  0
LINE
  8
画層0
  6
CONTINUOUS
 62
7
 10
264.39680291431
 20
159.372121092712
 11
233.677377945562
 21
159.372121092712
  0
TEXT
  8
画層0
 62
7
  6
BYLAYER
 62
7
 10
235.59680291431
 20
159.772121092712
 40
3.2
  1
%%c12ライトガイド用
  7
Font_0
 72
2
 11
264.39680291431
 21
159.772121092712
  0
POLYLINE
  8
画層0
 62
7
  6
CONTINUOUS
 10
0.0
 20
0.0
 30
0.0
 66
1
  0
VERTEX
  8
画層0
 10
265.768000732503
  20
159.372121092712
  0
VERTEX
  8
画層0
 10
264.39680291431
  20
159.372121092712
  0
SEQEND
100
AcDbEntity
  8
画層0
  0
LINE
  8
画層1
  6
CONTINUOUS
 62
7
 10
240.371246986632
 20
140.306870479948
 11
240.371246986632
 21
152.270577583647
  0
LINE
  8
画層1
  6
CONTINUOUS
 62
7
 10
258.371246986632
 20
140.306870479948
 11
258.371246986632
 21
152.270577583647
  0
LINE
  8
画層1
  6
CONTINUOUS
 62
7
 10
243.371246986632
 20
151.270577583647
 11
255.371246986632
 21
151.270577583647
  0
TEXT
  8
画層1
 62
7
  6
BYLAYER
 62
7
 10
246.171246986632
 20
151.803877583647
 40
3.2
  1
%%c18
  7
Font_0
 72
1
 11
249.371246986632
 21
153.403877583647
 73
2
  0
LINE
  8
画層0
  6
CONTINUOUS
 62
7
 10
243.371246986632
 20
150.466730583647
 11
240.371246986632
 21
151.270577583647
  0
LINE
  8
画層0
  6
CONTINUOUS
 62
7
 10
240.371246986632
 20
151.270577583647
 11
243.371246986632
 21
152.074424583647
  0
LINE
  8
画層0
  6
CONTINUOUS
 62
7
 10
240.371246986632
 20
151.270577583647
 11
243.371246986632
 21
151.270577583647
  0
LINE
  8
画層0
  6
CONTINUOUS
 62
7
 10
255.371246986632
 20
152.074424583647
 11
258.371246986632
 21
151.270577583647
  0
LINE
  8
画層0
  6
CONTINUOUS
 62
7
 10
258.371246986632
 20
151.270577583647
 11
255.371246986632
 21
150.466730583647
  0
LINE
  8
画層0
  6
CONTINUOUS
 62
7
 10
258.371246986632
 20
151.270577583647
 11
255.371246986632
 21
151.270577583647
  0
LINE
  8
画層1
  6
CONTINUOUS
 62
7
 10
243.371246986632
 20
140.806870479948
 11
243.371246986632
 21
147.029654248975
  0
LINE
  8
画層1
  6
CONTINUOUS
 62
7
 10
255.371246986632
 20
140.806870479948
 11
255.371246986632
 21
147.029654248975
  0
LINE
  8
画層1
  6
CONTINUOUS
 62
7
 10
246.371246986632
 20
146.029654248975
 11
252.371246986632
 21
146.029654248975
  0
TEXT
  8
画層1
 62
7
  6
BYLAYER
 62
7
 10
246.171246986632
 20
146.562954248975
 40
3.2
  1
%%c12
  7
Font_0
 72
1
 11
249.371246986632
 21
148.162954248975
 73
2
  0
LINE
  8
画層0
  6
CONTINUOUS
 62
7
 10
246.371246986632
 20
145.225807248975
 11
243.371246986632
 21
146.029654248975
  0
LINE
  8
画層0
  6
CONTINUOUS
 62
7
 10
243.371246986632
 20
146.029654248975
 11
246.371246986632
 21
146.833501248975
  0
LINE
  8
画層0
  6
CONTINUOUS
 62
7
 10
243.371246986632
 20
146.029654248975
 11
246.371246986632
 21
146.029654248975
  0
LINE
  8
画層0
  6
CONTINUOUS
 62
7
 10
252.371246986632
 20
146.833501248975
 11
255.371246986632
 21
146.029654248975
  0
LINE
  8
画層0
  6
CONTINUOUS
 62
7
 10
255.371246986632
 20
146.029654248975
 11
252.371246986632
 21
145.225807248975
  0
LINE
  8
画層0
  6
CONTINUOUS
 62
7
 10
255.371246986632
 20
146.029654248975
 11
252.371246986632
 21
146.029654248975
  0
LINE
  8
画層0
  6
CONTINUOUS
 62
7
 10
241.371246986632
 20
101.306870479948
 11
233.671246986632
 21
101.306870479948
  0
LINE
  8
画層0
  6
CONTINUOUS
 62
7
 10
233.671246986632
 20
117.306870479948
 11
265.071246986632
 21
117.306870479948
  0
LINE
  8
画層0
  6
CENTER
 62
7
 10
228.74019972179
 20
109.306870479948
 11
270.076043140989
 21
109.306870479948
  0
LINE
  8
画層0
  6
CONTINUOUS
 62
7
 10
257.371246986632
 20
101.306870479948
 11
265.071246986632
 21
101.306870479948
  0
ARC
  8
画層0
  6
CONTINUOUS
 62
7
 10
259.388298035782
 20
105.306870479948
 40
6.94952579518701
 50
324.859821158981
 51
35.1401788410198
  0
ARC
  8
画層0
  6
CONTINUOUS
 62
7
 10
259.388298035782
 20
113.306870479948
 40
6.94952579518701
 50
324.85982115898
 51
35.1401788410192
  0
ARC
  8
画層0
  6
CONTINUOUS
 62
7
 10
270.754195937482
 20
113.306870479948
 40
6.94952579518701
 50
144.859821158981
 51
215.140178841019
  0
ARC
  8
画層0
  6
CONTINUOUS
 62
7
 10
227.988298035782
 20
105.306870479948
 40
6.94952579518696
 50
324.859821158981
 51
35.1401788410195
  0
ARC
  8
画層0
  6
CONTINUOUS
 62
7
 10
239.354195937482
 20
105.306870479948
 40
6.94952579518696
 50
144.85982115898
 51
215.140178841019
  0
ARC
  8
画層0
  6
CONTINUOUS
 62
7
 10
239.354195937482
 20
113.306870479948
 40
6.94952579518696
 50
144.859821158981
 51
215.14017884102
  0
LINE
  8
画層0
  6
CONTINUOUS
 62
7
 10
257.371246986632
 20
100.606870479948
 11
257.371246986632
 21
119.006870479948
  0
LINE
  8
画層0
  6
CONTINUOUS
 62
7
 10
241.371246986632
 20
100.606870479948
 11
241.371246986632
 21
119.006870479948
  0
LINE
  8
画層0
  6
CONTINUOUS
 62
7
 10
241.371246986632
 20
100.606870479948
 11
241.671246986632
 21
100.306870479948
  0
LINE
  8
画層0
  6
CONTINUOUS
 62
7
 10
257.071246986632
 20
100.306870479948
 11
257.371246986632
 21
100.606870479948
  0
LINE
  8
画層0
  6
CONTINUOUS
 62
7
 10
241.371246986632
 20
101.369616546754
 11
257.371246986632
 21
101.369616546754
  0
LINE
  8
画層0
  6
CONTINUOUS
 62
7
 10
257.071246986632
 20
100.306870479948
 11
241.671246986632
 21
100.306870479948
  0
LINE
  8
画層0
  6
CONTINUOUS
 62
7
 10
240.371246986632
 20
139.306870479948
 11
240.871246986632
 21
139.806870479948
  0
LINE
  8
画層0
  6
CONTINUOUS
 62
7
 10
240.371246986632
 20
134.306870479948
 11
240.371246986632
 21
139.306870479948
  0
LINE
  8
画層0
  6
CONTINUOUS
 62
7
 10
240.871246986632
 20
133.806870479948
 11
240.371246986632
 21
134.306870479948
  0
LINE
  8
画層0
  6
CONTINUOUS
 62
7
 10
240.871246986632
 20
133.806870479948
 11
257.871246986632
 21
133.806870479948
  0
LINE
  8
画層0
  6
CONTINUOUS
 62
7
 10
242.371246986632
 20
133.806870479948
 11
242.371246986632
 21
119.306870479948
  0
LINE
  8
画層0
  6
HIDDEN
 62
7
 10
243.371246986632
 20
120.106870479948
 11
255.371246986632
 21
120.106870479948
  0
LINE
  8
画層0
  6
HIDDEN
 62
7
 10
243.371246986632
 20
120.106870479948
 11
243.371246986632
 21
139.806870479948
  0
LINE
  8
画層0
  6
CONTINUOUS
 62
7
 10
240.871246986632
 20
139.806870479948
 11
257.871246986632
 21
139.806870479948
  0
LINE
  8
画層0
  6
CONTINUOUS
 62
7
 10
257.871246986632
 20
139.806870479948
 11
258.371246986632
 21
139.306870479948
  0
CIRCLE
  8
画層0
  6
CONTINUOUS
 62
7
 10
249.371246986632
 20
136.806870479948
 40
1.25
  0
CIRCLE
  8
画層0
  6
CONTINUOUS
 62
7
 10
249.371246986632
 20
136.806870479948
 40
1.5
  0
LINE
  8
画層0
  6
CENTER
 62
7
 10
252.371246986632
 20
136.806870479948
 11
246.371246986632
 21
136.806870479948
  0
LINE
  8
画層0
  6
CENTER
 62
7
 10
249.371246986632
 20
143.306870479948
 11
249.371246986632
 21
96.6722633293706
  0
LINE
  8
画層0
  6
CONTINUOUS
 62
7
 10
258.371246986632
 20
139.306870479948
 11
258.371246986632
 21
134.306870479948
  0
LINE
  8
画層0
  6
CONTINUOUS
 62
7
 10
257.871246986632
 20
133.806870479948
 11
258.371246986632
 21
134.306870479948
  0
LINE
  8
画層0
  6
CONTINUOUS
 62
7
 10
256.371246986632
 20
133.806870479948
 11
256.371246986632
 21
119.306870479948
  0
LINE
  8
画層0
  6
HIDDEN
 62
7
 10
255.371246986632
 20
120.106870479948
 11
255.371246986632
 21
139.806870479948
  0
LINE
  8
画層0
  6
CONTINUOUS
 62
7
 10
257.071246986632
 20
119.306870479948
 11
241.671246986632
 21
119.306870479948
  0
LINE
  8
画層0
  6
CONTINUOUS
 62
7
 10
257.371246986632
 20
119.006870479948
 11
257.071246986632
 21
119.306870479948
  0
LINE
  8
画層0
  6
CONTINUOUS
 62
7
 10
241.371246986632
 20
119.006870479948
 11
241.671246986632
 21
119.306870479948
  0
LINE
  8
画層0
  6
CONTINUOUS
 62
7
 10
64.8791450797339
 20
106.538043479948
 11
66.3629549969969
 21
112.075697479948
  0
LINE
  8
画層0
  6
CONTINUOUS
 62
7
 10
66.8791450797339
 20
106.538043479948
 11
68.3629549969969
 21
112.075697479948
  0
LINE
  8
画層0
  6
CENTER
 62
7
 10
36.7019003187844
 20
109.306870479948
 11
65.6210500383654
 21
109.306870479948
  0
LINE
  8
画層0
  6
CENTER
 62
7
 10
67.6210500383654
 20
109.306870479948
 11
86.8296131718579
 21
109.306870479948
  0
TEXT
  8
画層0
 62
7
  6
CONTINUOUS
 62
7
 10
121.879646986631
 20
18.0009834818516
 40
2.03
 41
0.86
  1
10/06/01
  7
Font_0
 72
1
 11
125.371246986631
 21
19.0159834818516
 73
2
  0
TEXT
  8
画層0
 62
7
  6
CONTINUOUS
 62
7
 10
137.879646986631
 20
18.0009834818516
 40
2.03
 41
0.86
  1
10/06/01
  7
Font_0
 72
1
 11
141.371246986631
 21
19.0159834818516
 73
2
  0
TEXT
  8
画層0
 62
7
  6
CONTINUOUS
 62
7
 10
153.879646986631
 20
18.0009834818516
 40
2.03
 41
0.86
  1
10/06/01
  7
Font_0
 72
1
 11
157.371246986631
 21
19.0159834818516
 73
2
  0
TEXT
  8
画層0
 62
7
  6
CONTINUOUS
 62
7
 10
169.879646986631
 20
18.0009834818516
 40
2.03
 41
0.86
  1
10/06/01
  7
Font_0
 72
1
 11
173.371246986631
 21
19.0159834818516
 73
2
  0
TEXT
  8
画層0
 62
7
  6
CENTER
 62
7
 10
44.0062469866311
 20
17.5918704799476
 40
3.43
  1
２０１０年　６月　１日
  7
Font_0
 72
1
 11
62.8712469866311
 21
19.3068704799476
 73
2
  0
TEXT
  8
画層0
 62
7
  6
BYLAYER
 62
7
 10
226
 20
88.4
 40
3.2
  1
製品名：ＫＣＭ－２Ｄ－１１０Ｃ
  7
Font_0
 72
2
 11
274
 21
88.4
  0
TEXT
  8
画層0
 62
7
  6
BYLAYER
 62
7
 10
263.786288985317
 20
90.2634939462027
 40
3.2
  1

  7
Font_0
 72
2
 11
263.786288985317
 21
90.2634939462027
  0
TEXT
  8
画層0
 62
7
  6
BYLAYER
 62
7
 10
233.53405108296
 20
82.5802269922003
 40
3.2
  1
（カスタム対応可能）
  7
Font_0
 72
2
 11
265.53405108296
 21
82.5802269922003
  0
POLYLINE
  8
画層0
  6
CONTINUOUS
 10
0.0
 20
0.0
 30
0.0
 66
1
 70
     1
  0
VERTEX
  8
画層0
 10
279.371246986632
  20
170.106870479948
  0
VERTEX
  8
画層0
 10
219.371246986632
  20
170.106870479948
  0
VERTEX
  8
画層0
 10
219.371246986632
  20
70.1068704799476
  0
VERTEX
  8
画層0
 10
279.371246986632
  20
70.1068704799476
  0
SEQEND
100
AcDbEntity
  8
画層0
  0
ENDSEC
  0
EOF
