999
Outputted By AR_CAD Ver.1.5.2a
  0
SECTION
  2
HEADER
  9
$ACADVER
  1
AC1009
  9
$DWGCODEPAGE
  3
DOS932
  9
$EXTMIN
 10
0
 20
0
  9
$EXTMAX
 10
297
 20
210
  9
$INSBASE
 10
0.0
 20
0.0
 30
0.0
  9
$HANDLING
 70
     1
  9
$LTSCALE
 40
1
  0
ENDSEC
  0
SECTION
  2
TABLES
  0
TABLE
  2
LTYPE
 70
     8
  0
LTYPE
  2
BYBLOCK
 70
    64
 3

 72
    65
 73
    0
 40
    0
  0
LTYPE
  2
BYLAYER
 70
    64
 3

 72
    65
 73
    0
 40
    0
  0
LTYPE
  2
CONTINUOUS
 70
    64
 3
CONTINUOUS
 72
    65
 73
    0
 40
    0
  0
LTYPE
  2
DASHED
 70
    64
 3

 72
    65
 73
    2
 40
    3.5
 49
    2.91666666666667
 49
    -0.583333333333333
  0
LTYPE
  2
DOT
 70
    64
 3

 72
    65
 73
    2
 40
    0.5
 49
    0.25
 49
    -0.25
  0
LTYPE
  2
DASHDOT
 70
    64
 3

 72
    65
 73
    4
 40
    3.5
 49
    1.84210526315789
 49
    -0.552631578947368
 49
    0.552631578947368
 49
    -0.552631578947368
  0
LTYPE
  2
DIVIDE
 70
    64
 3

 72
    65
 73
    6
 40
    3.5
 49
    1.4
 49
    -0.42
 49
    0.42
 49
    -0.42
 49
    0.42
 49
    -0.42
  0
LTYPE
  2
HIDDEN
 70
    64
 3

 72
    65
 73
    2
 40
    4
 49
    2
 49
    -2
  0
LTYPE
  2
CENTER
 70
    64
 3

 72
    65
 73
    4
 40
    50.8
 49
    31.75
 49
    -6.35
 49
    6.35
 49
    -6.35
  0
ENDTAB
  0
TABLE
  2
LAYER
 70
   257
  0
LAYER
  2
画層0
 70
    0
 62
7
  6
CONTINUOUS
  0
LAYER
  2
画層1
 70
    0
 62
3
  6
CONTINUOUS
  0
LAYER
  2
画層2
 70
    0
 62
9
  6
CONTINUOUS
  0
LAYER
  2
画層3
 70
    0
 62
7
  6
CONTINUOUS
  0
LAYER
  2
画層4
 70
    0
 62
6
  6
CONTINUOUS
  0
LAYER
  2
画層5
 70
    0
 62
1
  6
CONTINUOUS
  0
LAYER
  2
画層6
 70
    0
 62
7
  6
CONTINUOUS
  0
LAYER
  2
画層7
 70
    0
 62
51
  6
CONTINUOUS
  0
LAYER
  2
画層8
 70
    0
 62
61
  6
CONTINUOUS
  0
LAYER
  2
画層9
 70
    0
 62
111
  6
CONTINUOUS
  0
LAYER
  2
画層10
 70
    0
 62
91
  6
CONTINUOUS
  0
LAYER
  2
画層11
 70
    0
 62
131
  6
CONTINUOUS
  0
LAYER
  2
画層12
 70
    0
 62
161
  6
CONTINUOUS
  0
LAYER
  2
画層13
 70
    0
 62
5
  6
CONTINUOUS
  0
LAYER
  2
画層14
 70
    0
 62
7
  6
CONTINUOUS
  0
LAYER
  2
画層15
 70
    0
 62
11
  6
CONTINUOUS
  0
LAYER
  2
画層16
 70
    0
 62
7
  6
CONTINUOUS
  0
LAYER
  2
画層17
 70
    0
 62
70
  6
CONTINUOUS
  0
LAYER
  2
画層18
 70
    0
 62
211
  6
CONTINUOUS
  0
LAYER
  2
画層19
 70
    0
 62
137
  6
CONTINUOUS
  0
LAYER
  2
画層20
 70
    0
 62
4
  6
CONTINUOUS
  0
LAYER
  2
画層21
 70
    0
 62
131
  6
CONTINUOUS
  0
LAYER
  2
画層22
 70
    0
 62
4
  6
CONTINUOUS
  0
LAYER
  2
画層23
 70
    0
 62
4
  6
CONTINUOUS
  0
LAYER
  2
画層24
 70
    0
 62
7
  6
CONTINUOUS
  0
LAYER
  2
画層25
 70
    0
 62
7
  6
CONTINUOUS
  0
LAYER
  2
画層26
 70
    0
 62
7
  6
CONTINUOUS
  0
LAYER
  2
画層27
 70
    0
 62
7
  6
CONTINUOUS
  0
LAYER
  2
画層28
 70
    0
 62
7
  6
CONTINUOUS
  0
LAYER
  2
画層29
 70
    0
 62
7
  6
CONTINUOUS
  0
LAYER
  2
画層30
 70
    0
 62
7
  6
CONTINUOUS
  0
LAYER
  2
画層31
 70
    0
 62
7
  6
CONTINUOUS
  0
LAYER
  2
画層32
 70
    0
 62
7
  6
CONTINUOUS
  0
LAYER
  2
画層33
 70
    0
 62
7
  6
CONTINUOUS
  0
LAYER
  2
画層34
 70
    0
 62
7
  6
CONTINUOUS
  0
LAYER
  2
画層35
 70
    0
 62
7
  6
CONTINUOUS
  0
LAYER
  2
画層36
 70
    0
 62
7
  6
CONTINUOUS
  0
LAYER
  2
画層37
 70
    0
 62
7
  6
CONTINUOUS
  0
LAYER
  2
画層38
 70
    0
 62
7
  6
CONTINUOUS
  0
LAYER
  2
画層39
 70
    0
 62
7
  6
CONTINUOUS
  0
LAYER
  2
画層40
 70
    0
 62
7
  6
CONTINUOUS
  0
LAYER
  2
画層41
 70
    0
 62
7
  6
CONTINUOUS
  0
LAYER
  2
画層42
 70
    0
 62
7
  6
CONTINUOUS
  0
LAYER
  2
画層43
 70
    0
 62
7
  6
CONTINUOUS
  0
LAYER
  2
画層44
 70
    0
 62
7
  6
CONTINUOUS
  0
LAYER
  2
画層45
 70
    0
 62
7
  6
CONTINUOUS
  0
LAYER
  2
画層46
 70
    0
 62
7
  6
CONTINUOUS
  0
LAYER
  2
画層47
 70
    0
 62
7
  6
CONTINUOUS
  0
LAYER
  2
画層48
 70
    0
 62
7
  6
CONTINUOUS
  0
LAYER
  2
画層49
 70
    0
 62
7
  6
CONTINUOUS
  0
LAYER
  2
画層50
 70
    0
 62
7
  6
CONTINUOUS
  0
LAYER
  2
画層51
 70
    0
 62
7
  6
CONTINUOUS
  0
LAYER
  2
画層52
 70
    0
 62
7
  6
CONTINUOUS
  0
LAYER
  2
画層53
 70
    0
 62
7
  6
CONTINUOUS
  0
LAYER
  2
画層54
 70
    0
 62
7
  6
CONTINUOUS
  0
LAYER
  2
画層55
 70
    0
 62
7
  6
CONTINUOUS
  0
LAYER
  2
画層56
 70
    0
 62
7
  6
CONTINUOUS
  0
LAYER
  2
画層57
 70
    0
 62
7
  6
CONTINUOUS
  0
LAYER
  2
画層58
 70
    0
 62
7
  6
CONTINUOUS
  0
LAYER
  2
画層59
 70
    0
 62
7
  6
CONTINUOUS
  0
LAYER
  2
画層60
 70
    0
 62
7
  6
CONTINUOUS
  0
LAYER
  2
画層61
 70
    0
 62
7
  6
CONTINUOUS
  0
LAYER
  2
画層62
 70
    0
 62
7
  6
CONTINUOUS
  0
LAYER
  2
画層63
 70
    0
 62
7
  6
CONTINUOUS
  0
LAYER
  2
画層64
 70
    0
 62
7
  6
CONTINUOUS
  0
LAYER
  2
画層65
 70
    0
 62
7
  6
CONTINUOUS
  0
LAYER
  2
画層66
 70
    0
 62
7
  6
CONTINUOUS
  0
LAYER
  2
画層67
 70
    0
 62
7
  6
CONTINUOUS
  0
LAYER
  2
画層68
 70
    0
 62
7
  6
CONTINUOUS
  0
LAYER
  2
画層69
 70
    0
 62
7
  6
CONTINUOUS
  0
LAYER
  2
画層70
 70
    0
 62
7
  6
CONTINUOUS
  0
LAYER
  2
画層71
 70
    0
 62
7
  6
CONTINUOUS
  0
LAYER
  2
画層72
 70
    0
 62
7
  6
CONTINUOUS
  0
LAYER
  2
画層73
 70
    0
 62
7
  6
CONTINUOUS
  0
LAYER
  2
画層74
 70
    0
 62
7
  6
CONTINUOUS
  0
LAYER
  2
画層75
 70
    0
 62
7
  6
CONTINUOUS
  0
LAYER
  2
画層76
 70
    0
 62
7
  6
CONTINUOUS
  0
LAYER
  2
画層77
 70
    0
 62
7
  6
CONTINUOUS
  0
LAYER
  2
画層78
 70
    0
 62
7
  6
CONTINUOUS
  0
LAYER
  2
画層79
 70
    0
 62
7
  6
CONTINUOUS
  0
LAYER
  2
画層80
 70
    0
 62
7
  6
CONTINUOUS
  0
LAYER
  2
画層81
 70
    0
 62
7
  6
CONTINUOUS
  0
LAYER
  2
画層82
 70
    0
 62
7
  6
CONTINUOUS
  0
LAYER
  2
画層83
 70
    0
 62
7
  6
CONTINUOUS
  0
LAYER
  2
画層84
 70
    0
 62
7
  6
CONTINUOUS
  0
LAYER
  2
画層85
 70
    0
 62
7
  6
CONTINUOUS
  0
LAYER
  2
画層86
 70
    0
 62
7
  6
CONTINUOUS
  0
LAYER
  2
画層87
 70
    0
 62
7
  6
CONTINUOUS
  0
LAYER
  2
画層88
 70
    0
 62
7
  6
CONTINUOUS
  0
LAYER
  2
画層89
 70
    0
 62
7
  6
CONTINUOUS
  0
LAYER
  2
画層90
 70
    0
 62
7
  6
CONTINUOUS
  0
LAYER
  2
画層91
 70
    0
 62
7
  6
CONTINUOUS
  0
LAYER
  2
画層92
 70
    0
 62
7
  6
CONTINUOUS
  0
LAYER
  2
画層93
 70
    0
 62
7
  6
CONTINUOUS
  0
LAYER
  2
画層94
 70
    0
 62
7
  6
CONTINUOUS
  0
LAYER
  2
画層95
 70
    0
 62
7
  6
CONTINUOUS
  0
LAYER
  2
画層96
 70
    0
 62
7
  6
CONTINUOUS
  0
LAYER
  2
画層97
 70
    0
 62
7
  6
CONTINUOUS
  0
LAYER
  2
画層98
 70
    0
 62
7
  6
CONTINUOUS
  0
LAYER
  2
画層99
 70
    0
 62
7
  6
CONTINUOUS
  0
LAYER
  2
画層100
 70
    0
 62
7
  6
CONTINUOUS
  0
LAYER
  2
画層101
 70
    0
 62
7
  6
CONTINUOUS
  0
LAYER
  2
画層102
 70
    0
 62
7
  6
CONTINUOUS
  0
LAYER
  2
画層103
 70
    0
 62
7
  6
CONTINUOUS
  0
LAYER
  2
画層104
 70
    0
 62
7
  6
CONTINUOUS
  0
LAYER
  2
画層105
 70
    0
 62
7
  6
CONTINUOUS
  0
LAYER
  2
画層106
 70
    0
 62
7
  6
CONTINUOUS
  0
LAYER
  2
画層107
 70
    0
 62
7
  6
CONTINUOUS
  0
LAYER
  2
画層108
 70
    0
 62
7
  6
CONTINUOUS
  0
LAYER
  2
画層109
 70
    0
 62
7
  6
CONTINUOUS
  0
LAYER
  2
画層110
 70
    0
 62
7
  6
CONTINUOUS
  0
LAYER
  2
画層111
 70
    0
 62
7
  6
CONTINUOUS
  0
LAYER
  2
画層112
 70
    0
 62
7
  6
CONTINUOUS
  0
LAYER
  2
画層113
 70
    0
 62
7
  6
CONTINUOUS
  0
LAYER
  2
画層114
 70
    0
 62
7
  6
CONTINUOUS
  0
LAYER
  2
画層115
 70
    0
 62
7
  6
CONTINUOUS
  0
LAYER
  2
画層116
 70
    0
 62
7
  6
CONTINUOUS
  0
LAYER
  2
画層117
 70
    0
 62
7
  6
CONTINUOUS
  0
LAYER
  2
画層118
 70
    0
 62
7
  6
CONTINUOUS
  0
LAYER
  2
画層119
 70
    0
 62
7
  6
CONTINUOUS
  0
LAYER
  2
画層120
 70
    0
 62
7
  6
CONTINUOUS
  0
LAYER
  2
画層121
 70
    0
 62
7
  6
CONTINUOUS
  0
LAYER
  2
画層122
 70
    0
 62
7
  6
CONTINUOUS
  0
LAYER
  2
画層123
 70
    0
 62
7
  6
CONTINUOUS
  0
LAYER
  2
画層124
 70
    0
 62
7
  6
CONTINUOUS
  0
LAYER
  2
画層125
 70
    0
 62
7
  6
CONTINUOUS
  0
LAYER
  2
画層126
 70
    0
 62
7
  6
CONTINUOUS
  0
LAYER
  2
画層127
 70
    0
 62
7
  6
CONTINUOUS
  0
LAYER
  2
画層128
 70
    0
 62
7
  6
CONTINUOUS
  0
LAYER
  2
画層129
 70
    0
 62
7
  6
CONTINUOUS
  0
LAYER
  2
画層130
 70
    0
 62
7
  6
CONTINUOUS
  0
LAYER
  2
画層131
 70
    0
 62
7
  6
CONTINUOUS
  0
LAYER
  2
画層132
 70
    0
 62
7
  6
CONTINUOUS
  0
LAYER
  2
画層133
 70
    0
 62
7
  6
CONTINUOUS
  0
LAYER
  2
画層134
 70
    0
 62
7
  6
CONTINUOUS
  0
LAYER
  2
画層135
 70
    0
 62
7
  6
CONTINUOUS
  0
LAYER
  2
画層136
 70
    0
 62
7
  6
CONTINUOUS
  0
LAYER
  2
画層137
 70
    0
 62
7
  6
CONTINUOUS
  0
LAYER
  2
画層138
 70
    0
 62
7
  6
CONTINUOUS
  0
LAYER
  2
画層139
 70
    0
 62
7
  6
CONTINUOUS
  0
LAYER
  2
画層140
 70
    0
 62
7
  6
CONTINUOUS
  0
LAYER
  2
画層141
 70
    0
 62
7
  6
CONTINUOUS
  0
LAYER
  2
画層142
 70
    0
 62
7
  6
CONTINUOUS
  0
LAYER
  2
画層143
 70
    0
 62
7
  6
CONTINUOUS
  0
LAYER
  2
画層144
 70
    0
 62
7
  6
CONTINUOUS
  0
LAYER
  2
画層145
 70
    0
 62
7
  6
CONTINUOUS
  0
LAYER
  2
画層146
 70
    0
 62
7
  6
CONTINUOUS
  0
LAYER
  2
画層147
 70
    0
 62
7
  6
CONTINUOUS
  0
LAYER
  2
画層148
 70
    0
 62
7
  6
CONTINUOUS
  0
LAYER
  2
画層149
 70
    0
 62
7
  6
CONTINUOUS
  0
LAYER
  2
画層150
 70
    0
 62
7
  6
CONTINUOUS
  0
LAYER
  2
画層151
 70
    0
 62
7
  6
CONTINUOUS
  0
LAYER
  2
画層152
 70
    0
 62
7
  6
CONTINUOUS
  0
LAYER
  2
画層153
 70
    0
 62
7
  6
CONTINUOUS
  0
LAYER
  2
画層154
 70
    0
 62
7
  6
CONTINUOUS
  0
LAYER
  2
画層155
 70
    0
 62
7
  6
CONTINUOUS
  0
LAYER
  2
画層156
 70
    0
 62
7
  6
CONTINUOUS
  0
LAYER
  2
画層157
 70
    0
 62
7
  6
CONTINUOUS
  0
LAYER
  2
画層158
 70
    0
 62
7
  6
CONTINUOUS
  0
LAYER
  2
画層159
 70
    0
 62
7
  6
CONTINUOUS
  0
LAYER
  2
画層160
 70
    0
 62
7
  6
CONTINUOUS
  0
LAYER
  2
画層161
 70
    0
 62
7
  6
CONTINUOUS
  0
LAYER
  2
画層162
 70
    0
 62
7
  6
CONTINUOUS
  0
LAYER
  2
画層163
 70
    0
 62
7
  6
CONTINUOUS
  0
LAYER
  2
画層164
 70
    0
 62
7
  6
CONTINUOUS
  0
LAYER
  2
画層165
 70
    0
 62
7
  6
CONTINUOUS
  0
LAYER
  2
画層166
 70
    0
 62
7
  6
CONTINUOUS
  0
LAYER
  2
画層167
 70
    0
 62
7
  6
CONTINUOUS
  0
LAYER
  2
画層168
 70
    0
 62
7
  6
CONTINUOUS
  0
LAYER
  2
画層169
 70
    0
 62
7
  6
CONTINUOUS
  0
LAYER
  2
画層170
 70
    0
 62
7
  6
CONTINUOUS
  0
LAYER
  2
画層171
 70
    0
 62
7
  6
CONTINUOUS
  0
LAYER
  2
画層172
 70
    0
 62
7
  6
CONTINUOUS
  0
LAYER
  2
画層173
 70
    0
 62
7
  6
CONTINUOUS
  0
LAYER
  2
画層174
 70
    0
 62
7
  6
CONTINUOUS
  0
LAYER
  2
画層175
 70
    0
 62
7
  6
CONTINUOUS
  0
LAYER
  2
画層176
 70
    0
 62
7
  6
CONTINUOUS
  0
LAYER
  2
画層177
 70
    0
 62
7
  6
CONTINUOUS
  0
LAYER
  2
画層178
 70
    0
 62
7
  6
CONTINUOUS
  0
LAYER
  2
画層179
 70
    0
 62
7
  6
CONTINUOUS
  0
LAYER
  2
画層180
 70
    0
 62
7
  6
CONTINUOUS
  0
LAYER
  2
画層181
 70
    0
 62
7
  6
CONTINUOUS
  0
LAYER
  2
画層182
 70
    0
 62
7
  6
CONTINUOUS
  0
LAYER
  2
画層183
 70
    0
 62
7
  6
CONTINUOUS
  0
LAYER
  2
画層184
 70
    0
 62
7
  6
CONTINUOUS
  0
LAYER
  2
画層185
 70
    0
 62
7
  6
CONTINUOUS
  0
LAYER
  2
画層186
 70
    0
 62
7
  6
CONTINUOUS
  0
LAYER
  2
画層187
 70
    0
 62
7
  6
CONTINUOUS
  0
LAYER
  2
画層188
 70
    0
 62
7
  6
CONTINUOUS
  0
LAYER
  2
画層189
 70
    0
 62
7
  6
CONTINUOUS
  0
LAYER
  2
画層190
 70
    0
 62
7
  6
CONTINUOUS
  0
LAYER
  2
画層191
 70
    0
 62
7
  6
CONTINUOUS
  0
LAYER
  2
画層192
 70
    0
 62
7
  6
CONTINUOUS
  0
LAYER
  2
画層193
 70
    0
 62
7
  6
CONTINUOUS
  0
LAYER
  2
画層194
 70
    0
 62
7
  6
CONTINUOUS
  0
LAYER
  2
画層195
 70
    0
 62
7
  6
CONTINUOUS
  0
LAYER
  2
画層196
 70
    0
 62
7
  6
CONTINUOUS
  0
LAYER
  2
画層197
 70
    0
 62
7
  6
CONTINUOUS
  0
LAYER
  2
画層198
 70
    0
 62
7
  6
CONTINUOUS
  0
LAYER
  2
画層199
 70
    0
 62
7
  6
CONTINUOUS
  0
LAYER
  2
画層200
 70
    0
 62
7
  6
CONTINUOUS
  0
LAYER
  2
画層201
 70
    0
 62
7
  6
CONTINUOUS
  0
LAYER
  2
画層202
 70
    0
 62
7
  6
CONTINUOUS
  0
LAYER
  2
画層203
 70
    0
 62
7
  6
CONTINUOUS
  0
LAYER
  2
画層204
 70
    0
 62
7
  6
CONTINUOUS
  0
LAYER
  2
画層205
 70
    0
 62
7
  6
CONTINUOUS
  0
LAYER
  2
画層206
 70
    0
 62
7
  6
CONTINUOUS
  0
LAYER
  2
画層207
 70
    0
 62
7
  6
CONTINUOUS
  0
LAYER
  2
画層208
 70
    0
 62
7
  6
CONTINUOUS
  0
LAYER
  2
画層209
 70
    0
 62
7
  6
CONTINUOUS
  0
LAYER
  2
画層210
 70
    0
 62
7
  6
CONTINUOUS
  0
LAYER
  2
画層211
 70
    0
 62
7
  6
CONTINUOUS
  0
LAYER
  2
画層212
 70
    0
 62
7
  6
CONTINUOUS
  0
LAYER
  2
画層213
 70
    0
 62
7
  6
CONTINUOUS
  0
LAYER
  2
画層214
 70
    0
 62
7
  6
CONTINUOUS
  0
LAYER
  2
画層215
 70
    0
 62
7
  6
CONTINUOUS
  0
LAYER
  2
画層216
 70
    0
 62
7
  6
CONTINUOUS
  0
LAYER
  2
画層217
 70
    0
 62
7
  6
CONTINUOUS
  0
LAYER
  2
画層218
 70
    0
 62
7
  6
CONTINUOUS
  0
LAYER
  2
画層219
 70
    0
 62
7
  6
CONTINUOUS
  0
LAYER
  2
画層220
 70
    0
 62
7
  6
CONTINUOUS
  0
LAYER
  2
画層221
 70
    0
 62
7
  6
CONTINUOUS
  0
LAYER
  2
画層222
 70
    0
 62
7
  6
CONTINUOUS
  0
LAYER
  2
画層223
 70
    0
 62
7
  6
CONTINUOUS
  0
LAYER
  2
画層224
 70
    0
 62
7
  6
CONTINUOUS
  0
LAYER
  2
画層225
 70
    0
 62
7
  6
CONTINUOUS
  0
LAYER
  2
画層226
 70
    0
 62
7
  6
CONTINUOUS
  0
LAYER
  2
画層227
 70
    0
 62
7
  6
CONTINUOUS
  0
LAYER
  2
画層228
 70
    0
 62
7
  6
CONTINUOUS
  0
LAYER
  2
画層229
 70
    0
 62
7
  6
CONTINUOUS
  0
LAYER
  2
画層230
 70
    0
 62
7
  6
CONTINUOUS
  0
LAYER
  2
画層231
 70
    0
 62
7
  6
CONTINUOUS
  0
LAYER
  2
画層232
 70
    0
 62
7
  6
CONTINUOUS
  0
LAYER
  2
画層233
 70
    0
 62
7
  6
CONTINUOUS
  0
LAYER
  2
画層234
 70
    0
 62
7
  6
CONTINUOUS
  0
LAYER
  2
画層235
 70
    0
 62
7
  6
CONTINUOUS
  0
LAYER
  2
画層236
 70
    0
 62
7
  6
CONTINUOUS
  0
LAYER
  2
画層237
 70
    0
 62
7
  6
CONTINUOUS
  0
LAYER
  2
画層238
 70
    0
 62
7
  6
CONTINUOUS
  0
LAYER
  2
画層239
 70
    0
 62
7
  6
CONTINUOUS
  0
LAYER
  2
画層240
 70
    0
 62
7
  6
CONTINUOUS
  0
LAYER
  2
画層241
 70
    0
 62
7
  6
CONTINUOUS
  0
LAYER
  2
画層242
 70
    0
 62
7
  6
CONTINUOUS
  0
LAYER
  2
画層243
 70
    0
 62
7
  6
CONTINUOUS
  0
LAYER
  2
画層244
 70
    0
 62
7
  6
CONTINUOUS
  0
LAYER
  2
画層245
 70
    0
 62
7
  6
CONTINUOUS
  0
LAYER
  2
画層246
 70
    0
 62
7
  6
CONTINUOUS
  0
LAYER
  2
画層247
 70
    0
 62
7
  6
CONTINUOUS
  0
LAYER
  2
画層248
 70
    0
 62
7
  6
CONTINUOUS
  0
LAYER
  2
画層249
 70
    0
 62
7
  6
CONTINUOUS
  0
LAYER
  2
画層250
 70
    0
 62
7
  6
CONTINUOUS
  0
LAYER
  2
画層251
 70
    0
 62
7
  6
CONTINUOUS
  0
LAYER
  2
画層252
 70
    0
 62
7
  6
CONTINUOUS
  0
LAYER
  2
画層253
 70
    0
 62
7
  6
CONTINUOUS
  0
LAYER
  2
画層254
 70
    0
 62
7
  6
CONTINUOUS
  0
LAYER
  2
画層255
 70
    0
 62
7
  6
CONTINUOUS
  0
LAYER
  2
0
 70
   64
 62
    7
  6
CONTINUOUS
  0
ENDTAB
  0
TABLE
  2
STYLE
 70
     1
  0
STYLE
  2
Standard
 70
     0
 40
0.0
 41
1.0
 50
0.0
 71
     0
 42
3.2
  3
TXT
  4
BIGFONT
  0
STYLE
  2
Font_0
 70
     0
 40
0.0
 41
1.0
 50
0.0
 71
     0
 42
3.2
  3
txt
  4
BIGFONT
  0
ENDTAB
  0
ENDSEC
  0
SECTION
  2
BLOCKS
  0
BLOCK
  8
画層0
  2
13462_KCAD_FINI
 70
    0
 10
0
 20
0
 30
0.0
  3
13462_KCAD_FINI
  1

  0
LINE
  8
画層0
  6
CONTINUOUS
 62
134
 10
0
 20
0
 11
1.8475208614068
 21
3.2
  0
LINE
  8
画層0
  6
CONTINUOUS
 62
134
 10
1.8475208614068
 20
3.2
 11
-1.8475208614068
 21
3.2
  0
LINE
  8
画層0
  6
CONTINUOUS
 62
134
 10
-1.8475208614068
 20
3.2
 11
0
 21
0
  0
LINE
  8
画層0
  6
CONTINUOUS
 62
134
 10
3.69504172281361
 20
0
 11
5.54256258422041
 21
3.2
  0
LINE
  8
画層0
  6
CONTINUOUS
 62
134
 10
5.54256258422041
 20
3.2
 11
1.8475208614068
 21
3.2
  0
LINE
  8
画層0
  6
CONTINUOUS
 62
134
 10
1.8475208614068
 20
3.2
 11
3.69504172281361
 21
0
  0
LINE
  8
画層0
  6
CONTINUOUS
 62
134
 10
7.39008344562721
 20
0
 11
9.23760430703401
 21
3.2
  0
LINE
  8
画層0
  6
CONTINUOUS
 62
134
 10
9.23760430703401
 20
3.2
 11
5.54256258422041
 21
3.2
  0
LINE
  8
画層0
  6
CONTINUOUS
 62
134
 10
5.54256258422041
 20
3.2
 11
7.39008344562721
 21
0
  0
ENDBLK
  0
ENDSEC
  0
SECTION
  2
ENTITIES
  0
LINE
  8
画層12
  6
CONTINUOUS
 62
7
 10
285.628753013368
 20
201.678117466579
 11
10.6287530133684
 21
201.678117466579
  0
LINE
  8
画層12
  6
CONTINUOUS
 62
7
 10
10.6287530133684
 20
201.678117466579
 11
10.6287530133684
 21
14.678117466579
  0
LINE
  8
画層12
  6
CONTINUOUS
 62
7
 10
285.628753013368
 20
201.678117466579
 11
285.628753013368
 21
14.678117466579
  0
LINE
  8
画層12
  6
CONTINUOUS
 62
7
 10
147.128753013368
 20
201.678117466579
 11
147.128753013368
 21
204.178117466579
  0
LINE
  8
画層12
  6
CONTINUOUS
 62
7
 10
285.628753013368
 20
14.678117466579
 11
10.6287530133684
 21
14.678117466579
  0
LINE
  8
画層12
  6
CONTINUOUS
 62
7
 10
95.6287530133674
 20
47.178117466579
 11
285.628753013368
 21
47.178117466579
  0
LINE
  8
画層12
  6
CONTINUOUS
 62
7
 10
225.628753013368
 20
47.178117466579
 11
225.628753013368
 21
14.678117466579
  0
LINE
  8
画層12
  6
CONTINUOUS
 62
7
 10
285.628753013368
 20
34.678117466579
 11
10.6287530133683
 21
34.678117466579
  0
LINE
  8
画層12
  6
CONTINUOUS
 62
7
 10
180.628753013367
 20
14.678117466579
 11
180.628753013367
 21
47.178117466579
  0
LINE
  8
画層12
  6
CONTINUOUS
 62
7
 10
230.628753013368
 20
14.678117466579
 11
230.628753013368
 21
34.678117466579
  0
LINE
  8
画層12
  6
CONTINUOUS
 62
7
 10
285.628753013368
 20
24.678117466579
 11
180.628753013367
 21
24.678117466579
  0
TEXT
  8
画層12
 62
7
  6
CENTER
 62
7
 10
226.358667274878
 20
31.563669304179
 40
2.7
 41
1.26666666666667
  1
製
  7
Font_0
  0
TEXT
  8
画層12
 62
7
  6
CENTER
 62
7
 10
226.358667274878
 20
28.463669304179
 40
2.7
 41
1.26666666666667
  1
品
  7
Font_0
  0
TEXT
  8
画層12
 62
7
  6
CENTER
 62
7
 10
226.358667274878
 20
25.363669304179
 40
2.7
 41
1.26666666666667
  1
名
  7
Font_0
  0
TEXT
  8
画層12
 62
7
  6
CENTER
 62
7
 10
136.691253013367
 20
30.603117466579
 40
3.15
  1
設 計
  7
Font_0
 72
1
 11
140.628753013367
 21
32.178117466579
 73
2
  0
TEXT
  8
画層12
 62
7
  6
CENTER
 62
7
 10
181.644221189031
 20
20.273478051679
 40
2.7
 41
1.20333331823349
  1
面
  7
Font_0
  0
TEXT
  8
画層12
 62
7
  6
CENTER
 62
7
 10
181.644221189031
 20
16.773478051679
 40
2.7
 41
1.20333331823349
  1
取
  7
Font_0
  0
TEXT
  8
画層12
 62
7
  6
CENTER
 62
7
 10
181.297278549949
 20
26.545350111879
 40
2.7
 41
1.27
  1
上
  7
Font_0
  0
TEXT
  8
画層12
 62
7
  6
CENTER
 62
7
 10
181.297278549949
 20
30.045350111879
 40
2.7
 41
1.26666666666667
  1
仕
  7
Font_0
  0
TEXT
  8
画層12
 62
7
  6
CENTER
 62
7
 10
226.278753013368
 20
20.828117466579
 40
2.7
 41
1.26666666666667
  1
図
  7
Font_0
  0
TEXT
  8
画層12
 62
7
  6
CENTER
 62
7
 10
226.278753013368
 20
16.328117466579
 40
2.7
 41
1.26666666666667
  1
番
  7
Font_0
  0
LINE
  8
画層12
  6
CONTINUOUS
 62
7
 10
95.6287530133674
 20
39.678117466579
 11
285.628753013368
 21
39.678117466579
  0
LINE
  8
画層12
  6
CONTINUOUS
 62
7
 10
185.628753013367
 20
14.678117466579
 11
185.628753013367
 21
34.678117466579
  0
TEXT
  8
画層12
 62
7
  6
CENTER
 62
7
 10
102.281253013367
 20
30.603117466579
 40
3.15
 41
1.22142857142857
  1
尺度
  7
Font_0
 72
1
 11
106.128753013367
 21
32.178117466579
 73
2
  0
TEXT
  8
画層12
 62
7
  6
CENTER
 62
7
 10
99.8287530133674
 20
35.603117466579
 40
3.15
  1
部品番号
  7
Font_0
 72
1
 11
106.128753013367
 21
37.178117466579
 73
2
  0
TEXT
  8
画層12
 62
7
  6
CENTER
 62
7
 10
169.478753013367
 20
35.603117466579
 40
3.15
  1
個数
  7
Font_0
 72
1
 11
172.628753013367
 21
37.178117466579
 73
2
  0
TEXT
  8
画層12
 62
7
  6
CENTER
 62
7
 10
196.828753013367
 20
35.603117466579
 40
3.15
  1
材    質
  7
Font_0
 72
1
 11
203.128753013367
 21
37.178117466579
 73
2
  0
TEXT
  8
画層0
 62
7
  6
CENTER
 62
7
 10
102.397503013367
 20
22.644117466579
 40
4.068
 41
1.22295968534907
  1
1/1
  7
Font_0
 72
1
 11
106.128753013367
 21
24.678117466579
 73
2
  0
TEXT
  8
画層0
 62
7
  6
CENTER
 62
7
 10
43.2637530133679
 20
17.963117466579
 40
3.43
  1
２０１０年　６月　１日
  7
Font_0
 72
1
 11
62.1287530133679
 21
19.678117466579
 73
2
  0
TEXT
  8
画層12
 62
7
  6
CENTER
 62
7
 10
13.2364471936559
 20
32.1509517079525
 40
1.35600025863647
 41
0.577433297908475
  1
2
  7
Font_0
  0
TEXT
  8
画層12
 62
7
  6
CENTER
 62
7
 10
13.3689972527158
 20
28.8247111778673
 40
1.35600025863647
 41
0.577433297908475
  1
1
  7
Font_0
  0
TEXT
  8
画層12
 62
7
  6
CENTER
 62
7
 10
18.5568037758508
 20
25.1607351363458
 40
2.4
  1
年月日
  7
Font_0
  0
TEXT
  8
画層12
 62
7
  6
CENTER
 62
7
 10
30.2411383657822
 20
25.2275660037818
 40
2.4
  1
担当
  7
Font_0
  0
LINE
  8
画層12
  6
CONTINUOUS
 62
7
 10
13.5086224248581
 20
30.8962120533478
 11
14.841955758258
 21
28.5868109766478
  0
LINE
  8
画層12
  6
CONTINUOUS
 62
7
 10
14.841955758258
 20
28.5868109766478
 11
12.1752890915581
 21
28.5868109766478
  0
LINE
  8
画層12
  6
CONTINUOUS
 62
7
 10
12.1752890915581
 20
28.5868109766478
 11
13.5086224248581
 21
30.8962120533478
  0
LINE
  8
画層12
  6
CONTINUOUS
 62
7
 10
12.1729454842683
 20
31.898913103079
 11
13.5062788176684
 21
34.208314179879
  0
LINE
  8
画層12
  6
CONTINUOUS
 62
7
 10
14.8396121509684
 20
31.898913103079
 11
12.1729454842683
 21
31.898913103079
  0
LINE
  8
画層12
  6
CONTINUOUS
 62
7
 10
13.5062788176684
 20
34.208314179879
 11
14.8396121509684
 21
31.898913103079
  0
TEXT
  8
画層12
 62
7
  6
CENTER
 62
7
 10
11.5282388901684
 20
25.527566146833
 40
1.8
  1
符号
  7
Font_0
  0
TEXT
  8
画層12
 62
7
  6
CENTER
 62
7
 10
53.6821895138172
 20
25.1889461196279
 40
2.4
  1
訂  正  記  事
  7
Font_0
  0
LINE
  8
画層12
  6
CONTINUOUS
 62
7
 10
16.0287530133684
 20
24.678117466579
 11
16.0287530133684
 21
34.678117466579
  0
LINE
  8
画層12
  6
CONTINUOUS
 62
7
 10
28.6287530133684
 20
14.678117466579
 11
28.6287530133684
 21
34.678117466579
  0
LINE
  8
画層12
  6
CONTINUOUS
 62
7
 10
10.6287530133684
 20
24.678117466579
 11
95.6287530133674
 21
24.678117466579
  0
LINE
  8
画層12
  6
CONTINUOUS
 62
7
 10
10.6287530133684
 20
28.011450799879
 11
95.6287530133674
 21
28.011450799879
  0
LINE
  8
画層12
  6
CONTINUOUS
 62
7
 10
10.6287530133684
 20
31.344784133279
 11
95.6287530133674
 21
31.344784133279
  0
LINE
  8
画層12
  6
CONTINUOUS
 62
7
 10
36.6287530133684
 20
24.678117466579
 11
36.6287530133684
 21
34.678117466579
  0
LINE
  8
画層12
  6
CONTINUOUS
 62
7
 10
95.6287530133674
 20
29.678117466579
 11
180.628753013367
 21
29.678117466579
  0
TEXT
  8
画層12
 62
7
  6
CENTER
 62
7
 10
100.458753013367
 20
15.828117466579
 40
2.7
 41
1.2
  1
 三角法
  7
Font_0
 72
1
 11
106.128753013367
 21
17.178117466579
 73
2
  0
TEXT
  8
画層12
 62
7
  6
CENTER
 62
7
 10
15.5478734272684
 20
18.352411916179
 40
3.15
  1
日付
  7
Font_0
  0
LINE
  8
画層12
  6
CONTINUOUS
 62
7
 10
95.6287530133674
 20
19.678117466579
 11
116.628753013367
 21
19.678117466579
  0
TEXT
  8
画層12
 62
7
  6
CENTER
 62
7
 10
244.603753013368
 20
35.603117466579
 40
3.15
  1
表  面  処  理
  7
Font_0
 72
1
 11
255.628753013368
 21
37.178117466579
 73
2
  0
TEXT
  8
画層12
 62
7
  6
CENTER
 62
7
 10
131.178753013367
 20
35.603117466579
 40
3.15
  1
部   品   名
  7
Font_0
 72
1
 11
140.628753013367
 21
37.178117466579
 73
2
  0
TEXT
  8
画層12
 62
7
  6
CENTER
 62
7
 10
120.691253013367
 20
30.603117466579
 40
3.15
  1
製 図
  7
Font_0
 72
1
 11
124.628753013367
 21
32.178117466579
 73
2
  0
TEXT
  8
画層12
 62
7
  6
CENTER
 62
7
 10
152.691253013367
 20
30.603117466579
 40
3.15
  1
検 図
  7
Font_0
 72
1
 11
156.628753013367
 21
32.178117466579
 73
2
  0
TEXT
  8
画層12
 62
7
  6
CENTER
 62
7
 10
168.691253013367
 20
30.603117466579
 40
3.15
  1
承 認
  7
Font_0
 72
1
 11
172.628753013367
 21
32.178117466579
 73
2
  0
LINE
  8
画層12
  6
CONTINUOUS
 62
7
 10
164.628753013367
 20
14.678117466579
 11
164.628753013367
 21
47.178117466579
  0
LINE
  8
画層12
  6
CONTINUOUS
 62
7
 10
148.628753013367
 20
14.678117466579
 11
148.628753013367
 21
34.678117466579
  0
LINE
  8
画層12
  6
CONTINUOUS
 62
7
 10
132.628753013367
 20
14.678117466579
 11
132.628753013367
 21
34.678117466579
  0
LINE
  8
画層12
  6
CONTINUOUS
 62
7
 10
116.628753013367
 20
14.678117466579
 11
116.628753013367
 21
47.178117466579
  0
LINE
  8
画層12
  6
CONTINUOUS
 62
7
 10
95.6287530133674
 20
14.678117466579
 11
95.6287530133674
 21
47.178117466579
  0
LINE
  8
画層12
  6
CONTINUOUS
 62
7
 10
285.628753013368
 20
105.678117466579
 11
288.128753013368
 21
105.678117466579
  0
LINE
  8
画層12
  6
CONTINUOUS
 62
7
 10
10.6287530133684
 20
105.678117466579
 11
8.1287530133684
 21
105.678117466579
  0
LINE
  8
画層12
  6
CONTINUOUS
 62
7
 10
137.804054824826
 20
12.1990038753681
 11
132.128753013368
 21
12.1990038753681
  0
LINE
  8
画層12
  6
CONTINUOUS
 62
7
 10
135.542796198904
 20
11.2037301464051
 11
137.804054824826
 21
11.2037301464051
  0
LINE
  8
画層12
  6
CONTINUOUS
 62
7
 10
135.542796198904
 20
7.67811746657901
 11
135.542796198904
 21
11.2037301464051
  0
LINE
  8
画層12
  6
CONTINUOUS
 62
7
 10
134.354445580271
 20
11.2037301464051
 11
134.354445580271
 21
7.67811746657901
  0
LINE
  8
画層12
  6
CONTINUOUS
 62
7
 10
132.128753013368
 20
11.2037301464051
 11
134.354445580271
 21
11.2037301464051
  0
LINE
  8
画層12
  6
CONTINUOUS
 62
7
 10
137.804054824826
 20
11.2037301464051
 11
137.804054824826
 21
12.1990038753681
  0
ARC
  8
画層12
  6
CONTINUOUS
 62
7
 10
138.77375992813
 20
9.96873050084866
 40
1.19452833626337
 50
90
 51
180
  0
LINE
  8
画層12
  6
CONTINUOUS
 62
7
 10
137.579231591867
 20
9.96873050084866
 11
137.579231591867
 21
8.87264580284236
  0
LINE
  8
画層12
  6
CONTINUOUS
 62
7
 10
141.732280863148
 20
11.163258837112
 11
138.77375992813
 21
11.163258837112
  0
ARC
  8
画層12
  6
CONTINUOUS
 62
7
 10
138.71367873232
 20
10.1119675142057
 40
0.162890227672278
 50
90
 51
180
  0
LINE
  8
画層12
  6
CONTINUOUS
 62
7
 10
138.550788504648
 20
10.1119675142057
 11
138.550788504648
 21
8.73615077002304
  0
LINE
  8
画層12
  6
CONTINUOUS
 62
7
 10
141.649873075532
 20
10.274857741878
 11
138.71367873232
 21
10.274857741878
  0
ARC
  8
画層12
  6
CONTINUOUS
 62
7
 10
138.77375992813
 20
8.87264580284236
 40
1.19452833626337
 50
180
 51
270
  0
LINE
  8
画層12
  6
CONTINUOUS
 62
7
 10
132.128753013368
 20
12.1990038753681
 11
132.128753013368
 21
11.2037301464051
  0
ARC
  8
画層12
  6
CONTINUOUS
 62
7
 10
138.71367873232
 20
8.73615077002304
 40
0.162890227672278
 50
180
 51
270
  0
LINE
  8
画層12
  6
CONTINUOUS
 62
7
 10
134.354445580271
 20
7.67811746657901
 11
135.542796198904
 21
7.67811746657901
  0
LINE
  8
画層12
  6
CONTINUOUS
 62
7
 10
138.71367873232
 20
8.57326054235077
 11
141.649873075532
 21
8.57326054235077
  0
LINE
  8
画層12
  6
CONTINUOUS
 62
7
 10
138.77375992813
 20
7.67811746657901
 11
141.732280863148
 21
7.67811746657901
  0
ARC
  8
画層12
  6
CONTINUOUS
 62
7
 10
141.732280863148
 20
9.96873050084866
 40
1.19452833626337
 50
0
 51
90
  0
ARC
  8
画層12
  6
CONTINUOUS
 62
7
 10
141.649873075532
 20
10.1119675142057
 40
0.162890227672278
 50
0
 51
90
  0
LINE
  8
画層12
  6
CONTINUOUS
 62
7
 10
141.812763303204
 20
8.73615077002304
 11
141.812763303204
 21
10.1119675142057
  0
ARC
  8
画層12
  6
CONTINUOUS
 62
7
 10
141.649873075532
 20
8.73615077002304
 40
0.162890227672278
 50
270
 51
0
  0
ARC
  8
画層12
  6
CONTINUOUS
 62
7
 10
141.732280863148
 20
8.87264580284236
 40
1.19452833626337
 50
270
 51
0
  0
LINE
  8
画層12
  6
CONTINUOUS
 62
7
 10
142.926809199412
 20
8.87264580284236
 11
142.926809199412
 21
9.96873050084866
  0
LINE
  8
画層12
  6
CONTINUOUS
 62
7
 10
143.472257458171
 20
12.1990038753681
 11
143.472257458171
 21
7.67811746657901
  0
LINE
  8
画層12
  6
CONTINUOUS
 62
7
 10
144.527923244277
 20
12.1990038753681
 11
143.472257458171
 21
12.1990038753681
  0
LINE
  8
画層12
  6
CONTINUOUS
 62
7
 10
144.527923244277
 20
9.61371662847364
 11
144.527923244277
 21
12.1990038753681
  0
LINE
  8
画層12
  6
CONTINUOUS
 62
7
 10
143.472257458171
 20
7.67811746657901
 11
144.527923244277
 21
7.67811746657901
  0
ARC
  8
画層12
  6
CONTINUOUS
 62
7
 10
144.636516729392
 20
9.61371662847364
 40
0.108593485114852
 50
180
 51
305.751288374722
  0
ARC
  8
画層12
  6
CONTINUOUS
 62
7
 10
144.636516729392
 20
9.22819907169244
 40
0.108593485114852
 50
52.9521908437076
 51
180
  0
LINE
  8
画層12
  6
CONTINUOUS
 62
7
 10
144.527923244277
 20
7.67811746657901
 11
144.527923244277
 21
9.22819907169244
  0
LINE
  8
画層12
  6
CONTINUOUS
 62
7
 10
146.964049399554
 20
11.1555716648859
 11
144.699964418506
 21
9.52558640803016
  0
LINE
  8
画層12
  6
CONTINUOUS
 62
7
 10
146.870220991685
 20
7.67811746657901
 11
144.701942264435
 21
9.31487112239944
  0
LINE
  8
画層12
  6
CONTINUOUS
 62
7
 10
148.626134183916
 20
11.1555716648859
 11
146.026760605811
 21
9.41902747540382
  0
LINE
  8
画層12
  6
CONTINUOUS
 62
7
 10
146.026760605811
 20
9.41902747540382
 11
148.682339992156
 21
7.67811746657901
  0
LINE
  8
画層12
  6
CONTINUOUS
 62
7
 10
148.626134183916
 20
11.1555716648859
 11
146.964049399554
 21
11.1555716648859
  0
LINE
  8
画層12
  6
CONTINUOUS
 62
7
 10
146.870220991685
 20
7.67811746657901
 11
148.682339992156
 21
7.67811746657901
  0
LINE
  8
画層12
  6
CONTINUOUS
 62
7
 10
149.353580708316
 20
12.1990038753681
 11
149.353580708316
 21
11.403210247379
  0
LINE
  8
画層12
  6
CONTINUOUS
 62
7
 10
150.408660111865
 20
12.1990038753681
 11
149.353580708316
 21
12.1990038753681
  0
LINE
  8
画層12
  6
CONTINUOUS
 62
7
 10
149.353580708316
 20
11.403210247379
 11
150.408660111865
 21
11.403210247379
  0
LINE
  8
画層12
  6
CONTINUOUS
 62
7
 10
150.408660111865
 20
11.1555716648859
 11
149.353580708316
 21
11.1555716648859
  0
LINE
  8
画層12
  6
CONTINUOUS
 62
7
 10
149.353580708316
 20
11.1555716648859
 11
149.353580708316
 21
7.67811746657901
  0
LINE
  8
画層12
  6
CONTINUOUS
 62
7
 10
149.353580708316
 20
7.67811746657901
 11
150.408660111865
 21
7.67811746657901
  0
LINE
  8
画層12
  6
CONTINUOUS
 62
7
 10
150.408660111865
 20
11.403210247379
 11
150.408660111865
 21
12.1990038753681
  0
LINE
  8
画層12
  6
CONTINUOUS
 62
7
 10
150.408660111865
 20
7.67811746657901
 11
150.408660111865
 21
11.1555716648859
  0
LINE
  8
画層12
  6
CONTINUOUS
 62
7
 10
151.025302370888
 20
11.1555716648859
 11
155.154525530936
 21
11.1555716648859
  0
LINE
  8
画層12
  6
CONTINUOUS
 62
7
 10
151.025302370888
 20
7.67811746657901
 11
151.025302370888
 21
11.1555716648859
  0
LINE
  8
画層12
  6
CONTINUOUS
 62
7
 10
152.085182671431
 20
7.67811746657901
 11
151.025302370888
 21
7.67811746657901
  0
LINE
  8
画層12
  6
CONTINUOUS
 62
7
 10
152.085182671431
 20
10.2646411443569
 11
152.085182671431
 21
7.67811746657901
  0
LINE
  8
画層12
  6
CONTINUOUS
 62
7
 10
154.92719528294
 20
10.2646411443569
 11
152.085182671431
 21
10.2646411443569
  0
ARC
  8
画層12
  6
CONTINUOUS
 62
7
 10
154.92719528294
 20
10.0474541741272
 40
0.217186970229704
 50
0
 51
90
  0
ARC
  8
画層12
  6
CONTINUOUS
 62
7
 10
155.154525530936
 20
10.1058346421091
 40
1.04973702277687
 50
0
 51
90
  0
LINE
  8
画層12
  6
CONTINUOUS
 62
7
 10
155.14438225317
 20
7.67811746657901
 11
155.14438225317
 21
10.0474541741272
  0
LINE
  8
画層12
  6
CONTINUOUS
 62
7
 10
156.204262553713
 20
7.67811746657901
 11
155.14438225317
 21
7.67811746657901
  0
LINE
  8
画層12
  6
CONTINUOUS
 62
7
 10
156.204262553713
 20
10.1058346421091
 11
156.204262553713
 21
7.67811746657901
  0
LINE
  8
画層12
  6
CONTINUOUS
 62
7
 10
160.959651782613
 20
11.1555716648859
 11
156.843477544022
 21
11.1555716648859
  0
LINE
  8
画層12
  6
CONTINUOUS
 62
7
 10
156.843477544022
 20
11.1555716648859
 11
156.843477544022
 21
10.3677010970793
  0
LINE
  8
画層12
  6
CONTINUOUS
 62
7
 10
156.843477544022
 20
10.3677010970793
 11
160.885950550121
 21
10.3677010970793
  0
POLYLINE
  8
画層12
 62
7
  6
CONTINUOUS
 10
0.0
 20
0.0
 30
0.0
 66
1
  0
VERTEX
  8
画層12
 10
157.96759300361
  20
9.78152949075616
  0
VERTEX
  8
画層12
 10
157.738412223975
  20
9.77433104512254
  0
VERTEX
  8
画層12
 10
157.50995011842
  20
9.75005965934011
  0
VERTEX
  8
画層12
 10
157.312737861447
  20
9.70734457179189
  0
VERTEX
  8
画層12
 10
157.156795654169
  20
9.65026653567682
  0
VERTEX
  8
画層12
 10
157.039172049178
  20
9.58429755399915
  0
VERTEX
  8
画層12
 10
156.945189821778
  20
9.50872964611111
  0
VERTEX
  8
画層12
 10
156.874594689339
  20
9.42393106546667
  0
VERTEX
  8
画層12
 10
156.822178673956
  20
9.33431733518819
  0
VERTEX
  8
画層12
 10
156.786625632969
  20
9.22923511385818
  0
VERTEX
  8
画層12
 10
156.766899116062
  20
9.11137677843973
  0
VERTEX
  8
画層12
 10
156.763183683367
  20
8.98691568097888
  0
SEQEND
100
AcDbEntity
  8
画層12
  0
LINE
  8
画層12
  6
CONTINUOUS
 62
7
 10
156.763183683367
 20
8.98691568097888
 11
156.763183683367
 21
8.45717326727066
  0
POLYLINE
  8
画層12
 62
7
  6
CONTINUOUS
 10
0.0
 20
0.0
 30
0.0
 66
1
  0
VERTEX
  8
画層12
 10
157.96759300361
  20
7.67811746657901
  0
VERTEX
  8
画層12
 10
157.738412223975
  20
7.68531591221262
  0
VERTEX
  8
画層12
 10
157.50995011842
  20
7.70958729799503
  0
VERTEX
  8
画層12
 10
157.312737861447
  20
7.75230238554328
  0
VERTEX
  8
画層12
 10
157.156795654169
  20
7.80938042165832
  0
VERTEX
  8
画層12
 10
157.039172049178
  20
7.87534940333602
  0
VERTEX
  8
画層12
 10
156.945189821778
  20
7.95091731122403
  0
VERTEX
  8
画層12
 10
156.874594689339
  20
8.03571589186848
  0
VERTEX
  8
画層12
 10
156.822178673956
  20
8.12532962214696
  0
VERTEX
  8
画層12
 10
156.786625632969
  20
8.23041184347696
  0
VERTEX
  8
画層12
 10
156.766899116062
  20
8.34827017889542
  0
VERTEX
  8
画層12
 10
156.763183683367
  20
8.47273127635628
  0
SEQEND
100
AcDbEntity
  8
画層12
  0
LINE
  8
画層12
  6
CONTINUOUS
 62
7
 10
161.066939691979
 20
9.78152949075616
 11
157.96759300361
 21
9.78152949075616
  0
LINE
  8
画層12
  6
CONTINUOUS
 62
7
 10
157.96759300361
 20
8.98691568097888
 11
157.96759300361
 21
8.45717326727066
  0
LINE
  8
画層12
  6
CONTINUOUS
 62
7
 10
161.066939691979
 20
8.98691568097888
 11
157.96759300361
 21
8.98691568097888
  0
LINE
  8
画層12
  6
CONTINUOUS
 62
7
 10
157.96759300361
 20
8.45717326727066
 11
161.066939691979
 21
8.45717326727066
  0
LINE
  8
画層12
  6
CONTINUOUS
 62
7
 10
157.967593002808
 20
7.67811746657901
 11
157.96759300361
 21
7.67811746657901
  0
LINE
  8
画層12
  6
CONTINUOUS
 62
7
 10
157.96759300361
 20
7.67811746657901
 11
162.128763905351
 21
7.67811746657901
  0
ARC
  8
画層12
  6
CONTINUOUS
 62
7
 10
160.885950550121
 20
10.1867119552212
 40
0.180989141858106
 50
0
 51
90
  0
POLYLINE
  8
画層12
 62
7
  6
CONTINUOUS
 10
0.0
 20
0.0
 30
0.0
 66
1
  0
VERTEX
  8
画層12
 10
162.128763905351
  20
9.98160511421244
  0
VERTEX
  8
画層12
 10
162.113691515145
  20
10.2114764392956
  0
VERTEX
  8
画層12
 10
162.079086186167
  20
10.4323150513807
  0
VERTEX
  8
画層12
 10
162.006980001985
  20
10.6387828269386
  0
VERTEX
  8
画層12
 10
161.886484975429
  20
10.813903732799
  0
VERTEX
  8
画層12
 10
161.723215535822
  20
10.9558303878675
  0
VERTEX
  8
画層12
 10
161.520986378095
  20
11.0544992254773
  0
VERTEX
  8
画層12
 10
161.31252696227
  20
11.1118536504698
  0
VERTEX
  8
画層12
 10
161.121667760788
  20
11.1424530949024
  0
VERTEX
  8
画層12
 10
160.959651782613
  20
11.1555716648859
  0
SEQEND
100
AcDbEntity
  8
画層12
  0
LINE
  8
画層12
  6
CONTINUOUS
 62
7
 10
161.066939691979
 20
10.1867119552212
 11
161.066939691979
 21
9.78152949075616
  0
LINE
  8
画層12
  6
CONTINUOUS
 62
7
 10
161.066939691979
 20
8.45717326727066
 11
161.066939691979
 21
8.98691568097888
  0
LINE
  8
画層12
  6
CONTINUOUS
 62
7
 10
162.128763905351
 20
7.67811746657901
 11
162.128763905351
 21
9.98160511421244
  0
TEXT
  8
画層0
 62
7
  6
CONTINUOUS
 62
7
 10
240.698663160202
 20
27.3532873109796
 40
3.3
  1
ＫＣＭ－２－１１０Ｃ
  7
Font_0
  0
TEXT
  8
画層0
 62
7
  6
CONTINUOUS
 62
7
 10
241.502361834789
 20
17.6612276278196
 40
4
  1
ＫＶＴ－１０１２
  7
Font_0
 72
1
 11
257.502361834789
 21
19.6612276278196
 73
2
  0
TEXT
  8
画層0
 62
7
  6
CENTER
 62
7
 10
239.878753013368
 20
41.678117466579
 40
3.5
  1
サテン黒アルマイト
  7
Font_0
 72
1
 11
255.628753013368
 21
43.428117466579
 73
2
  0
TEXT
  8
画層0
 62
7
  6
CENTER
 62
7
 10
190.878753013367
 20
41.678117466579
 40
3.5
  1
Ａ５０５２ＴＤ
  7
Font_0
 72
1
 11
203.128753013367
 21
43.428117466579
 73
2
  0
TEXT
  8
画層0
 62
7
  6
CENTER
 62
7
 10
171.728753013367
 20
41.628117466579
 40
3.6
  1
1
  7
Font_0
 72
1
 11
172.628753013367
 21
43.428117466579
 73
2
  0
TEXT
  8
画層0
 62
7
  6
CENTER
 62
7
 10
133.428753013367
 20
41.7604140937172
 40
3.6
  1
組 立 図
  7
Font_0
 72
1
 11
140.628753013367
 21
43.5604140937172
 73
2
  0
TEXT
  8
画層0
 62
7
  6
CENTER
 62
7
 10
100.728753013367
 20
41.628117466579
 40
3.6
  1
０００
  7
Font_0
 72
1
 11
106.128753013367
 21
43.428117466579
 73
2
  0
TEXT
  8
画層0
 62
7
  6
CONTINUOUS
 62
7
 10
135.370503011456
 20
22.4592161170757
 40
3.6
 41
0.973750000353902
  1
宇賀田
  7
Font_0
 72
1
 11
140.628753013367
 21
24.2592161170757
 73
2
  0
TEXT
  8
画層0
 62
7
  6
CONTINUOUS
 62
7
 10
168.246878011775
 20
22.4592161170757
 40
3.6
 41
0.973750000353902
  1
藤 田
  7
Font_0
 72
1
 11
172.628753013367
 21
24.2592161170757
 73
2
  0
TEXT
  8
画層0
 62
7
  6
CONTINUOUS
 62
7
 10
200.828753013367
 20
17.678117466579
 40
4
 41
1.2
  1
C0.1
  7
Font_0
 72
1
 11
205.628753013367
 21
19.678117466579
 73
2
  0
TEXT
  8
画層0
 62
7
  6
CONTINUOUS
 62
7
 10
152.246878011775
 20
22.4592161170757
 40
3.6
 41
0.973750000353902
  1
藤 田
  7
Font_0
 72
1
 11
156.628753013367
 21
24.2592161170757
 73
2
  0
TEXT
  8
画層0
 62
7
  6
CONTINUOUS
 62
7
 10
119.370503011456
 20
22.4592161170757
 40
3.6
 41
0.973750000353902
  1
宇賀田
  7
Font_0
 72
1
 11
124.628753013367
 21
24.2592161170757
 73
2
  0
TEXT
  8
画層0
 62
7
  6
CONTINUOUS
 62
7
 10
121.137153013367
 20
18.3722304684827
 40
2.03
 41
0.86
  1
10/06/01
  7
Font_0
 72
1
 11
124.628753013367
 21
19.3872304684827
 73
2
  0
INSERT
  8
画層0
  6
CONTINUOUS
 62
7
  2
13462_KCAD_FINI
 10
201.933711290554
 20
27.7117494972845
 30
0.0
  0
TEXT
  8
画層0
 62
7
  6
CONTINUOUS
 62
7
 10
137.137153013367
 20
18.3722304684827
 40
2.03
 41
0.86
  1
10/06/01
  7
Font_0
 72
1
 11
140.628753013367
 21
19.3872304684827
 73
2
  0
TEXT
  8
画層0
 62
7
  6
CONTINUOUS
 62
7
 10
153.137153013367
 20
18.3722304684827
 40
2.03
 41
0.86
  1
10/06/01
  7
Font_0
 72
1
 11
156.628753013367
 21
19.3872304684827
 73
2
  0
TEXT
  8
画層0
 62
7
  6
CONTINUOUS
 62
7
 10
169.137153013367
 20
18.3722304684827
 40
2.03
 41
0.86
  1
10/06/01
  7
Font_0
 72
1
 11
172.628753013367
 21
19.3872304684827
 73
2
  0
LINE
  8
画層0
  6
CENTER
 62
7
 10
145.029522554445
 20
116.678117466579
 11
249.954536066416
 21
116.678117466579
  0
LINE
  8
画層0
  6
CENTER
 62
7
 10
38.4515082524189
 20
116.678117466579
 11
138.579221105492
 21
116.678117466579
  0
LINE
  8
画層0
  6
CONTINUOUS
 62
7
 10
151.628753013368
 20
108.978117466579
 11
151.928753013368
 21
108.678117466579
  0
LINE
  8
画層0
  6
CONTINUOUS
 62
7
 10
185.978753013368
 20
108.678117466579
 11
201.778753013368
 21
108.678117466579
  0
LINE
  8
画層0
  6
CONTINUOUS
 62
7
 10
185.778753013368
 20
108.678117466579
 11
151.928753013368
 21
108.678117466579
  0
LINE
  8
画層0
  6
CONTINUOUS
 62
7
 10
201.978753013368
 20
108.678117466579
 11
231.228753013368
 21
108.678117466579
  0
LINE
  8
画層0
  6
CONTINUOUS
 62
7
 10
201.878753013368
 20
108.778117466579
 11
201.778753013368
 21
108.678117466579
  0
LINE
  8
画層0
  6
CONTINUOUS
 62
7
 10
201.978753013368
 20
108.678117466579
 11
201.878753013368
 21
108.778117466579
  0
LINE
  8
画層0
  6
CONTINUOUS
 62
7
 10
185.878753013368
 20
108.778117466579
 11
185.978753013368
 21
108.678117466579
  0
LINE
  8
画層0
  6
CONTINUOUS
 62
7
 10
185.778753013368
 20
108.678117466579
 11
185.878753013368
 21
108.778117466579
  0
LINE
  8
画層0
  6
CONTINUOUS
 62
7
 10
41.6287530133684
 20
113.909290466579
 11
41.6287530133684
 21
119.446944466579
  0
LINE
  8
画層0
  6
CONTINUOUS
 62
7
 10
238.728753013368
 20
103.978117466579
 11
238.728753013368
 21
129.378117466579
  0
LINE
  8
画層0
  6
CONTINUOUS
 62
7
 10
237.428753013368
 20
101.178117466579
 11
237.428753013368
 21
132.178117466579
  0
LINE
  8
画層0
  6
CONTINUOUS
 62
7
 10
231.728753013368
 20
101.178117466579
 11
231.728753013368
 21
132.178117466579
  0
LINE
  8
画層0
  6
CONTINUOUS
 62
7
 10
231.728753013368
 20
101.178117466579
 11
231.228753013368
 21
101.678117466579
  0
LINE
  8
画層0
  6
CONTINUOUS
 62
7
 10
237.728753013368
 20
101.478117466579
 11
237.428753013368
 21
101.178117466579
  0
LINE
  8
画層0
  6
CONTINUOUS
 62
7
 10
237.428753013368
 20
101.178117466579
 11
231.728753013368
 21
101.178117466579
  0
LINE
  8
画層0
  6
CONTINUOUS
 62
7
 10
241.128753013368
 20
103.978117466579
 11
241.128753013368
 21
129.378117466579
  0
LINE
  8
画層0
  6
CONTINUOUS
 62
7
 10
241.128753013368
 20
103.978117466579
 11
241.728753013368
 21
104.578117466579
  0
LINE
  8
画層0
  6
CONTINUOUS
 62
7
 10
241.728753013368
 20
104.578117466579
 11
241.728753013368
 21
128.778117466579
  0
LINE
  8
画層0
  6
CONTINUOUS
 62
7
 10
241.128753013368
 20
103.978117466579
 11
238.728753013368
 21
103.978117466579
  0
LINE
  8
画層0
  6
CONTINUOUS
 62
7
 10
237.728753013368
 20
104.428117466579
 11
241.578753013368
 21
104.428117466579
  0
LINE
  8
画層0
  6
CONTINUOUS
 62
7
 10
231.228753013368
 20
101.678117466579
 11
231.228753013368
 21
131.678117466579
  0
LINE
  8
画層0
  6
CONTINUOUS
 62
7
 10
237.728753013368
 20
101.478117466579
 11
237.728753013368
 21
131.878117466579
  0
LINE
  8
画層0
  6
CONTINUOUS
 62
7
 10
151.628753013368
 20
108.978117466579
 11
151.628753013368
 21
124.378117466579
  0
LINE
  8
画層0
  6
CONTINUOUS
 62
7
 10
185.878753013368
 20
124.578117466579
 11
185.878753013368
 21
108.778117466579
  0
LINE
  8
画層0
  6
CONTINUOUS
 62
7
 10
151.928753013368
 20
124.678117466579
 11
151.928753013368
 21
108.678117466579
  0
LINE
  8
画層0
  6
CONTINUOUS
 62
7
 10
237.728753013368
 20
128.928117466579
 11
241.578753013368
 21
128.928117466579
  0
LINE
  8
画層0
  6
CONTINUOUS
 62
7
 10
241.128753013368
 20
129.378117466579
 11
238.728753013368
 21
129.378117466579
  0
LINE
  8
画層0
  6
CONTINUOUS
 62
7
 10
241.128753013368
 20
129.378117466579
 11
241.728753013368
 21
128.778117466579
  0
LINE
  8
画層0
  6
CONTINUOUS
 62
7
 10
237.428753013368
 20
132.178117466579
 11
231.728753013368
 21
132.178117466579
  0
LINE
  8
画層0
  6
CONTINUOUS
 62
7
 10
237.728753013368
 20
131.878117466579
 11
237.428753013368
 21
132.178117466579
  0
LINE
  8
画層0
  6
CONTINUOUS
 62
7
 10
231.728753013368
 20
132.178117466579
 11
231.228753013368
 21
131.678117466579
  0
LINE
  8
画層0
  6
CONTINUOUS
 62
7
 10
201.878753013368
 20
124.578117466579
 11
201.878753013368
 21
108.778117466579
  0
LINE
  8
画層0
  6
CONTINUOUS
 62
7
 10
185.778753013368
 20
124.678117466579
 11
185.878753013368
 21
124.578117466579
  0
LINE
  8
画層0
  6
CONTINUOUS
 62
7
 10
185.878753013368
 20
124.578117466579
 11
185.978753013368
 21
124.678117466579
  0
LINE
  8
画層0
  6
CONTINUOUS
 62
7
 10
201.978753013368
 20
124.678117466579
 11
201.878753013368
 21
124.578117466579
  0
LINE
  8
画層0
  6
CONTINUOUS
 62
7
 10
201.878753013368
 20
124.578117466579
 11
201.778753013368
 21
124.678117466579
  0
LINE
  8
画層0
  6
CONTINUOUS
 62
7
 10
201.978753013368
 20
124.678117466579
 11
231.228753013368
 21
124.678117466579
  0
LINE
  8
画層0
  6
CONTINUOUS
 62
7
 10
185.778753013368
 20
124.678117466579
 11
151.928753013368
 21
124.678117466579
  0
LINE
  8
画層0
  6
CONTINUOUS
 62
7
 10
185.978753013368
 20
124.678117466579
 11
201.778753013368
 21
124.678117466579
  0
LINE
  8
画層0
  6
CONTINUOUS
 62
7
 10
151.628753013368
 20
124.378117466579
 11
151.928753013368
 21
124.678117466579
  0
CIRCLE
  8
画層0
  6
CONTINUOUS
 62
7
 10
234.528753013368
 20
116.678117466579
 40
1.25
  0
CIRCLE
  8
画層0
  6
CONTINUOUS
 62
7
 10
234.528753013368
 20
116.678117466579
 40
1.50000000000011
  0
LINE
  8
画層0
  6
CENTER
 62
7
 10
234.528753013368
 20
119.678117466579
 11
234.528753013368
 21
113.678117466579
  0
LINE
  8
画層1
  6
CONTINUOUS
 62
7
 10
41.6287530133684
 20
86.2426852879144
 11
41.6287530133684
 21
112.909290466579
  0
LINE
  8
画層1
  6
CONTINUOUS
 62
7
 10
151.628753013368
 20
86.2426852879144
 11
151.628753013368
 21
107.978117466579
  0
LINE
  8
画層1
  6
CONTINUOUS
 62
7
 10
44.6287530133684
 20
87.2426852879144
 11
148.628753013368
 21
87.2426852879144
  0
TEXT
  8
画層1
 62
7
  6
BYLAYER
 62
7
 10
87.8287530133685
 20
87.7759852879144
 40
3.2
  1
W.D.=110%%p2
  7
Font_0
 72
1
 11
96.6287530133685
 21
89.3759852879144
 73
2
  0
LINE
  8
画層0
  6
CONTINUOUS
 62
7
 10
44.6287530133684
 20
86.4388382879144
 11
41.6287530133684
 21
87.2426852879144
  0
LINE
  8
画層0
  6
CONTINUOUS
 62
7
 10
41.6287530133684
 20
87.2426852879144
 11
44.6287530133684
 21
88.0465322879144
  0
LINE
  8
画層0
  6
CONTINUOUS
 62
7
 10
41.6287530133684
 20
87.2426852879144
 11
44.6287530133684
 21
87.2426852879144
  0
LINE
  8
画層0
  6
CONTINUOUS
 62
7
 10
148.628753013368
 20
88.0465322879144
 11
151.628753013368
 21
87.2426852879144
  0
LINE
  8
画層0
  6
CONTINUOUS
 62
7
 10
151.628753013368
 20
87.2426852879144
 11
148.628753013368
 21
86.4388382879144
  0
LINE
  8
画層0
  6
CONTINUOUS
 62
7
 10
151.628753013368
 20
87.2426852879144
 11
148.628753013368
 21
87.2426852879144
  0
LINE
  8
画層1
  6
CONTINUOUS
 62
7
 10
237.728753013368
 20
86.2426852879144
 11
237.728753013368
 21
100.478117466579
  0
LINE
  8
画層1
  6
CONTINUOUS
 62
7
 10
154.628753013368
 20
87.2426852879144
 11
234.728753013368
 21
87.2426852879144
  0
TEXT
  8
画層1
 62
7
  6
BYLAYER
 62
7
 10
191.478753013368
 20
87.7759852879144
 40
3.2
  1
86.1
  7
Font_0
 72
1
 11
194.678753013368
 21
89.3759852879144
 73
2
  0
LINE
  8
画層0
  6
CONTINUOUS
 62
7
 10
154.628753013368
 20
86.4388382879144
 11
151.628753013368
 21
87.2426852879144
  0
LINE
  8
画層0
  6
CONTINUOUS
 62
7
 10
151.628753013368
 20
87.2426852879144
 11
154.628753013368
 21
88.0465322879144
  0
LINE
  8
画層0
  6
CONTINUOUS
 62
7
 10
151.628753013368
 20
87.2426852879144
 11
154.628753013368
 21
87.2426852879144
  0
LINE
  8
画層0
  6
CONTINUOUS
 62
7
 10
234.728753013368
 20
88.0465322879144
 11
237.728753013368
 21
87.2426852879144
  0
LINE
  8
画層0
  6
CONTINUOUS
 62
7
 10
237.728753013368
 20
87.2426852879144
 11
234.728753013368
 21
86.4388382879144
  0
LINE
  8
画層0
  6
CONTINUOUS
 62
7
 10
237.728753013368
 20
87.2426852879144
 11
234.728753013368
 21
87.2426852879144
  0
LINE
  8
画層1
  6
CONTINUOUS
 62
7
 10
241.728753013368
 20
86.2426852879144
 11
241.728753013368
 21
103.578117466579
  0
LINE
  8
画層1
  6
CONTINUOUS
 62
7
 10
237.728753013368
 20
87.2426852879144
 11
241.728753013368
 21
87.2426852879144
  0
LINE
  8
画層1
  6
CONTINUOUS
 62
7
 10
235.728753013368
 20
87.2426852879144
 11
233.728753013368
 21
87.2426852879144
  0
LINE
  8
画層1
  6
CONTINUOUS
 62
7
 10
244.728753013368
 20
87.2426852879144
 11
248.395386346701
 21
87.2426852879144
  0
TEXT
  8
画層1
 62
7
  6
BYLAYER
 62
7
 10
246.528719680035
 20
87.7759852879144
 40
3.2
  1
4
  7
Font_0
 72
1
 11
247.328719680035
 21
89.3759852879144
 73
2
  0
LINE
  8
画層0
  6
CONTINUOUS
 62
7
 10
237.728753013368
 20
87.2426852879144
 11
235.728753013368
 21
87.2426852879144
  0
LINE
  8
画層0
  6
CONTINUOUS
 62
7
 10
244.728753013368
 20
86.4388382879144
 11
241.728753013368
 21
87.2426852879144
  0
LINE
  8
画層0
  6
CONTINUOUS
 62
7
 10
241.728753013368
 20
87.2426852879144
 11
244.728753013368
 21
88.0465322879144
  0
LINE
  8
画層0
  6
CONTINUOUS
 62
7
 10
241.728753013368
 20
87.2426852879144
 11
244.728753013368
 21
87.2426852879144
  0
LINE
  8
画層1
  6
CONTINUOUS
 62
7
 10
142.830243416868
 20
124.678117466579
 11
150.928753013368
 21
124.678117466579
  0
LINE
  8
画層1
  6
CONTINUOUS
 62
7
 10
142.830243416868
 20
108.678117466579
 11
150.928753013368
 21
108.678117466579
  0
LINE
  8
画層1
  6
CONTINUOUS
 62
7
 10
143.830243416868
 20
121.678117466579
 11
143.830243416868
 21
111.678117466579
  0
TEXT
  8
画層1
 62
7
  6
BYLAYER
 62
7
 10
143.296943416868
 20
113.478117466579
 40
3.2
  1
%%c16
  7
Font_0
 50
90
 72
1
 11
141.696943416868
 21
116.678117466579
 73
2
  0
LINE
  8
画層0
  6
CONTINUOUS
 62
7
 10
143.026396416868
 20
121.678117466579
 11
143.830243416868
 21
124.678117466579
  0
LINE
  8
画層0
  6
CONTINUOUS
 62
7
 10
143.830243416868
 20
124.678117466579
 11
144.634090416868
 21
121.678117466579
  0
LINE
  8
画層0
  6
CONTINUOUS
 62
7
 10
143.830243416868
 20
124.678117466579
 11
143.830243416868
 21
121.678117466579
  0
LINE
  8
画層0
  6
CONTINUOUS
 62
7
 10
144.634090416869
 20
111.678117466579
 11
143.830243416868
 21
108.678117466579
  0
LINE
  8
画層0
  6
CONTINUOUS
 62
7
 10
143.830243416868
 20
108.678117466579
 11
143.026396416868
 21
111.678117466579
  0
LINE
  8
画層0
  6
CONTINUOUS
 62
7
 10
143.830243416868
 20
108.678117466579
 11
143.830243416868
 21
111.678117466579
  0
LINE
  8
画層1
  6
CONTINUOUS
 62
7
 10
262.045382354588
 20
101.178117466579
 11
238.428753013368
 21
101.178117466579
  0
LINE
  8
画層1
  6
CONTINUOUS
 62
7
 10
262.045382354588
 20
132.178117466579
 11
238.428753013368
 21
132.178117466579
  0
LINE
  8
画層1
  6
CONTINUOUS
 62
7
 10
261.045382354588
 20
104.178117466579
 11
261.045382354588
 21
129.178117466579
  0
TEXT
  8
画層1
 62
7
  6
BYLAYER
 62
7
 10
260.512082354588
 20
113.478117466579
 40
3.2
  1
%%c31
  7
Font_0
 50
90
 72
1
 11
258.912082354588
 21
116.678117466579
 73
2
  0
LINE
  8
画層0
  6
CONTINUOUS
 62
7
 10
261.849229354588
 20
104.178117466579
 11
261.045382354588
 21
101.178117466579
  0
LINE
  8
画層0
  6
CONTINUOUS
 62
7
 10
261.045382354588
 20
101.178117466579
 11
260.241535354588
 21
104.178117466579
  0
LINE
  8
画層0
  6
CONTINUOUS
 62
7
 10
261.045382354588
 20
101.178117466579
 11
261.045382354588
 21
104.178117466579
  0
LINE
  8
画層0
  6
CONTINUOUS
 62
7
 10
260.241535354588
 20
129.178117466579
 11
261.045382354588
 21
132.178117466579
  0
LINE
  8
画層0
  6
CONTINUOUS
 62
7
 10
261.045382354588
 20
132.178117466579
 11
261.849229354588
 21
129.178117466579
  0
LINE
  8
画層0
  6
CONTINUOUS
 62
7
 10
261.045382354588
 20
132.178117466579
 11
261.045382354588
 21
129.178117466579
  0
LINE
  8
画層1
  6
CONTINUOUS
 62
7
 10
256.06054924085
 20
103.978117466579
 11
242.128753013368
 21
103.978117466579
  0
LINE
  8
画層1
  6
CONTINUOUS
 62
7
 10
256.06054924085
 20
129.378117466579
 11
242.128753013368
 21
129.378117466579
  0
LINE
  8
画層1
  6
CONTINUOUS
 62
7
 10
255.06054924085
 20
106.978117466579
 11
255.06054924085
 21
126.378117466579
  0
TEXT
  8
画層1
 62
7
  6
BYLAYER
 62
7
 10
254.52724924085
 20
108.678117466579
 40
3.2
  1
Ｃマウント
  7
Font_0
 50
90
 72
1
 11
252.92724924085
 21
116.678117466579
 73
2
  0
LINE
  8
画層0
  6
CONTINUOUS
 62
7
 10
255.86439624085
 20
106.978117466579
 11
255.06054924085
 21
103.978117466579
  0
LINE
  8
画層0
  6
CONTINUOUS
 62
7
 10
255.06054924085
 20
103.978117466579
 11
254.25670224085
 21
106.978117466579
  0
LINE
  8
画層0
  6
CONTINUOUS
 62
7
 10
255.06054924085
 20
103.978117466579
 11
255.06054924085
 21
106.978117466579
  0
LINE
  8
画層0
  6
CONTINUOUS
 62
7
 10
254.25670224085
 20
126.378117466579
 11
255.06054924085
 21
129.378117466579
  0
LINE
  8
画層0
  6
CONTINUOUS
 62
7
 10
255.06054924085
 20
129.378117466579
 11
255.86439624085
 21
126.378117466579
  0
LINE
  8
画層0
  6
CONTINUOUS
 62
7
 10
255.06054924085
 20
129.378117466579
 11
255.06054924085
 21
126.378117466579
  0
LINE
  8
画層0
  6
CONTINUOUS
 62
7
 10
58.6287530133684
 20
195.678117466579
 11
58.6287530133684
 21
131.678117466579
  0
TEXT
  8
画層0
 62
7
  6
BYLAYER
 62
7
 10
18.6287530133684
 20
190.878117466579
 40
3.2
  1
倍率
  7
Font_0
 11
18.6287530133684
 21
192.478117466579
 73
2
  0
TEXT
  8
画層0
 62
7
  6
BYLAYER
 62
7
 10
18.6287530133684
 20
184.478117466579
 40
3.2
  1
Ｏ／Ｉ
  7
Font_0
 11
18.6287530133684
 21
186.078117466579
 73
2
  0
TEXT
  8
画層0
 62
7
  6
BYLAYER
 62
7
 10
18.6287530133684
 20
178.078117466579
 40
3.2
  1
Ｗ．Ｄ．
  7
Font_0
 11
18.6287530133684
 21
179.678117466579
 73
2
  0
TEXT
  8
画層0
 62
7
  6
BYLAYER
 62
7
 10
18.6287530133684
 20
171.678117466579
 40
3.2
  1
被写界深度
  7
Font_0
 11
18.6287530133684
 21
173.278117466579
 73
2
  0
TEXT
  8
画層0
 62
7
  6
BYLAYER
 62
7
 10
18.6287530133684
 20
165.278117466579
 40
3.2
  1
分解能
  7
Font_0
 11
18.6287530133684
 21
166.878117466579
 73
2
  0
TEXT
  8
画層0
 62
7
  6
BYLAYER
 62
7
 10
18.6287530133684
 20
158.878117466579
 40
3.2
  1
有効Ｆナンバー
  7
Font_0
 11
18.6287530133684
 21
160.478117466579
 73
2
  0
TEXT
  8
画層0
 62
7
  6
BYLAYER
 62
7
 10
18.6287530133684
 20
152.478117466579
 40
3.2
  1
Ｎ．Ａ．
  7
Font_0
 11
18.6287530133684
 21
154.078117466579
 73
2
  0
TEXT
  8
画層0
 62
7
  6
BYLAYER
 62
7
 10
18.6287530133684
 20
146.078117466579
 40
3.2
  1
ＴＶディストーション
  7
Font_0
 11
18.6287530133684
 21
147.678117466579
 73
2
  0
TEXT
  8
画層0
 62
7
  6
BYLAYER
 62
7
 10
18.6287530133684
 20
139.678117466579
 40
3.2
  1
重量
  7
Font_0
 11
18.6287530133684
 21
141.278117466579
 73
2
  0
TEXT
  8
画層0
 62
7
  6
BYLAYER
 62
7
 10
18.6287530133684
 20
133.278117466579
 40
3.2
  1
対応素子サイズ
  7
Font_0
 11
18.6287530133684
 21
134.878117466579
 73
2
  0
LINE
  8
画層0
  6
CONTINUOUS
 62
7
 10
88.6287530133684
 20
131.678117466579
 11
88.6287530133684
 21
195.678117466579
  0
LINE
  8
画層0
  6
CONTINUOUS
 62
7
 10
88.6287530133684
 20
195.678117466579
 11
16.6287530133684
 21
195.678117466579
  0
LINE
  8
画層0
  6
CONTINUOUS
 62
7
 10
16.6287530133684
 20
195.678117466579
 11
16.6287530133684
 21
131.678117466579
  0
LINE
  8
画層0
  6
CONTINUOUS
 62
7
 10
16.6287530133684
 20
189.278117466579
 11
88.6287530133684
 21
189.278117466579
  0
LINE
  8
画層0
  6
CONTINUOUS
 62
7
 10
88.6287530133684
 20
182.878117466579
 11
16.6287530133684
 21
182.878117466579
  0
LINE
  8
画層0
  6
CONTINUOUS
 62
7
 10
16.6287530133684
 20
176.478117466579
 11
88.6287530133684
 21
176.478117466579
  0
LINE
  8
画層0
  6
CONTINUOUS
 62
7
 10
88.6287530133684
 20
170.078117466579
 11
16.6287530133684
 21
170.078117466579
  0
LINE
  8
画層0
  6
CONTINUOUS
 62
7
 10
16.6287530133684
 20
163.678117466579
 11
88.6287530133684
 21
163.678117466579
  0
LINE
  8
画層0
  6
CONTINUOUS
 62
7
 10
88.6287530133684
 20
157.278117466579
 11
16.6287530133684
 21
157.278117466579
  0
LINE
  8
画層0
  6
CONTINUOUS
 62
7
 10
16.6287530133684
 20
150.878117466579
 11
88.6287530133684
 21
150.878117466579
  0
LINE
  8
画層0
  6
CONTINUOUS
 62
7
 10
88.6287530133684
 20
144.478117466579
 11
16.6287530133684
 21
144.478117466579
  0
LINE
  8
画層0
  6
CONTINUOUS
 62
7
 10
88.6287530133684
 20
138.078117466579
 11
16.6287530133684
 21
138.078117466579
  0
LINE
  8
画層0
  6
CONTINUOUS
 62
7
 10
88.6287530133684
 20
131.678117466579
 11
16.6287530133684
 21
131.678117466579
  0
TEXT
  8
画層0
 62
7
  6
CONTINUOUS
 62
7
 10
68.8287530133684
 20
190.878117466579
 40
3.2
  1
２．０
  7
Font_0
 72
1
 11
73.6287530133684
 21
192.478117466579
 73
2
  0
TEXT
  8
画層0
 62
7
  6
CONTINUOUS
 62
7
 10
62.4287530133684
 20
184.478117466579
 40
3.2
  1
２１３．６ｍｍ
  7
Font_0
 72
1
 11
73.6287530133684
 21
186.078117466579
 73
2
  0
TEXT
  8
画層0
 62
7
  6
CONTINUOUS
 62
7
 10
65.6287530133684
 20
178.078117466579
 40
3.2
  1
１１０ｍｍ
  7
Font_0
 72
1
 11
73.6287530133684
 21
179.678117466579
 73
2
  0
TEXT
  8
画層0
 62
7
  6
CONTINUOUS
 62
7
 10
67.2287530133684
 20
171.678117466579
 40
3.2
  1
４９０μ
  7
Font_0
 72
1
 11
73.6287530133684
 21
173.278117466579
 73
2
  0
TEXT
  8
画層0
 62
7
  6
CONTINUOUS
 62
7
 10
67.2287530133684
 20
165.278117466579
 40
3.2
  1
８．４μ
  7
Font_0
 72
1
 11
73.6287530133684
 21
166.878117466579
 73
2
  0
TEXT
  8
画層0
 62
7
  6
CONTINUOUS
 62
7
 10
67.2287530133684
 20
158.878117466579
 40
3.2
  1
２４．６
  7
Font_0
 72
1
 11
73.6287530133684
 21
160.478117466579
 73
2
  0
TEXT
  8
画層0
 62
7
  6
CONTINUOUS
 62
7
 10
67.2287530133684
 20
152.478117466579
 40
3.2
  1
０．０４
  7
Font_0
 72
1
 11
73.6287530133684
 21
154.078117466579
 73
2
  0
TEXT
  8
画層0
 62
7
  6
CONTINUOUS
 62
7
 10
70.4287530133684
 20
139.678117466579
 40
3.2
  1
４２
  7
Font_0
 72
1
 11
73.6287530133684
 21
141.278117466579
 73
2
  0
TEXT
  8
画層0
 62
7
  6
CONTINUOUS
 62
7
 10
67.2287530133684
 20
133.278117466579
 40
3.2
  1
２／３″
  7
Font_0
 72
1
 11
73.6287530133684
 21
134.878117466579
 73
2
  0
TEXT
  8
画層0
 62
7
  6
CONTINUOUS
 62
7
 10
64.0287530133684
 20
146.078117466579
 40
3.2
  1
－０．０３％
  7
Font_0
 72
1
 11
73.6287530133684
 21
147.678117466579
 73
2
  0
ENDSEC
  0
EOF
