999
Outputted By AR_CAD Ver.1.5.2a
  0
SECTION
  2
HEADER
  9
$ACADVER
  1
AC1009
  9
$DWGCODEPAGE
  3
DOS932
  9
$EXTMIN
 10
0
 20
0
  9
$EXTMAX
 10
297
 20
210
  9
$INSBASE
 10
0.0
 20
0.0
 30
0.0
  9
$HANDLING
 70
     1
  9
$LTSCALE
 40
1
  0
ENDSEC
  0
SECTION
  2
TABLES
  0
TABLE
  2
LTYPE
 70
     8
  0
LTYPE
  2
BYBLOCK
 70
    64
 3

 72
    65
 73
    0
 40
    0
  0
LTYPE
  2
BYLAYER
 70
    64
 3

 72
    65
 73
    0
 40
    0
  0
LTYPE
  2
CONTINUOUS
 70
    64
 3
CONTINUOUS
 72
    65
 73
    0
 40
    0
  0
LTYPE
  2
DASHED
 70
    64
 3

 72
    65
 73
    2
 40
    3.5
 49
    2.91666666666667
 49
    -0.583333333333333
  0
LTYPE
  2
DOT
 70
    64
 3

 72
    65
 73
    2
 40
    0.5
 49
    0.25
 49
    -0.25
  0
LTYPE
  2
DASHDOT
 70
    64
 3

 72
    65
 73
    4
 40
    3.5
 49
    1.84210526315789
 49
    -0.552631578947368
 49
    0.552631578947368
 49
    -0.552631578947368
  0
LTYPE
  2
DIVIDE
 70
    64
 3

 72
    65
 73
    6
 40
    3.5
 49
    1.4
 49
    -0.42
 49
    0.42
 49
    -0.42
 49
    0.42
 49
    -0.42
  0
LTYPE
  2
HIDDEN
 70
    64
 3

 72
    65
 73
    2
 40
    4
 49
    2
 49
    -2
  0
LTYPE
  2
CENTER
 70
    64
 3

 72
    65
 73
    4
 40
    50.8
 49
    31.75
 49
    -6.35
 49
    6.35
 49
    -6.35
  0
ENDTAB
  0
TABLE
  2
LAYER
 70
   257
  0
LAYER
  2
画層0
 70
    0
 62
7
  6
CONTINUOUS
  0
LAYER
  2
画層1
 70
    0
 62
3
  6
CONTINUOUS
  0
LAYER
  2
画層2
 70
    0
 62
9
  6
CONTINUOUS
  0
LAYER
  2
画層3
 70
    0
 62
7
  6
CONTINUOUS
  0
LAYER
  2
画層4
 70
    0
 62
6
  6
CONTINUOUS
  0
LAYER
  2
画層5
 70
    0
 62
1
  6
CONTINUOUS
  0
LAYER
  2
画層6
 70
    0
 62
7
  6
CONTINUOUS
  0
LAYER
  2
画層7
 70
    0
 62
51
  6
CONTINUOUS
  0
LAYER
  2
画層8
 70
    0
 62
61
  6
CONTINUOUS
  0
LAYER
  2
画層9
 70
    0
 62
111
  6
CONTINUOUS
  0
LAYER
  2
画層10
 70
    0
 62
91
  6
CONTINUOUS
  0
LAYER
  2
画層11
 70
    0
 62
131
  6
CONTINUOUS
  0
LAYER
  2
画層12
 70
    0
 62
161
  6
CONTINUOUS
  0
LAYER
  2
画層13
 70
    0
 62
5
  6
CONTINUOUS
  0
LAYER
  2
画層14
 70
    0
 62
7
  6
CONTINUOUS
  0
LAYER
  2
画層15
 70
    0
 62
11
  6
CONTINUOUS
  0
LAYER
  2
画層16
 70
    0
 62
7
  6
CONTINUOUS
  0
LAYER
  2
画層17
 70
    0
 62
70
  6
CONTINUOUS
  0
LAYER
  2
画層18
 70
    0
 62
211
  6
CONTINUOUS
  0
LAYER
  2
画層19
 70
    0
 62
137
  6
CONTINUOUS
  0
LAYER
  2
画層20
 70
    0
 62
4
  6
CONTINUOUS
  0
LAYER
  2
画層21
 70
    0
 62
131
  6
CONTINUOUS
  0
LAYER
  2
画層22
 70
    0
 62
4
  6
CONTINUOUS
  0
LAYER
  2
画層23
 70
    0
 62
4
  6
CONTINUOUS
  0
LAYER
  2
画層24
 70
    0
 62
7
  6
CONTINUOUS
  0
LAYER
  2
画層25
 70
    0
 62
7
  6
CONTINUOUS
  0
LAYER
  2
画層26
 70
    0
 62
7
  6
CONTINUOUS
  0
LAYER
  2
画層27
 70
    0
 62
7
  6
CONTINUOUS
  0
LAYER
  2
画層28
 70
    0
 62
7
  6
CONTINUOUS
  0
LAYER
  2
画層29
 70
    0
 62
7
  6
CONTINUOUS
  0
LAYER
  2
画層30
 70
    0
 62
7
  6
CONTINUOUS
  0
LAYER
  2
画層31
 70
    0
 62
7
  6
CONTINUOUS
  0
LAYER
  2
画層32
 70
    0
 62
7
  6
CONTINUOUS
  0
LAYER
  2
画層33
 70
    0
 62
7
  6
CONTINUOUS
  0
LAYER
  2
画層34
 70
    0
 62
7
  6
CONTINUOUS
  0
LAYER
  2
画層35
 70
    0
 62
7
  6
CONTINUOUS
  0
LAYER
  2
画層36
 70
    0
 62
7
  6
CONTINUOUS
  0
LAYER
  2
画層37
 70
    0
 62
7
  6
CONTINUOUS
  0
LAYER
  2
画層38
 70
    0
 62
7
  6
CONTINUOUS
  0
LAYER
  2
画層39
 70
    0
 62
7
  6
CONTINUOUS
  0
LAYER
  2
画層40
 70
    0
 62
7
  6
CONTINUOUS
  0
LAYER
  2
画層41
 70
    0
 62
7
  6
CONTINUOUS
  0
LAYER
  2
画層42
 70
    0
 62
7
  6
CONTINUOUS
  0
LAYER
  2
画層43
 70
    0
 62
7
  6
CONTINUOUS
  0
LAYER
  2
画層44
 70
    0
 62
7
  6
CONTINUOUS
  0
LAYER
  2
画層45
 70
    0
 62
7
  6
CONTINUOUS
  0
LAYER
  2
画層46
 70
    0
 62
7
  6
CONTINUOUS
  0
LAYER
  2
画層47
 70
    0
 62
7
  6
CONTINUOUS
  0
LAYER
  2
画層48
 70
    0
 62
7
  6
CONTINUOUS
  0
LAYER
  2
画層49
 70
    0
 62
7
  6
CONTINUOUS
  0
LAYER
  2
画層50
 70
    0
 62
7
  6
CONTINUOUS
  0
LAYER
  2
画層51
 70
    0
 62
7
  6
CONTINUOUS
  0
LAYER
  2
画層52
 70
    0
 62
7
  6
CONTINUOUS
  0
LAYER
  2
画層53
 70
    0
 62
7
  6
CONTINUOUS
  0
LAYER
  2
画層54
 70
    0
 62
7
  6
CONTINUOUS
  0
LAYER
  2
画層55
 70
    0
 62
7
  6
CONTINUOUS
  0
LAYER
  2
画層56
 70
    0
 62
7
  6
CONTINUOUS
  0
LAYER
  2
画層57
 70
    0
 62
7
  6
CONTINUOUS
  0
LAYER
  2
画層58
 70
    0
 62
7
  6
CONTINUOUS
  0
LAYER
  2
画層59
 70
    0
 62
7
  6
CONTINUOUS
  0
LAYER
  2
画層60
 70
    0
 62
7
  6
CONTINUOUS
  0
LAYER
  2
画層61
 70
    0
 62
7
  6
CONTINUOUS
  0
LAYER
  2
画層62
 70
    0
 62
7
  6
CONTINUOUS
  0
LAYER
  2
画層63
 70
    0
 62
7
  6
CONTINUOUS
  0
LAYER
  2
画層64
 70
    0
 62
7
  6
CONTINUOUS
  0
LAYER
  2
画層65
 70
    0
 62
7
  6
CONTINUOUS
  0
LAYER
  2
画層66
 70
    0
 62
7
  6
CONTINUOUS
  0
LAYER
  2
画層67
 70
    0
 62
7
  6
CONTINUOUS
  0
LAYER
  2
画層68
 70
    0
 62
7
  6
CONTINUOUS
  0
LAYER
  2
画層69
 70
    0
 62
7
  6
CONTINUOUS
  0
LAYER
  2
画層70
 70
    0
 62
7
  6
CONTINUOUS
  0
LAYER
  2
画層71
 70
    0
 62
7
  6
CONTINUOUS
  0
LAYER
  2
画層72
 70
    0
 62
7
  6
CONTINUOUS
  0
LAYER
  2
画層73
 70
    0
 62
7
  6
CONTINUOUS
  0
LAYER
  2
画層74
 70
    0
 62
7
  6
CONTINUOUS
  0
LAYER
  2
画層75
 70
    0
 62
7
  6
CONTINUOUS
  0
LAYER
  2
画層76
 70
    0
 62
7
  6
CONTINUOUS
  0
LAYER
  2
画層77
 70
    0
 62
7
  6
CONTINUOUS
  0
LAYER
  2
画層78
 70
    0
 62
7
  6
CONTINUOUS
  0
LAYER
  2
画層79
 70
    0
 62
7
  6
CONTINUOUS
  0
LAYER
  2
画層80
 70
    0
 62
7
  6
CONTINUOUS
  0
LAYER
  2
画層81
 70
    0
 62
7
  6
CONTINUOUS
  0
LAYER
  2
画層82
 70
    0
 62
7
  6
CONTINUOUS
  0
LAYER
  2
画層83
 70
    0
 62
7
  6
CONTINUOUS
  0
LAYER
  2
画層84
 70
    0
 62
7
  6
CONTINUOUS
  0
LAYER
  2
画層85
 70
    0
 62
7
  6
CONTINUOUS
  0
LAYER
  2
画層86
 70
    0
 62
7
  6
CONTINUOUS
  0
LAYER
  2
画層87
 70
    0
 62
7
  6
CONTINUOUS
  0
LAYER
  2
画層88
 70
    0
 62
7
  6
CONTINUOUS
  0
LAYER
  2
画層89
 70
    0
 62
7
  6
CONTINUOUS
  0
LAYER
  2
画層90
 70
    0
 62
7
  6
CONTINUOUS
  0
LAYER
  2
画層91
 70
    0
 62
7
  6
CONTINUOUS
  0
LAYER
  2
画層92
 70
    0
 62
7
  6
CONTINUOUS
  0
LAYER
  2
画層93
 70
    0
 62
7
  6
CONTINUOUS
  0
LAYER
  2
画層94
 70
    0
 62
7
  6
CONTINUOUS
  0
LAYER
  2
画層95
 70
    0
 62
7
  6
CONTINUOUS
  0
LAYER
  2
画層96
 70
    0
 62
7
  6
CONTINUOUS
  0
LAYER
  2
画層97
 70
    0
 62
7
  6
CONTINUOUS
  0
LAYER
  2
画層98
 70
    0
 62
7
  6
CONTINUOUS
  0
LAYER
  2
画層99
 70
    0
 62
7
  6
CONTINUOUS
  0
LAYER
  2
画層100
 70
    0
 62
7
  6
CONTINUOUS
  0
LAYER
  2
画層101
 70
    0
 62
7
  6
CONTINUOUS
  0
LAYER
  2
画層102
 70
    0
 62
7
  6
CONTINUOUS
  0
LAYER
  2
画層103
 70
    0
 62
7
  6
CONTINUOUS
  0
LAYER
  2
画層104
 70
    0
 62
7
  6
CONTINUOUS
  0
LAYER
  2
画層105
 70
    0
 62
7
  6
CONTINUOUS
  0
LAYER
  2
画層106
 70
    0
 62
7
  6
CONTINUOUS
  0
LAYER
  2
画層107
 70
    0
 62
7
  6
CONTINUOUS
  0
LAYER
  2
画層108
 70
    0
 62
7
  6
CONTINUOUS
  0
LAYER
  2
画層109
 70
    0
 62
7
  6
CONTINUOUS
  0
LAYER
  2
画層110
 70
    0
 62
7
  6
CONTINUOUS
  0
LAYER
  2
画層111
 70
    0
 62
7
  6
CONTINUOUS
  0
LAYER
  2
画層112
 70
    0
 62
7
  6
CONTINUOUS
  0
LAYER
  2
画層113
 70
    0
 62
7
  6
CONTINUOUS
  0
LAYER
  2
画層114
 70
    0
 62
7
  6
CONTINUOUS
  0
LAYER
  2
画層115
 70
    0
 62
7
  6
CONTINUOUS
  0
LAYER
  2
画層116
 70
    0
 62
7
  6
CONTINUOUS
  0
LAYER
  2
画層117
 70
    0
 62
7
  6
CONTINUOUS
  0
LAYER
  2
画層118
 70
    0
 62
7
  6
CONTINUOUS
  0
LAYER
  2
画層119
 70
    0
 62
7
  6
CONTINUOUS
  0
LAYER
  2
画層120
 70
    0
 62
7
  6
CONTINUOUS
  0
LAYER
  2
画層121
 70
    0
 62
7
  6
CONTINUOUS
  0
LAYER
  2
画層122
 70
    0
 62
7
  6
CONTINUOUS
  0
LAYER
  2
画層123
 70
    0
 62
7
  6
CONTINUOUS
  0
LAYER
  2
画層124
 70
    0
 62
7
  6
CONTINUOUS
  0
LAYER
  2
画層125
 70
    0
 62
7
  6
CONTINUOUS
  0
LAYER
  2
画層126
 70
    0
 62
7
  6
CONTINUOUS
  0
LAYER
  2
画層127
 70
    0
 62
7
  6
CONTINUOUS
  0
LAYER
  2
画層128
 70
    0
 62
7
  6
CONTINUOUS
  0
LAYER
  2
画層129
 70
    0
 62
7
  6
CONTINUOUS
  0
LAYER
  2
画層130
 70
    0
 62
7
  6
CONTINUOUS
  0
LAYER
  2
画層131
 70
    0
 62
7
  6
CONTINUOUS
  0
LAYER
  2
画層132
 70
    0
 62
7
  6
CONTINUOUS
  0
LAYER
  2
画層133
 70
    0
 62
7
  6
CONTINUOUS
  0
LAYER
  2
画層134
 70
    0
 62
7
  6
CONTINUOUS
  0
LAYER
  2
画層135
 70
    0
 62
7
  6
CONTINUOUS
  0
LAYER
  2
画層136
 70
    0
 62
7
  6
CONTINUOUS
  0
LAYER
  2
画層137
 70
    0
 62
7
  6
CONTINUOUS
  0
LAYER
  2
画層138
 70
    0
 62
7
  6
CONTINUOUS
  0
LAYER
  2
画層139
 70
    0
 62
7
  6
CONTINUOUS
  0
LAYER
  2
画層140
 70
    0
 62
7
  6
CONTINUOUS
  0
LAYER
  2
画層141
 70
    0
 62
7
  6
CONTINUOUS
  0
LAYER
  2
画層142
 70
    0
 62
7
  6
CONTINUOUS
  0
LAYER
  2
画層143
 70
    0
 62
7
  6
CONTINUOUS
  0
LAYER
  2
画層144
 70
    0
 62
7
  6
CONTINUOUS
  0
LAYER
  2
画層145
 70
    0
 62
7
  6
CONTINUOUS
  0
LAYER
  2
画層146
 70
    0
 62
7
  6
CONTINUOUS
  0
LAYER
  2
画層147
 70
    0
 62
7
  6
CONTINUOUS
  0
LAYER
  2
画層148
 70
    0
 62
7
  6
CONTINUOUS
  0
LAYER
  2
画層149
 70
    0
 62
7
  6
CONTINUOUS
  0
LAYER
  2
画層150
 70
    0
 62
7
  6
CONTINUOUS
  0
LAYER
  2
画層151
 70
    0
 62
7
  6
CONTINUOUS
  0
LAYER
  2
画層152
 70
    0
 62
7
  6
CONTINUOUS
  0
LAYER
  2
画層153
 70
    0
 62
7
  6
CONTINUOUS
  0
LAYER
  2
画層154
 70
    0
 62
7
  6
CONTINUOUS
  0
LAYER
  2
画層155
 70
    0
 62
7
  6
CONTINUOUS
  0
LAYER
  2
画層156
 70
    0
 62
7
  6
CONTINUOUS
  0
LAYER
  2
画層157
 70
    0
 62
7
  6
CONTINUOUS
  0
LAYER
  2
画層158
 70
    0
 62
7
  6
CONTINUOUS
  0
LAYER
  2
画層159
 70
    0
 62
7
  6
CONTINUOUS
  0
LAYER
  2
画層160
 70
    0
 62
7
  6
CONTINUOUS
  0
LAYER
  2
画層161
 70
    0
 62
7
  6
CONTINUOUS
  0
LAYER
  2
画層162
 70
    0
 62
7
  6
CONTINUOUS
  0
LAYER
  2
画層163
 70
    0
 62
7
  6
CONTINUOUS
  0
LAYER
  2
画層164
 70
    0
 62
7
  6
CONTINUOUS
  0
LAYER
  2
画層165
 70
    0
 62
7
  6
CONTINUOUS
  0
LAYER
  2
画層166
 70
    0
 62
7
  6
CONTINUOUS
  0
LAYER
  2
画層167
 70
    0
 62
7
  6
CONTINUOUS
  0
LAYER
  2
画層168
 70
    0
 62
7
  6
CONTINUOUS
  0
LAYER
  2
画層169
 70
    0
 62
7
  6
CONTINUOUS
  0
LAYER
  2
画層170
 70
    0
 62
7
  6
CONTINUOUS
  0
LAYER
  2
画層171
 70
    0
 62
7
  6
CONTINUOUS
  0
LAYER
  2
画層172
 70
    0
 62
7
  6
CONTINUOUS
  0
LAYER
  2
画層173
 70
    0
 62
7
  6
CONTINUOUS
  0
LAYER
  2
画層174
 70
    0
 62
7
  6
CONTINUOUS
  0
LAYER
  2
画層175
 70
    0
 62
7
  6
CONTINUOUS
  0
LAYER
  2
画層176
 70
    0
 62
7
  6
CONTINUOUS
  0
LAYER
  2
画層177
 70
    0
 62
7
  6
CONTINUOUS
  0
LAYER
  2
画層178
 70
    0
 62
7
  6
CONTINUOUS
  0
LAYER
  2
画層179
 70
    0
 62
7
  6
CONTINUOUS
  0
LAYER
  2
画層180
 70
    0
 62
7
  6
CONTINUOUS
  0
LAYER
  2
画層181
 70
    0
 62
7
  6
CONTINUOUS
  0
LAYER
  2
画層182
 70
    0
 62
7
  6
CONTINUOUS
  0
LAYER
  2
画層183
 70
    0
 62
7
  6
CONTINUOUS
  0
LAYER
  2
画層184
 70
    0
 62
7
  6
CONTINUOUS
  0
LAYER
  2
画層185
 70
    0
 62
7
  6
CONTINUOUS
  0
LAYER
  2
画層186
 70
    0
 62
7
  6
CONTINUOUS
  0
LAYER
  2
画層187
 70
    0
 62
7
  6
CONTINUOUS
  0
LAYER
  2
画層188
 70
    0
 62
7
  6
CONTINUOUS
  0
LAYER
  2
画層189
 70
    0
 62
7
  6
CONTINUOUS
  0
LAYER
  2
画層190
 70
    0
 62
7
  6
CONTINUOUS
  0
LAYER
  2
画層191
 70
    0
 62
7
  6
CONTINUOUS
  0
LAYER
  2
画層192
 70
    0
 62
7
  6
CONTINUOUS
  0
LAYER
  2
画層193
 70
    0
 62
7
  6
CONTINUOUS
  0
LAYER
  2
画層194
 70
    0
 62
7
  6
CONTINUOUS
  0
LAYER
  2
画層195
 70
    0
 62
7
  6
CONTINUOUS
  0
LAYER
  2
画層196
 70
    0
 62
7
  6
CONTINUOUS
  0
LAYER
  2
画層197
 70
    0
 62
7
  6
CONTINUOUS
  0
LAYER
  2
画層198
 70
    0
 62
7
  6
CONTINUOUS
  0
LAYER
  2
画層199
 70
    0
 62
7
  6
CONTINUOUS
  0
LAYER
  2
画層200
 70
    0
 62
7
  6
CONTINUOUS
  0
LAYER
  2
画層201
 70
    0
 62
7
  6
CONTINUOUS
  0
LAYER
  2
画層202
 70
    0
 62
7
  6
CONTINUOUS
  0
LAYER
  2
画層203
 70
    0
 62
7
  6
CONTINUOUS
  0
LAYER
  2
画層204
 70
    0
 62
7
  6
CONTINUOUS
  0
LAYER
  2
画層205
 70
    0
 62
7
  6
CONTINUOUS
  0
LAYER
  2
画層206
 70
    0
 62
7
  6
CONTINUOUS
  0
LAYER
  2
画層207
 70
    0
 62
7
  6
CONTINUOUS
  0
LAYER
  2
画層208
 70
    0
 62
7
  6
CONTINUOUS
  0
LAYER
  2
画層209
 70
    0
 62
7
  6
CONTINUOUS
  0
LAYER
  2
画層210
 70
    0
 62
7
  6
CONTINUOUS
  0
LAYER
  2
画層211
 70
    0
 62
7
  6
CONTINUOUS
  0
LAYER
  2
画層212
 70
    0
 62
7
  6
CONTINUOUS
  0
LAYER
  2
画層213
 70
    0
 62
7
  6
CONTINUOUS
  0
LAYER
  2
画層214
 70
    0
 62
7
  6
CONTINUOUS
  0
LAYER
  2
画層215
 70
    0
 62
7
  6
CONTINUOUS
  0
LAYER
  2
画層216
 70
    0
 62
7
  6
CONTINUOUS
  0
LAYER
  2
画層217
 70
    0
 62
7
  6
CONTINUOUS
  0
LAYER
  2
画層218
 70
    0
 62
7
  6
CONTINUOUS
  0
LAYER
  2
画層219
 70
    0
 62
7
  6
CONTINUOUS
  0
LAYER
  2
画層220
 70
    0
 62
7
  6
CONTINUOUS
  0
LAYER
  2
画層221
 70
    0
 62
7
  6
CONTINUOUS
  0
LAYER
  2
画層222
 70
    0
 62
7
  6
CONTINUOUS
  0
LAYER
  2
画層223
 70
    0
 62
7
  6
CONTINUOUS
  0
LAYER
  2
画層224
 70
    0
 62
7
  6
CONTINUOUS
  0
LAYER
  2
画層225
 70
    0
 62
7
  6
CONTINUOUS
  0
LAYER
  2
画層226
 70
    0
 62
7
  6
CONTINUOUS
  0
LAYER
  2
画層227
 70
    0
 62
7
  6
CONTINUOUS
  0
LAYER
  2
画層228
 70
    0
 62
7
  6
CONTINUOUS
  0
LAYER
  2
画層229
 70
    0
 62
7
  6
CONTINUOUS
  0
LAYER
  2
画層230
 70
    0
 62
7
  6
CONTINUOUS
  0
LAYER
  2
画層231
 70
    0
 62
7
  6
CONTINUOUS
  0
LAYER
  2
画層232
 70
    0
 62
7
  6
CONTINUOUS
  0
LAYER
  2
画層233
 70
    0
 62
7
  6
CONTINUOUS
  0
LAYER
  2
画層234
 70
    0
 62
7
  6
CONTINUOUS
  0
LAYER
  2
画層235
 70
    0
 62
7
  6
CONTINUOUS
  0
LAYER
  2
画層236
 70
    0
 62
7
  6
CONTINUOUS
  0
LAYER
  2
画層237
 70
    0
 62
7
  6
CONTINUOUS
  0
LAYER
  2
画層238
 70
    0
 62
7
  6
CONTINUOUS
  0
LAYER
  2
画層239
 70
    0
 62
7
  6
CONTINUOUS
  0
LAYER
  2
画層240
 70
    0
 62
7
  6
CONTINUOUS
  0
LAYER
  2
画層241
 70
    0
 62
7
  6
CONTINUOUS
  0
LAYER
  2
画層242
 70
    0
 62
7
  6
CONTINUOUS
  0
LAYER
  2
画層243
 70
    0
 62
7
  6
CONTINUOUS
  0
LAYER
  2
画層244
 70
    0
 62
7
  6
CONTINUOUS
  0
LAYER
  2
画層245
 70
    0
 62
7
  6
CONTINUOUS
  0
LAYER
  2
画層246
 70
    0
 62
7
  6
CONTINUOUS
  0
LAYER
  2
画層247
 70
    0
 62
7
  6
CONTINUOUS
  0
LAYER
  2
画層248
 70
    0
 62
7
  6
CONTINUOUS
  0
LAYER
  2
画層249
 70
    0
 62
7
  6
CONTINUOUS
  0
LAYER
  2
画層250
 70
    0
 62
7
  6
CONTINUOUS
  0
LAYER
  2
画層251
 70
    0
 62
7
  6
CONTINUOUS
  0
LAYER
  2
画層252
 70
    0
 62
7
  6
CONTINUOUS
  0
LAYER
  2
画層253
 70
    0
 62
7
  6
CONTINUOUS
  0
LAYER
  2
画層254
 70
    0
 62
7
  6
CONTINUOUS
  0
LAYER
  2
画層255
 70
    0
 62
7
  6
CONTINUOUS
  0
LAYER
  2
0
 70
   64
 62
    7
  6
CONTINUOUS
  0
ENDTAB
  0
TABLE
  2
STYLE
 70
     1
  0
STYLE
  2
Standard
 70
     0
 40
0.0
 41
1.0
 50
0.0
 71
     0
 42
3.2
  3
TXT
  4
BIGFONT
  0
STYLE
  2
Font_0
 70
     0
 40
0.0
 41
1.0
 50
0.0
 71
     0
 42
3.2
  3
txt
  4
BIGFONT
  0
ENDTAB
  0
ENDSEC
  0
SECTION
  2
BLOCKS
  0
BLOCK
  8
画層0
  2
13462_KCAD_FINI
 70
    0
 10
0
 20
0
 30
0.0
  3
13462_KCAD_FINI
  1

  0
LINE
  8
画層0
  6
CONTINUOUS
 62
134
 10
0
 20
0
 11
1.8475208614068
 21
3.2
  0
LINE
  8
画層0
  6
CONTINUOUS
 62
134
 10
1.8475208614068
 20
3.2
 11
-1.8475208614068
 21
3.2
  0
LINE
  8
画層0
  6
CONTINUOUS
 62
134
 10
-1.8475208614068
 20
3.2
 11
0
 21
0
  0
LINE
  8
画層0
  6
CONTINUOUS
 62
134
 10
3.69504172281361
 20
0
 11
5.54256258422041
 21
3.2
  0
LINE
  8
画層0
  6
CONTINUOUS
 62
134
 10
5.54256258422041
 20
3.2
 11
1.8475208614068
 21
3.2
  0
LINE
  8
画層0
  6
CONTINUOUS
 62
134
 10
1.8475208614068
 20
3.2
 11
3.69504172281361
 21
0
  0
LINE
  8
画層0
  6
CONTINUOUS
 62
134
 10
7.39008344562721
 20
0
 11
9.23760430703401
 21
3.2
  0
LINE
  8
画層0
  6
CONTINUOUS
 62
134
 10
9.23760430703401
 20
3.2
 11
5.54256258422041
 21
3.2
  0
LINE
  8
画層0
  6
CONTINUOUS
 62
134
 10
5.54256258422041
 20
3.2
 11
7.39008344562721
 21
0
  0
ENDBLK
  0
ENDSEC
  0
SECTION
  2
ENTITIES
  0
TEXT
  8
画層0
 62
7
  6
CONTINUOUS
 62
7
 10
169.879646986631
 20
19.4859714283775
 40
2.03
 41
0.86
  1
09/08/06
  7
Font_0
 72
1
 11
173.371246986631
 21
20.5009714283775
 73
2
  0
TEXT
  8
画層0
 62
7
  6
CONTINUOUS
 62
7
 10
153.879646986631
 20
19.4859714283775
 40
2.03
 41
0.86
  1
09/08/06
  7
Font_0
 72
1
 11
157.371246986631
 21
20.5009714283775
 73
2
  0
TEXT
  8
画層0
 62
7
  6
CONTINUOUS
 62
7
 10
137.879646986631
 20
19.4859714283775
 40
2.03
 41
0.86
  1
09/08/06
  7
Font_0
 72
1
 11
141.371246986631
 21
20.5009714283775
 73
2
  0
INSERT
  8
画層0
  6
CONTINUOUS
 62
7
  2
13462_KCAD_FINI
 10
202.676205263818
 20
28.8254904571793
 30
0.0
  0
TEXT
  8
画層0
 62
7
  6
CONTINUOUS
 62
7
 10
121.879646986631
 20
19.4859714283775
 40
2.03
 41
0.86
  1
09/08/06
  7
Font_0
 72
1
 11
125.371246986631
 21
20.5009714283775
 73
2
  0
TEXT
  8
画層0
 62
7
  6
CONTINUOUS
 62
7
 10
120.11299698472
 20
23.5729570769706
 40
3.6
 41
0.973750000353902
  1
宇賀田
  7
Font_0
 72
1
 11
125.371246986631
 21
25.3729570769706
 73
2
  0
TEXT
  8
画層0
 62
7
  6
CONTINUOUS
 62
7
 10
152.989371985038
 20
23.5729570769706
 40
3.6
 41
0.973750000353902
  1
藤 田
  7
Font_0
 72
1
 11
157.371246986631
 21
25.3729570769706
 73
2
  0
TEXT
  8
画層0
 62
7
  6
CONTINUOUS
 62
7
 10
201.571246986631
 20
18.7918584264739
 40
4
 41
1.2
  1
C0.1
  7
Font_0
 72
1
 11
206.371246986631
 21
20.7918584264739
 73
2
  0
TEXT
  8
画層0
 62
7
  6
CONTINUOUS
 62
7
 10
168.989371985038
 20
23.5729570769706
 40
3.6
 41
0.973750000353902
  1
藤 田
  7
Font_0
 72
1
 11
173.371246986631
 21
25.3729570769706
 73
2
  0
TEXT
  8
画層0
 62
7
  6
CONTINUOUS
 62
7
 10
136.112996984719
 20
23.5729570769706
 40
3.6
 41
0.973750000353902
  1
宇賀田
  7
Font_0
 72
1
 11
141.371246986631
 21
25.3729570769706
 73
2
  0
TEXT
  8
画層0
 62
7
  6
CENTER
 62
7
 10
101.471246986631
 20
42.7418584264739
 40
3.6
  1
０００
  7
Font_0
 72
1
 11
106.871246986631
 21
44.5418584264738
 73
2
  0
TEXT
  8
画層0
 62
7
  6
CENTER
 62
7
 10
134.171246986631
 20
42.8741550536121
 40
3.6
  1
組 立 図
  7
Font_0
 72
1
 11
141.371246986631
 21
44.6741550536121
 73
2
  0
TEXT
  8
画層0
 62
7
  6
CENTER
 62
7
 10
172.471246986631
 20
42.7418584264739
 40
3.6
  1
1
  7
Font_0
 72
1
 11
173.371246986631
 21
44.5418584264738
 73
2
  0
TEXT
  8
画層0
 62
7
  6
CENTER
 62
7
 10
191.621246986631
 20
42.7918584264738
 40
3.5
  1
Ａ５０５２ＴＤ
  7
Font_0
 72
1
 11
203.871246986631
 21
44.5418584264738
 73
2
  0
TEXT
  8
画層0
 62
7
  6
CENTER
 62
7
 10
240.621246986632
 20
42.7918584264738
 40
3.5
  1
サテン黒アルマイト
  7
Font_0
 72
1
 11
256.371246986632
 21
44.5418584264738
 73
2
  0
TEXT
  8
画層0
 62
7
  6
CONTINUOUS
 62
7
 10
242.244855808052
 20
18.7749685877145
 40
4
  1
ＫＶＴ－１００７
  7
Font_0
 72
1
 11
258.244855808052
 21
20.7749685877145
 73
2
  0
TEXT
  8
画層0
 62
7
  6
CONTINUOUS
 62
7
 10
236.675002687087
 20
28.6868137510265
 40
3.3
  1
ＫＣＭ－２Ｄ－６５Ｃ（８）
  7
Font_0
  0
LINE
  8
画層12
  6
CONTINUOUS
 62
7
 10
162.871257878614
 20
8.79185842647388
 11
162.871257878614
 21
11.0953460741073
  0
LINE
  8
画層12
  6
CONTINUOUS
 62
7
 10
161.809433665242
 20
9.57091422716545
 11
161.809433665242
 21
10.1006566408738
  0
LINE
  8
画層12
  6
CONTINUOUS
 62
7
 10
161.809433665242
 20
11.300452915116
 11
161.809433665242
 21
10.8952704506511
  0
POLYLINE
  8
画層12
 62
7
  6
CONTINUOUS
 10
0.0
 20
0.0
 30
0.0
 66
1
  0
VERTEX
  8
画層12
 10
162.871257878614
  20
11.0953460741073
  0
VERTEX
  8
画層12
 10
162.856185488409
  20
11.3252173991904
  0
VERTEX
  8
画層12
 10
162.82158015943
  20
11.5460560112756
  0
VERTEX
  8
画層12
 10
162.749473975248
  20
11.7525237868334
  0
VERTEX
  8
画層12
 10
162.628978948693
  20
11.9276446926939
  0
VERTEX
  8
画層12
 10
162.465709509086
  20
12.0695713477623
  0
VERTEX
  8
画層12
 10
162.263480351358
  20
12.1682401853722
  0
VERTEX
  8
画層12
 10
162.055020935534
  20
12.2255946103646
  0
VERTEX
  8
画層12
 10
161.864161734052
  20
12.2561940547973
  0
VERTEX
  8
画層12
 10
161.702145755876
  20
12.2693126247808
  0
SEQEND
100
AcDbEntity
  8
画層12
  0
ARC
  8
画層12
  6
CONTINUOUS
 62
7
 10
161.628444523384
 20
11.300452915116
 40
0.180989141858049
 50
0
 51
90
  0
LINE
  8
画層12
  6
CONTINUOUS
 62
7
 10
158.710086976873
 20
8.79185842647388
 11
162.871257878614
 21
8.79185842647388
  0
LINE
  8
画層12
  6
CONTINUOUS
 62
7
 10
158.710086976071
 20
8.79185842647388
 11
158.710086976873
 21
8.79185842647388
  0
LINE
  8
画層12
  6
CONTINUOUS
 62
7
 10
158.710086976873
 20
9.57091422716545
 11
161.809433665242
 21
9.57091422716545
  0
LINE
  8
画層12
  6
CONTINUOUS
 62
7
 10
161.809433665242
 20
10.1006566408738
 11
158.710086976873
 21
10.1006566408738
  0
LINE
  8
画層12
  6
CONTINUOUS
 62
7
 10
158.710086976873
 20
10.1006566408738
 11
158.710086976873
 21
9.57091422716545
  0
LINE
  8
画層12
  6
CONTINUOUS
 62
7
 10
161.809433665242
 20
10.8952704506511
 11
158.710086976873
 21
10.8952704506511
  0
POLYLINE
  8
画層12
 62
7
  6
CONTINUOUS
 10
0.0
 20
0.0
 30
0.0
 66
1
  0
VERTEX
  8
画層12
 10
158.710086976873
  20
8.79185842647388
  0
VERTEX
  8
画層12
 10
158.480906197238
  20
8.79905687210754
  0
VERTEX
  8
画層12
 10
158.252444091683
  20
8.82332825788981
  0
VERTEX
  8
画層12
 10
158.055231834711
  20
8.8660433454381
  0
VERTEX
  8
画層12
 10
157.899289627432
  20
8.92312138155324
  0
VERTEX
  8
画層12
 10
157.781666022442
  20
8.98909036323087
  0
VERTEX
  8
画層12
 10
157.687683795041
  20
9.06465827111887
  0
VERTEX
  8
画層12
 10
157.617088662603
  20
9.1494568517634
  0
VERTEX
  8
画層12
 10
157.56467264722
  20
9.23907058204179
  0
VERTEX
  8
画層12
 10
157.529119606233
  20
9.34415280337183
  0
VERTEX
  8
画層12
 10
157.509393089325
  20
9.46201113879025
  0
VERTEX
  8
画層12
 10
157.505677656631
  20
9.58647223625118
  0
SEQEND
100
AcDbEntity
  8
画層12
  0
LINE
  8
画層12
  6
CONTINUOUS
 62
7
 10
157.505677656631
 20
10.1006566408738
 11
157.505677656631
 21
9.57091422716545
  0
POLYLINE
  8
画層12
 62
7
  6
CONTINUOUS
 10
0.0
 20
0.0
 30
0.0
 66
1
  0
VERTEX
  8
画層12
 10
158.710086976873
  20
10.8952704506511
  0
VERTEX
  8
画層12
 10
158.480906197238
  20
10.8880720050174
  0
VERTEX
  8
画層12
 10
158.252444091683
  20
10.8638006192349
  0
VERTEX
  8
画層12
 10
158.055231834711
  20
10.8210855316867
  0
VERTEX
  8
画層12
 10
157.899289627432
  20
10.7640074955717
  0
VERTEX
  8
画層12
 10
157.781666022442
  20
10.698038513894
  0
VERTEX
  8
画層12
 10
157.687683795041
  20
10.6224706060059
  0
VERTEX
  8
画層12
 10
157.617088662603
  20
10.5376720253616
  0
VERTEX
  8
画層12
 10
157.56467264722
  20
10.4480582950831
  0
VERTEX
  8
画層12
 10
157.529119606233
  20
10.342976073753
  0
VERTEX
  8
画層12
 10
157.509393089325
  20
10.2251177383346
  0
VERTEX
  8
画層12
 10
157.505677656631
  20
10.1006566408738
  0
SEQEND
100
AcDbEntity
  8
画層12
  0
LINE
  8
画層12
  6
CONTINUOUS
 62
7
 10
157.585971517285
 20
11.4814420569742
 11
161.628444523384
 21
11.4814420569742
  0
LINE
  8
画層12
  6
CONTINUOUS
 62
7
 10
157.585971517285
 20
12.2693126247808
 11
157.585971517285
 21
11.4814420569742
  0
LINE
  8
画層12
  6
CONTINUOUS
 62
7
 10
161.702145755876
 20
12.2693126247808
 11
157.585971517285
 21
12.2693126247808
  0
LINE
  8
画層12
  6
CONTINUOUS
 62
7
 10
156.946756526977
 20
11.219575602004
 11
156.946756526977
 21
8.79185842647388
  0
LINE
  8
画層12
  6
CONTINUOUS
 62
7
 10
156.946756526977
 20
8.79185842647388
 11
155.886876226434
 21
8.79185842647388
  0
LINE
  8
画層12
  6
CONTINUOUS
 62
7
 10
155.886876226434
 20
8.79185842647388
 11
155.886876226434
 21
11.1611951340221
  0
ARC
  8
画層12
  6
CONTINUOUS
 62
7
 10
155.8970195042
 20
11.219575602004
 40
1.04973702277681
 50
0
 51
90
  0
ARC
  8
画層12
  6
CONTINUOUS
 62
7
 10
155.669689256204
 20
11.1611951340221
 40
0.217186970229704
 50
0
 51
90
  0
LINE
  8
画層12
  6
CONTINUOUS
 62
7
 10
155.669689256204
 20
11.3783821042518
 11
152.827676644695
 21
11.3783821042518
  0
LINE
  8
画層12
  6
CONTINUOUS
 62
7
 10
152.827676644695
 20
11.3783821042518
 11
152.827676644695
 21
8.79185842647388
  0
LINE
  8
画層12
  6
CONTINUOUS
 62
7
 10
152.827676644695
 20
8.79185842647388
 11
151.767796344152
 21
8.79185842647388
  0
LINE
  8
画層12
  6
CONTINUOUS
 62
7
 10
151.767796344152
 20
8.79185842647388
 11
151.767796344152
 21
12.2693126247808
  0
LINE
  8
画層12
  6
CONTINUOUS
 62
7
 10
151.767796344152
 20
12.2693126247808
 11
155.8970195042
 21
12.2693126247808
  0
LINE
  8
画層12
  6
CONTINUOUS
 62
7
 10
151.151154085129
 20
8.79185842647388
 11
151.151154085129
 21
12.2693126247808
  0
LINE
  8
画層12
  6
CONTINUOUS
 62
7
 10
151.151154085129
 20
12.5169512072739
 11
151.151154085129
 21
13.312744835263
  0
LINE
  8
画層12
  6
CONTINUOUS
 62
7
 10
150.096074681579
 20
8.79185842647388
 11
151.151154085129
 21
8.79185842647388
  0
LINE
  8
画層12
  6
CONTINUOUS
 62
7
 10
150.096074681579
 20
12.2693126247808
 11
150.096074681579
 21
8.79185842647388
  0
LINE
  8
画層12
  6
CONTINUOUS
 62
7
 10
151.151154085129
 20
12.2693126247808
 11
150.096074681579
 21
12.2693126247808
  0
LINE
  8
画層12
  6
CONTINUOUS
 62
7
 10
150.096074681579
 20
12.5169512072739
 11
151.151154085129
 21
12.5169512072739
  0
LINE
  8
画層12
  6
CONTINUOUS
 62
7
 10
151.151154085129
 20
13.312744835263
 11
150.096074681579
 21
13.312744835263
  0
LINE
  8
画層12
  6
CONTINUOUS
 62
7
 10
150.096074681579
 20
13.312744835263
 11
150.096074681579
 21
12.5169512072739
  0
LINE
  8
画層12
  6
CONTINUOUS
 62
7
 10
147.612714964948
 20
8.79185842647388
 11
149.42483396542
 21
8.79185842647388
  0
LINE
  8
画層12
  6
CONTINUOUS
 62
7
 10
149.36862815718
 20
12.2693126247808
 11
147.706543372818
 21
12.2693126247808
  0
LINE
  8
画層12
  6
CONTINUOUS
 62
7
 10
146.769254579075
 20
10.5327684352987
 11
149.42483396542
 21
8.79185842647388
  0
LINE
  8
画層12
  6
CONTINUOUS
 62
7
 10
149.36862815718
 20
12.2693126247808
 11
146.769254579075
 21
10.5327684352987
  0
LINE
  8
画層12
  6
CONTINUOUS
 62
7
 10
147.612714964948
 20
8.79185842647388
 11
145.444436237698
 21
10.4286120822942
  0
LINE
  8
画層12
  6
CONTINUOUS
 62
7
 10
147.706543372818
 20
12.2693126247808
 11
145.44245839177
 21
10.639327367925
  0
LINE
  8
画層12
  6
CONTINUOUS
 62
7
 10
145.270417217541
 20
8.79185842647388
 11
145.270417217541
 21
10.3419400315873
  0
ARC
  8
画層12
  6
CONTINUOUS
 62
7
 10
145.379010702656
 20
10.3419400315873
 40
0.108593485114881
 50
52.9521908437226
 51
180.000000000015
  0
ARC
  8
画層12
  6
CONTINUOUS
 62
7
 10
145.379010702656
 20
10.7274575883685
 40
0.108593485114881
 50
179.999999999985
 51
305.751288374707
  0
LINE
  8
画層12
  6
CONTINUOUS
 62
7
 10
144.214751431434
 20
8.79185842647388
 11
145.270417217541
 21
8.79185842647388
  0
LINE
  8
画層12
  6
CONTINUOUS
 62
7
 10
145.270417217541
 20
10.7274575883685
 11
145.270417217541
 21
13.312744835263
  0
LINE
  8
画層12
  6
CONTINUOUS
 62
7
 10
145.270417217541
 20
13.312744835263
 11
144.214751431434
 21
13.312744835263
  0
LINE
  8
画層12
  6
CONTINUOUS
 62
7
 10
144.214751431434
 20
13.312744835263
 11
144.214751431434
 21
8.79185842647388
  0
LINE
  8
画層12
  6
CONTINUOUS
 62
7
 10
143.669303172675
 20
9.98638676273714
 11
143.669303172675
 21
11.0824714607436
  0
ARC
  8
画層12
  6
CONTINUOUS
 62
7
 10
142.474774836412
 20
9.98638676273714
 40
1.19452833626335
 50
270.000000000001
 51
1.3632527144591E-12
  0
ARC
  8
画層12
  6
CONTINUOUS
 62
7
 10
142.392367048796
 20
9.84989172991789
 40
0.162890227672278
 50
269.99999999999
 51
-9.99718657269984E-12
  0
LINE
  8
画層12
  6
CONTINUOUS
 62
7
 10
142.555257276468
 20
9.84989172991789
 11
142.555257276468
 21
11.2257084741006
  0
ARC
  8
画層12
  6
CONTINUOUS
 62
7
 10
142.392367048796
 20
11.2257084741006
 40
0.162890227672278
 50
0
 51
90
  0
ARC
  8
画層12
  6
CONTINUOUS
 62
7
 10
142.474774836412
 20
11.0824714607436
 40
1.19452833626335
 50
-1.3632527144591E-12
 51
89.9999999999986
  0
LINE
  8
画層12
  6
CONTINUOUS
 62
7
 10
139.516253901394
 20
8.79185842647388
 11
142.474774836412
 21
8.79185842647388
  0
LINE
  8
画層12
  6
CONTINUOUS
 62
7
 10
139.456172705583
 20
9.68700150224558
 11
142.392367048796
 21
9.68700150224558
  0
LINE
  8
画層12
  6
CONTINUOUS
 62
7
 10
135.096939553535
 20
8.79185842647388
 11
136.285290172167
 21
8.79185842647388
  0
ARC
  8
画層12
  6
CONTINUOUS
 62
7
 10
139.456172705583
 20
9.84989172991789
 40
0.162890227672278
 50
179.99999999999
 51
269.99999999999
  0
LINE
  8
画層12
  6
CONTINUOUS
 62
7
 10
132.871246986632
 20
13.312744835263
 11
132.871246986632
 21
12.3174711063001
  0
ARC
  8
画層12
  6
CONTINUOUS
 62
7
 10
139.516253901394
 20
9.98638676273714
 40
1.19452833626332
 50
180.000000000001
 51
270.000000000001
  0
LINE
  8
画層12
  6
CONTINUOUS
 62
7
 10
142.392367048796
 20
11.3885987017729
 11
139.456172705583
 21
11.3885987017729
  0
LINE
  8
画層12
  6
CONTINUOUS
 62
7
 10
139.293282477911
 20
11.2257084741006
 11
139.293282477911
 21
9.84989172991789
  0
ARC
  8
画層12
  6
CONTINUOUS
 62
7
 10
139.456172705583
 20
11.2257084741006
 40
0.162890227672278
 50
90
 51
180
  0
LINE
  8
画層12
  6
CONTINUOUS
 62
7
 10
142.474774836412
 20
12.2769997970069
 11
139.516253901394
 21
12.2769997970069
  0
LINE
  8
画層12
  6
CONTINUOUS
 62
7
 10
138.321725565131
 20
11.0824714607436
 11
138.321725565131
 21
9.98638676273714
  0
ARC
  8
画層12
  6
CONTINUOUS
 62
7
 10
139.516253901394
 20
11.0824714607436
 40
1.19452833626332
 50
89.9999999999986
 51
179.999999999999
  0
LINE
  8
画層12
  6
CONTINUOUS
 62
7
 10
138.54654879809
 20
12.3174711063001
 11
138.54654879809
 21
13.312744835263
  0
LINE
  8
画層12
  6
CONTINUOUS
 62
7
 10
132.871246986632
 20
12.3174711063001
 11
135.096939553535
 21
12.3174711063001
  0
LINE
  8
画層12
  6
CONTINUOUS
 62
7
 10
135.096939553535
 20
12.3174711063001
 11
135.096939553535
 21
8.79185842647388
  0
LINE
  8
画層12
  6
CONTINUOUS
 62
7
 10
136.285290172167
 20
8.79185842647388
 11
136.285290172167
 21
12.3174711063001
  0
LINE
  8
画層12
  6
CONTINUOUS
 62
7
 10
136.285290172167
 20
12.3174711063001
 11
138.54654879809
 21
12.3174711063001
  0
LINE
  8
画層12
  6
CONTINUOUS
 62
7
 10
138.54654879809
 20
13.312744835263
 11
132.871246986632
 21
13.312744835263
  0
LINE
  8
画層12
  6
CONTINUOUS
 62
7
 10
11.3712469866317
 20
106.791858426474
 11
8.87124698663166
 21
106.791858426474
  0
LINE
  8
画層12
  6
CONTINUOUS
 62
7
 10
286.371246986632
 20
106.791858426474
 11
288.871246986632
 21
106.791858426474
  0
LINE
  8
画層12
  6
CONTINUOUS
 62
7
 10
96.3712469866306
 20
15.7918584264738
 11
96.3712469866306
 21
48.2918584264738
  0
LINE
  8
画層12
  6
CONTINUOUS
 62
7
 10
117.371246986631
 20
15.7918584264738
 11
117.371246986631
 21
48.2918584264738
  0
LINE
  8
画層12
  6
CONTINUOUS
 62
7
 10
133.371246986631
 20
15.7918584264738
 11
133.371246986631
 21
35.7918584264738
  0
LINE
  8
画層12
  6
CONTINUOUS
 62
7
 10
149.371246986631
 20
15.7918584264738
 11
149.371246986631
 21
35.7918584264738
  0
LINE
  8
画層12
  6
CONTINUOUS
 62
7
 10
165.371246986631
 20
15.7918584264738
 11
165.371246986631
 21
48.2918584264738
  0
TEXT
  8
画層12
 62
7
  6
CENTER
 62
7
 10
169.433746986631
 20
31.7168584264738
 40
3.15
  1
承 認
  7
Font_0
 72
1
 11
173.371246986631
 21
33.2918584264738
 73
2
  0
TEXT
  8
画層12
 62
7
  6
CENTER
 62
7
 10
153.433746986631
 20
31.7168584264738
 40
3.15
  1
検 図
  7
Font_0
 72
1
 11
157.371246986631
 21
33.2918584264738
 73
2
  0
TEXT
  8
画層12
 62
7
  6
CENTER
 62
7
 10
121.433746986631
 20
31.7168584264738
 40
3.15
  1
製 図
  7
Font_0
 72
1
 11
125.371246986631
 21
33.2918584264738
 73
2
  0
TEXT
  8
画層12
 62
7
  6
CENTER
 62
7
 10
131.921246986631
 20
36.7168584264738
 40
3.15
  1
部   品   名
  7
Font_0
 72
1
 11
141.371246986631
 21
38.2918584264738
 73
2
  0
TEXT
  8
画層12
 62
7
  6
CENTER
 62
7
 10
245.346246986632
 20
36.7168584264738
 40
3.15
  1
表  面  処  理
  7
Font_0
 72
1
 11
256.371246986632
 21
38.2918584264738
 73
2
  0
LINE
  8
画層12
  6
CONTINUOUS
 62
7
 10
96.3712469866306
 20
20.7918584264739
 11
117.371246986631
 21
20.7918584264739
  0
TEXT
  8
画層12
 62
7
  6
CENTER
 62
7
 10
16.2903674005316
 20
19.4661528760739
 40
3.15
  1
日付
  7
Font_0
  0
TEXT
  8
画層12
 62
7
  6
CENTER
 62
7
 10
101.201246986631
 20
16.9418584264738
 40
2.7
 41
1.2
  1
 三角法
  7
Font_0
 72
1
 11
106.871246986631
 21
18.2918584264739
 73
2
  0
LINE
  8
画層12
  6
CONTINUOUS
 62
7
 10
96.3712469866306
 20
30.7918584264738
 11
181.371246986631
 21
30.7918584264738
  0
LINE
  8
画層12
  6
CONTINUOUS
 62
7
 10
37.3712469866316
 20
25.7918584264739
 11
37.3712469866316
 21
35.7918584264738
  0
LINE
  8
画層12
  6
CONTINUOUS
 62
7
 10
11.3712469866317
 20
32.4585250931738
 11
96.3712469866306
 21
32.4585250931738
  0
LINE
  8
画層12
  6
CONTINUOUS
 62
7
 10
11.3712469866317
 20
29.1251917597739
 11
96.3712469866306
 21
29.1251917597739
  0
LINE
  8
画層12
  6
CONTINUOUS
 62
7
 10
11.3712469866317
 20
25.7918584264739
 11
96.3712469866306
 21
25.7918584264739
  0
LINE
  8
画層12
  6
CONTINUOUS
 62
7
 10
29.3712469866317
 20
15.7918584264738
 11
29.3712469866317
 21
35.7918584264738
  0
LINE
  8
画層12
  6
CONTINUOUS
 62
7
 10
16.7712469866317
 20
25.7918584264739
 11
16.7712469866317
 21
35.7918584264738
  0
TEXT
  8
画層12
 62
7
  6
CENTER
 62
7
 10
54.4246834870805
 20
26.3026870795228
 40
2.4
  1
訂  正  記  事
  7
Font_0
  0
TEXT
  8
画層12
 62
7
  6
CENTER
 62
7
 10
12.2707328634316
 20
26.6413071067278
 40
1.8
  1
符号
  7
Font_0
  0
LINE
  8
画層12
  6
CONTINUOUS
 62
7
 10
14.2487727909316
 20
35.3220551397739
 11
15.5821061242316
 21
33.0126540629738
  0
LINE
  8
画層12
  6
CONTINUOUS
 62
7
 10
15.5821061242316
 20
33.0126540629738
 11
12.9154394575316
 21
33.0126540629738
  0
LINE
  8
画層12
  6
CONTINUOUS
 62
7
 10
12.9154394575316
 20
33.0126540629738
 11
14.2487727909316
 21
35.3220551397739
  0
LINE
  8
画層12
  6
CONTINUOUS
 62
7
 10
12.9177830648213
 20
29.7005519365426
 11
14.2511163981213
 21
32.0099530132427
  0
LINE
  8
画層12
  6
CONTINUOUS
 62
7
 10
15.5844497315213
 20
29.7005519365426
 11
12.9177830648213
 21
29.7005519365426
  0
LINE
  8
画層12
  6
CONTINUOUS
 62
7
 10
14.2511163981213
 20
32.0099530132427
 11
15.5844497315213
 21
29.7005519365426
  0
TEXT
  8
画層12
 62
7
  6
CENTER
 62
7
 10
30.9836323390455
 20
26.3413069636767
 40
2.4
  1
担当
  7
Font_0
  0
TEXT
  8
画層12
 62
7
  6
CENTER
 62
7
 10
19.299297749114
 20
26.2744760962408
 40
2.4
  1
年月日
  7
Font_0
  0
TEXT
  8
画層12
 62
7
  6
CENTER
 62
7
 10
14.111491225979
 20
29.9384521377623
 40
1.35600025863647
 41
0.577433297908475
  1
1
  7
Font_0
  0
TEXT
  8
画層12
 62
7
  6
CENTER
 62
7
 10
13.9789411669191
 20
33.2646926678474
 40
1.35600025863647
 41
0.577433297908475
  1
2
  7
Font_0
  0
TEXT
  8
画層0
 62
7
  6
CENTER
 62
7
 10
44.0062469866311
 20
19.0768584264739
 40
3.43
  1
２００９年　８月　６日
  7
Font_0
 72
1
 11
62.8712469866311
 21
20.7918584264739
 73
2
  0
TEXT
  8
画層0
 62
7
  6
CENTER
 62
7
 10
103.139996986631
 20
23.7578584264739
 40
4.068
 41
1.22295968534907
  1
1/1
  7
Font_0
 72
1
 11
106.871246986631
 21
25.7918584264739
 73
2
  0
TEXT
  8
画層12
 62
7
  6
CENTER
 62
7
 10
197.571246986631
 20
36.7168584264738
 40
3.15
  1
材    質
  7
Font_0
 72
1
 11
203.871246986631
 21
38.2918584264738
 73
2
  0
TEXT
  8
画層12
 62
7
  6
CENTER
 62
7
 10
170.221246986631
 20
36.7168584264738
 40
3.15
  1
個数
  7
Font_0
 72
1
 11
173.371246986631
 21
38.2918584264738
 73
2
  0
TEXT
  8
画層12
 62
7
  6
CENTER
 62
7
 10
100.571246986631
 20
36.7168584264738
 40
3.15
  1
部品番号
  7
Font_0
 72
1
 11
106.871246986631
 21
38.2918584264738
 73
2
  0
TEXT
  8
画層12
 62
7
  6
CENTER
 62
7
 10
103.023746986631
 20
31.7168584264738
 40
3.15
 41
1.22142857142857
  1
尺度
  7
Font_0
 72
1
 11
106.871246986631
 21
33.2918584264738
 73
2
  0
LINE
  8
画層12
  6
CONTINUOUS
 62
7
 10
186.371246986631
 20
15.7918584264738
 11
186.371246986631
 21
35.7918584264738
  0
LINE
  8
画層12
  6
CONTINUOUS
 62
7
 10
96.3712469866306
 20
40.7918584264738
 11
286.371246986632
 21
40.7918584264738
  0
TEXT
  8
画層12
 62
7
  6
CENTER
 62
7
 10
227.021246986632
 20
17.4418584264739
 40
2.7
 41
1.26666666666667
  1
番
  7
Font_0
  0
TEXT
  8
画層12
 62
7
  6
CENTER
 62
7
 10
227.021246986632
 20
21.9418584264739
 40
2.7
 41
1.26666666666667
  1
図
  7
Font_0
  0
TEXT
  8
画層12
 62
7
  6
CENTER
 62
7
 10
182.039772523213
 20
31.159091071774
 40
2.7
 41
1.26666666666667
  1
仕
  7
Font_0
  0
TEXT
  8
画層12
 62
7
  6
CENTER
 62
7
 10
182.039772523213
 20
27.6590910717739
 40
2.7
 41
1.27
  1
上
  7
Font_0
  0
TEXT
  8
画層12
 62
7
  6
CENTER
 62
7
 10
182.386715162294
 20
17.8872190115739
 40
2.7
 41
1.20333331823349
  1
取
  7
Font_0
  0
TEXT
  8
画層12
 62
7
  6
CENTER
 62
7
 10
182.386715162294
 20
21.3872190115738
 40
2.7
 41
1.20333331823349
  1
面
  7
Font_0
  0
TEXT
  8
画層12
 62
7
  6
CENTER
 62
7
 10
137.433746986631
 20
31.7168584264738
 40
3.15
  1
設 計
  7
Font_0
 72
1
 11
141.371246986631
 21
33.2918584264738
 73
2
  0
TEXT
  8
画層12
 62
7
  6
CENTER
 62
7
 10
227.101161248142
 20
26.4774102640739
 40
2.7
 41
1.26666666666667
  1
名
  7
Font_0
  0
TEXT
  8
画層12
 62
7
  6
CENTER
 62
7
 10
227.101161248142
 20
29.5774102640738
 40
2.7
 41
1.26666666666667
  1
品
  7
Font_0
  0
TEXT
  8
画層12
 62
7
  6
CENTER
 62
7
 10
227.101161248142
 20
32.6774102640739
 40
2.7
 41
1.26666666666667
  1
製
  7
Font_0
  0
LINE
  8
画層12
  6
CONTINUOUS
 62
7
 10
286.371246986632
 20
25.7918584264739
 11
181.371246986631
 21
25.7918584264739
  0
LINE
  8
画層12
  6
CONTINUOUS
 62
7
 10
231.371246986632
 20
15.7918584264738
 11
231.371246986632
 21
35.7918584264738
  0
LINE
  8
画層12
  6
CONTINUOUS
 62
7
 10
181.371246986631
 20
15.7918584264738
 11
181.371246986631
 21
48.2918584264738
  0
LINE
  8
画層12
  6
CONTINUOUS
 62
7
 10
286.371246986632
 20
35.7918584264738
 11
11.3712469866316
 21
35.7918584264738
  0
LINE
  8
画層12
  6
CONTINUOUS
 62
7
 10
226.371246986632
 20
48.2918584264738
 11
226.371246986632
 21
15.7918584264738
  0
LINE
  8
画層12
  6
CONTINUOUS
 62
7
 10
96.3712469866306
 20
48.2918584264738
 11
286.371246986632
 21
48.2918584264738
  0
LINE
  8
画層12
  6
CONTINUOUS
 62
7
 10
286.371246986632
 20
15.7918584264738
 11
11.3712469866317
 21
15.7918584264738
  0
LINE
  8
画層12
  6
CONTINUOUS
 62
7
 10
147.871246986632
 20
202.791858426474
 11
147.871246986632
 21
205.291858426474
  0
LINE
  8
画層12
  6
CONTINUOUS
 62
7
 10
286.371246986632
 20
202.791858426474
 11
286.371246986632
 21
15.7918584264738
  0
LINE
  8
画層12
  6
CONTINUOUS
 62
7
 10
11.3712469866317
 20
202.791858426474
 11
11.3712469866317
 21
15.7918584264738
  0
LINE
  8
画層12
  6
CONTINUOUS
 62
7
 10
286.371246986632
 20
202.791858426474
 11
11.3712469866317
 21
202.791858426474
  0
LINE
  8
画層0
  6
CENTER
 62
7
 10
43.9019003187845
 20
110.791858426474
 11
98.8296131718579
 21
110.791858426474
  0
LINE
  8
画層0
  6
CENTER
 62
7
 10
105.279914620811
 20
110.791858426474
 11
187.204928132782
 21
110.791858426474
  0
LINE
  8
画層0
  6
CENTER
 62
7
 10
137.879145079734
 20
136.824720516155
 11
137.879145079734
 21
98.1572512758969
  0
LINE
  8
画層0
  6
CONTINUOUS
 62
7
 10
47.079145079734
 20
108.023031426474
 11
47.079145079734
 21
113.560685426474
  0
LINE
  8
画層0
  6
CONTINUOUS
 62
7
 10
144.379145079734
 20
133.291858426474
 11
144.879145079734
 21
132.791858426474
  0
LINE
  8
画層0
  6
CONTINUOUS
 62
7
 10
145.879145079734
 20
120.491858426474
 11
145.579145079734
 21
120.791858426474
  0
LINE
  8
画層0
  6
CONTINUOUS
 62
7
 10
144.879145079734
 20
132.791858426474
 11
144.879145079734
 21
120.791858426474
  0
LINE
  8
画層0
  6
CONTINUOUS
 62
7
 10
131.379145079734
 20
133.291858426474
 11
144.379145079734
 21
133.291858426474
  0
LINE
  8
画層0
  6
CONTINUOUS
 62
7
 10
130.879145079734
 20
132.791858426474
 11
131.379145079734
 21
133.291858426474
  0
CIRCLE
  8
画層0
  6
CONTINUOUS
 62
7
 10
137.879145079734
 20
130.291858426474
 40
1.25
  0
CIRCLE
  8
画層0
  6
CONTINUOUS
 62
7
 10
137.879145079734
 20
130.291858426474
 40
1.5
  0
LINE
  8
画層0
  6
CENTER
 62
7
 10
140.879145079734
 20
130.291858426474
 11
134.879145079734
 21
130.291858426474
  0
LINE
  8
画層0
  6
CONTINUOUS
 62
7
 10
129.879145079734
 20
120.491858426474
 11
130.179145079734
 21
120.791858426474
  0
LINE
  8
画層0
  6
CONTINUOUS
 62
7
 10
130.879145079734
 20
132.791858426474
 11
130.879145079734
 21
120.791858426474
  0
LINE
  8
画層0
  6
CONTINUOUS
 62
7
 10
145.579145079734
 20
120.791858426474
 11
130.179145079734
 21
120.791858426474
  0
LINE
  8
画層0
  6
CONTINUOUS
 62
7
 10
145.879145079734
 20
102.091858426474
 11
145.579145079734
 21
101.791858426474
  0
LINE
  8
画層0
  6
CONTINUOUS
 62
7
 10
129.879145079734
 20
102.091858426474
 11
130.179145079734
 21
101.791858426474
  0
LINE
  8
画層0
  6
CONTINUOUS
 62
7
 10
111.879145079734
 20
103.091858426474
 11
112.179145079734
 21
102.791858426474
  0
LINE
  8
画層0
  6
CONTINUOUS
 62
7
 10
129.879145079734
 20
102.85460449328
 11
145.879145079734
 21
102.85460449328
  0
LINE
  8
画層0
  6
CONTINUOUS
 62
7
 10
130.179145079734
 20
101.791858426474
 11
145.579145079734
 21
101.791858426474
  0
LINE
  8
画層0
  6
CONTINUOUS
 62
7
 10
129.879145079734
 20
102.791858426474
 11
112.179145079734
 21
102.791858426474
  0
LINE
  8
画層0
  6
CONTINUOUS
 62
7
 10
145.879145079734
 20
102.791858426474
 11
168.479145079734
 21
102.791858426474
  0
LINE
  8
画層0
  6
CONTINUOUS
 62
7
 10
145.879145079734
 20
102.091858426474
 11
145.879145079734
 21
120.491858426474
  0
LINE
  8
画層0
  6
BYLAYER
 62
7
 10
113.819145079734
 20
110.791858426474
 11
113.819145079734
 21
110.791858426474
  0
LINE
  8
画層0
  6
CONTINUOUS
 62
7
 10
129.879145079734
 20
102.091858426474
 11
129.879145079734
 21
120.491858426474
  0
LINE
  8
画層0
  6
CONTINUOUS
 62
7
 10
112.179145079734
 20
102.791858426474
 11
112.179145079734
 21
118.791858426474
  0
LINE
  8
画層0
  6
CONTINUOUS
 62
7
 10
111.879145079734
 20
118.491858426474
 11
111.879145079734
 21
103.091858426474
  0
LINE
  8
画層0
  6
CONTINUOUS
 62
7
 10
174.979145079734
 20
95.5918584264738
 11
174.979145079734
 21
125.991858426474
  0
LINE
  8
画層0
  6
CONTINUOUS
 62
7
 10
168.479145079734
 20
95.7918584264739
 11
168.479145079734
 21
125.791858426474
  0
LINE
  8
画層0
  6
CONTINUOUS
 62
7
 10
174.979145079734
 20
98.5418584264739
 11
178.829145079734
 21
98.5418584264739
  0
LINE
  8
画層0
  6
CONTINUOUS
 62
7
 10
178.379145079734
 20
98.0918584264739
 11
175.979145079734
 21
98.0918584264739
  0
LINE
  8
画層0
  6
CONTINUOUS
 62
7
 10
178.979145079734
 20
98.6918584264739
 11
178.979145079734
 21
122.891858426474
  0
LINE
  8
画層0
  6
CONTINUOUS
 62
7
 10
178.379145079734
 20
98.0918584264739
 11
178.979145079734
 21
98.6918584264739
  0
LINE
  8
画層0
  6
CONTINUOUS
 62
7
 10
178.379145079734
 20
98.0918584264739
 11
178.379145079734
 21
123.491858426474
  0
LINE
  8
画層0
  6
CONTINUOUS
 62
7
 10
174.679145079734
 20
95.2918584264739
 11
168.979145079734
 21
95.2918584264739
  0
LINE
  8
画層0
  6
CONTINUOUS
 62
7
 10
174.979145079734
 20
95.5918584264738
 11
174.679145079734
 21
95.2918584264739
  0
LINE
  8
画層0
  6
CONTINUOUS
 62
7
 10
168.979145079734
 20
95.2918584264739
 11
168.479145079734
 21
95.7918584264739
  0
LINE
  8
画層0
  6
CONTINUOUS
 62
7
 10
168.979145079734
 20
95.2918584264739
 11
168.979145079734
 21
126.291858426474
  0
LINE
  8
画層0
  6
CONTINUOUS
 62
7
 10
174.679145079734
 20
95.2918584264739
 11
174.679145079734
 21
126.291858426474
  0
LINE
  8
画層0
  6
CONTINUOUS
 62
7
 10
175.979145079734
 20
98.0918584264739
 11
175.979145079734
 21
123.491858426474
  0
LINE
  8
画層0
  6
CONTINUOUS
 62
7
 10
130.879145079734
 20
132.791858426474
 11
144.879145079734
 21
132.791858426474
  0
LINE
  8
画層0
  6
CONTINUOUS
 62
7
 10
168.979145079734
 20
126.291858426474
 11
168.479145079734
 21
125.791858426474
  0
LINE
  8
画層0
  6
CONTINUOUS
 62
7
 10
174.979145079734
 20
125.991858426474
 11
174.679145079734
 21
126.291858426474
  0
LINE
  8
画層0
  6
CONTINUOUS
 62
7
 10
174.679145079734
 20
126.291858426474
 11
168.979145079734
 21
126.291858426474
  0
LINE
  8
画層0
  6
CONTINUOUS
 62
7
 10
178.379145079734
 20
123.491858426474
 11
178.979145079734
 21
122.891858426474
  0
LINE
  8
画層0
  6
CONTINUOUS
 62
7
 10
178.379145079734
 20
123.491858426474
 11
175.979145079734
 21
123.491858426474
  0
LINE
  8
画層0
  6
CONTINUOUS
 62
7
 10
174.979145079734
 20
123.041858426474
 11
178.829145079734
 21
123.041858426474
  0
LINE
  8
画層0
  6
BYLAYER
 62
7
 10
113.819145079734
 20
110.791858426474
 11
113.819145079734
 21
110.791858426474
  0
LINE
  8
画層0
  6
CONTINUOUS
 62
7
 10
112.179145079734
 20
118.791858426474
 11
168.479145079734
 21
118.791858426474
  0
LINE
  8
画層0
  6
CONTINUOUS
 62
7
 10
111.879145079734
 20
118.491858426474
 11
112.179145079734
 21
118.791858426474
  0
CIRCLE
  8
画層0
  6
CONTINUOUS
 62
7
 10
171.779145079734
 20
110.791858426474
 40
1.25
  0
CIRCLE
  8
画層0
  6
CONTINUOUS
 62
7
 10
171.779145079734
 20
110.791858426474
 40
1.50000000000011
  0
LINE
  8
画層0
  6
CENTER
 62
7
 10
171.779145079734
 20
113.791858426474
 11
171.779145079734
 21
107.791858426474
  0
LINE
  8
画層1
  6
CONTINUOUS
 62
7
 10
47.079145079734
 20
77.4558565038336
 11
47.079145079734
 21
107.023031426474
  0
LINE
  8
画層1
  6
CONTINUOUS
 62
7
 10
111.879145079734
 20
77.4558565038336
 11
111.879145079734
 21
102.091858426474
  0
LINE
  8
画層1
  6
CONTINUOUS
 62
7
 10
50.079145079734
 20
78.4558565038336
 11
108.879145079734
 21
78.4558565038336
  0
TEXT
  8
画層1
 62
7
  6
BYLAYER
 62
7
 10
69.8791450797341
 20
78.9891565038337
 40
3.2
  1
W.D.=64.8%%p2
  7
Font_0
 72
1
 11
79.4791450797341
 21
80.5891565038337
 73
2
  0
LINE
  8
画層0
  6
CONTINUOUS
 62
7
 10
50.079145079734
 20
77.6520095038337
 11
47.079145079734
 21
78.4558565038336
  0
LINE
  8
画層0
  6
CONTINUOUS
 62
7
 10
47.079145079734
 20
78.4558565038336
 11
50.079145079734
 21
79.2597035038336
  0
LINE
  8
画層0
  6
CONTINUOUS
 62
7
 10
47.079145079734
 20
78.4558565038336
 11
50.079145079734
 21
78.4558565038336
  0
LINE
  8
画層0
  6
CONTINUOUS
 62
7
 10
108.879145079734
 20
79.2597035038336
 11
111.879145079734
 21
78.4558565038336
  0
LINE
  8
画層0
  6
CONTINUOUS
 62
7
 10
111.879145079734
 20
78.4558565038336
 11
108.879145079734
 21
77.6520095038337
  0
LINE
  8
画層0
  6
CONTINUOUS
 62
7
 10
111.879145079734
 20
78.4558565038336
 11
108.879145079734
 21
78.4558565038336
  0
LINE
  8
画層1
  6
CONTINUOUS
 62
7
 10
174.979145079734
 20
77.4558565038336
 11
174.979145079734
 21
94.5918584264739
  0
LINE
  8
画層1
  6
CONTINUOUS
 62
7
 10
114.879145079734
 20
78.4558565038336
 11
171.979145079734
 21
78.4558565038336
  0
TEXT
  8
画層1
 62
7
  6
BYLAYER
 62
7
 10
140.229145079734
 20
78.9891565038337
 40
3.2
  1
63.1
  7
Font_0
 72
1
 11
143.429145079734
 21
80.5891565038337
 73
2
  0
LINE
  8
画層0
  6
CONTINUOUS
 62
7
 10
114.879145079734
 20
77.6520095038337
 11
111.879145079734
 21
78.4558565038336
  0
LINE
  8
画層0
  6
CONTINUOUS
 62
7
 10
111.879145079734
 20
78.4558565038336
 11
114.879145079734
 21
79.2597035038336
  0
LINE
  8
画層0
  6
CONTINUOUS
 62
7
 10
111.879145079734
 20
78.4558565038336
 11
114.879145079734
 21
78.4558565038336
  0
LINE
  8
画層0
  6
CONTINUOUS
 62
7
 10
171.979145079734
 20
79.2597035038336
 11
174.979145079734
 21
78.4558565038336
  0
LINE
  8
画層0
  6
CONTINUOUS
 62
7
 10
174.979145079734
 20
78.4558565038336
 11
171.979145079734
 21
77.6520095038337
  0
LINE
  8
画層0
  6
CONTINUOUS
 62
7
 10
174.979145079734
 20
78.4558565038336
 11
171.979145079734
 21
78.4558565038336
  0
LINE
  8
画層1
  6
CONTINUOUS
 62
7
 10
178.979145079734
 20
77.4558565038336
 11
178.979145079734
 21
97.6918584264739
  0
LINE
  8
画層1
  6
CONTINUOUS
 62
7
 10
174.979145079734
 20
78.4558565038336
 11
178.979145079734
 21
78.4558565038336
  0
LINE
  8
画層1
  6
CONTINUOUS
 62
7
 10
172.979145079734
 20
78.4558565038336
 11
170.979145079734
 21
78.4558565038336
  0
LINE
  8
画層1
  6
CONTINUOUS
 62
7
 10
181.979145079734
 20
78.4558565038336
 11
185.645778413067
 21
78.4558565038336
  0
TEXT
  8
画層1
 62
7
  6
BYLAYER
 62
7
 10
183.779111746401
 20
78.9891565038337
 40
3.2
  1
4
  7
Font_0
 72
1
 11
184.579111746401
 21
80.5891565038337
 73
2
  0
LINE
  8
画層0
  6
CONTINUOUS
 62
7
 10
174.979145079734
 20
78.4558565038336
 11
172.979145079734
 21
78.4558565038336
  0
LINE
  8
画層0
  6
CONTINUOUS
 62
7
 10
181.979145079734
 20
77.6520095038337
 11
178.979145079734
 21
78.4558565038336
  0
LINE
  8
画層0
  6
CONTINUOUS
 62
7
 10
178.979145079734
 20
78.4558565038336
 11
181.979145079734
 21
79.2597035038336
  0
LINE
  8
画層0
  6
CONTINUOUS
 62
7
 10
178.979145079734
 20
78.4558565038336
 11
181.979145079734
 21
78.4558565038336
  0
LINE
  8
画層1
  6
CONTINUOUS
 62
7
 10
111.879145079734
 20
83.1521675742781
 11
111.879145079734
 21
102.091858426474
  0
LINE
  8
画層1
  6
CONTINUOUS
 62
7
 10
137.879145079734
 20
83.1521675742781
 11
137.879145079734
 21
97.1572512758969
  0
LINE
  8
画層1
  6
CONTINUOUS
 62
7
 10
114.879145079734
 20
84.1521675742781
 11
134.879145079734
 21
84.1521675742781
  0
TEXT
  8
画層1
 62
7
  6
BYLAYER
 62
7
 10
123.279145079734
 20
84.6854675742781
 40
3.2
  1
26
  7
Font_0
 72
1
 11
124.879145079734
 21
86.285467574278
 73
2
  0
LINE
  8
画層0
  6
CONTINUOUS
 62
7
 10
114.879145079734
 20
83.348320574278
 11
111.879145079734
 21
84.1521675742781
  0
LINE
  8
画層0
  6
CONTINUOUS
 62
7
 10
111.879145079734
 20
84.1521675742781
 11
114.879145079734
 21
84.956014574278
  0
LINE
  8
画層0
  6
CONTINUOUS
 62
7
 10
111.879145079734
 20
84.1521675742781
 11
114.879145079734
 21
84.1521675742781
  0
LINE
  8
画層0
  6
CONTINUOUS
 62
7
 10
134.879145079734
 20
84.9560145742781
 11
137.879145079734
 21
84.1521675742781
  0
LINE
  8
画層0
  6
CONTINUOUS
 62
7
 10
137.879145079734
 20
84.1521675742781
 11
134.879145079734
 21
83.3483205742781
  0
LINE
  8
画層0
  6
CONTINUOUS
 62
7
 10
137.879145079734
 20
84.1521675742781
 11
134.879145079734
 21
84.1521675742781
  0
LINE
  8
画層1
  6
CONTINUOUS
 62
7
 10
111.179145079734
 20
102.791858426474
 11
103.080635483234
 21
102.791858426474
  0
LINE
  8
画層1
  6
CONTINUOUS
 62
7
 10
111.179145079734
 20
118.791858426474
 11
103.080635483234
 21
118.791858426474
  0
LINE
  8
画層1
  6
CONTINUOUS
 62
7
 10
104.080635483234
 20
105.791858426474
 11
104.080635483234
 21
115.791858426474
  0
TEXT
  8
画層1
 62
7
  6
BYLAYER
 62
7
 10
103.547335483234
 20
107.591858426474
 40
3.2
  1
%%c16
  7
Font_0
 50
90
 72
1
 11
101.947335483234
 21
110.791858426474
 73
2
  0
LINE
  8
画層0
  6
CONTINUOUS
 62
7
 10
104.884482483234
 20
105.791858426474
 11
104.080635483234
 21
102.791858426474
  0
LINE
  8
画層0
  6
CONTINUOUS
 62
7
 10
104.080635483234
 20
102.791858426474
 11
103.276788483234
 21
105.791858426474
  0
LINE
  8
画層0
  6
CONTINUOUS
 62
7
 10
104.080635483234
 20
102.791858426474
 11
104.080635483234
 21
105.791858426474
  0
LINE
  8
画層0
  6
CONTINUOUS
 62
7
 10
103.276788483234
 20
115.791858426474
 11
104.080635483234
 21
118.791858426474
  0
LINE
  8
画層0
  6
CONTINUOUS
 62
7
 10
104.080635483234
 20
118.791858426474
 11
104.884482483234
 21
115.791858426474
  0
LINE
  8
画層0
  6
CONTINUOUS
 62
7
 10
104.080635483234
 20
118.791858426474
 11
104.080635483234
 21
115.791858426474
  0
TEXT
  8
画層0
 62
7
  6
CONTINUOUS
 62
7
 10
64.7712469866316
 20
147.191858426474
 40
3.2
  1
－０．０３％
  7
Font_0
 72
1
 11
74.3712469866316
 21
148.791858426474
 73
2
  0
TEXT
  8
画層0
 62
7
  6
CONTINUOUS
 62
7
 10
67.9712469866316
 20
134.391858426474
 40
3.2
  1
２／３″
  7
Font_0
 72
1
 11
74.3712469866316
 21
135.991858426474
 73
2
  0
TEXT
  8
画層0
 62
7
  6
CONTINUOUS
 62
7
 10
71.1712469866316
 20
140.791858426474
 40
3.2
  1
４６
  7
Font_0
 72
1
 11
74.3712469866316
 21
142.391858426474
 73
2
  0
TEXT
  8
画層0
 62
7
  6
CONTINUOUS
 62
7
 10
66.3712469866316
 20
153.591858426474
 40
3.2
  1
０．０６６
  7
Font_0
 72
1
 11
74.3712469866316
 21
155.191858426474
 73
2
  0
TEXT
  8
画層0
 62
7
  6
CONTINUOUS
 62
7
 10
67.9712469866316
 20
159.991858426474
 40
3.2
  1
１５．０
  7
Font_0
 72
1
 11
74.3712469866316
 21
161.591858426474
 73
2
  0
TEXT
  8
画層0
 62
7
  6
CONTINUOUS
 62
7
 10
67.9712469866316
 20
166.391858426474
 40
3.2
  1
５．１μ
  7
Font_0
 72
1
 11
74.3712469866316
 21
167.991858426474
 73
2
  0
TEXT
  8
画層0
 62
7
  6
CONTINUOUS
 62
7
 10
67.9712469866316
 20
172.791858426474
 40
3.2
  1
３００μ
  7
Font_0
 72
1
 11
74.3712469866316
 21
174.391858426474
 73
2
  0
TEXT
  8
画層0
 62
7
  6
CONTINUOUS
 62
7
 10
64.7712469866316
 20
179.191858426474
 40
3.2
  1
６４．８ｍｍ
  7
Font_0
 72
1
 11
74.3712469866316
 21
180.791858426474
 73
2
  0
TEXT
  8
画層0
 62
7
  6
CONTINUOUS
 62
7
 10
63.1712469866316
 20
185.591858426474
 40
3.2
  1
１４５．４ｍｍ
  7
Font_0
 72
1
 11
74.3712469866316
 21
187.191858426474
 73
2
  0
TEXT
  8
画層0
 62
7
  6
CONTINUOUS
 62
7
 10
69.5712469866316
 20
191.991858426474
 40
3.2
  1
２．０
  7
Font_0
 72
1
 11
74.3712469866316
 21
193.591858426474
 73
2
  0
LINE
  8
画層0
  6
CONTINUOUS
 62
7
 10
89.3712469866316
 20
132.791858426474
 11
17.3712469866316
 21
132.791858426474
  0
LINE
  8
画層0
  6
CONTINUOUS
 62
7
 10
89.3712469866316
 20
139.191858426474
 11
17.3712469866316
 21
139.191858426474
  0
LINE
  8
画層0
  6
CONTINUOUS
 62
7
 10
89.3712469866316
 20
145.591858426474
 11
17.3712469866316
 21
145.591858426474
  0
LINE
  8
画層0
  6
CONTINUOUS
 62
7
 10
17.3712469866316
 20
151.991858426474
 11
89.3712469866316
 21
151.991858426474
  0
LINE
  8
画層0
  6
CONTINUOUS
 62
7
 10
89.3712469866316
 20
158.391858426474
 11
17.3712469866316
 21
158.391858426474
  0
LINE
  8
画層0
  6
CONTINUOUS
 62
7
 10
17.3712469866316
 20
164.791858426474
 11
89.3712469866316
 21
164.791858426474
  0
LINE
  8
画層0
  6
CONTINUOUS
 62
7
 10
89.3712469866316
 20
171.191858426474
 11
17.3712469866316
 21
171.191858426474
  0
LINE
  8
画層0
  6
CONTINUOUS
 62
7
 10
17.3712469866316
 20
177.591858426474
 11
89.3712469866316
 21
177.591858426474
  0
LINE
  8
画層0
  6
CONTINUOUS
 62
7
 10
89.3712469866316
 20
183.991858426474
 11
17.3712469866316
 21
183.991858426474
  0
LINE
  8
画層0
  6
CONTINUOUS
 62
7
 10
17.3712469866316
 20
190.391858426474
 11
89.3712469866316
 21
190.391858426474
  0
LINE
  8
画層0
  6
CONTINUOUS
 62
7
 10
17.3712469866316
 20
196.791858426474
 11
17.3712469866316
 21
132.791858426474
  0
LINE
  8
画層0
  6
CONTINUOUS
 62
7
 10
89.3712469866316
 20
196.791858426474
 11
17.3712469866316
 21
196.791858426474
  0
LINE
  8
画層0
  6
CONTINUOUS
 62
7
 10
89.3712469866316
 20
132.791858426474
 11
89.3712469866316
 21
196.791858426474
  0
TEXT
  8
画層0
 62
7
  6
BYLAYER
 62
7
 10
19.3712469866316
 20
134.391858426474
 40
3.2
  1
対応素子サイズ
  7
Font_0
 11
19.3712469866316
 21
135.991858426474
 73
2
  0
TEXT
  8
画層0
 62
7
  6
BYLAYER
 62
7
 10
19.3712469866316
 20
140.791858426474
 40
3.2
  1
重量
  7
Font_0
 11
19.3712469866316
 21
142.391858426474
 73
2
  0
TEXT
  8
画層0
 62
7
  6
BYLAYER
 62
7
 10
19.3712469866316
 20
147.191858426474
 40
3.2
  1
ＴＶディストーション
  7
Font_0
 11
19.3712469866316
 21
148.791858426474
 73
2
  0
TEXT
  8
画層0
 62
7
  6
BYLAYER
 62
7
 10
19.3712469866316
 20
153.591858426474
 40
3.2
  1
Ｎ．Ａ．
  7
Font_0
 11
19.3712469866316
 21
155.191858426474
 73
2
  0
TEXT
  8
画層0
 62
7
  6
BYLAYER
 62
7
 10
19.3712469866316
 20
159.991858426474
 40
3.2
  1
有効Ｆナンバー
  7
Font_0
 11
19.3712469866316
 21
161.591858426474
 73
2
  0
TEXT
  8
画層0
 62
7
  6
BYLAYER
 62
7
 10
19.3712469866316
 20
166.391858426474
 40
3.2
  1
分解能
  7
Font_0
 11
19.3712469866316
 21
167.991858426474
 73
2
  0
TEXT
  8
画層0
 62
7
  6
BYLAYER
 62
7
 10
19.3712469866316
 20
172.791858426474
 40
3.2
  1
被写界深度
  7
Font_0
 11
19.3712469866316
 21
174.391858426474
 73
2
  0
TEXT
  8
画層0
 62
7
  6
BYLAYER
 62
7
 10
19.3712469866316
 20
179.191858426474
 40
3.2
  1
Ｗ．Ｄ．
  7
Font_0
 11
19.3712469866316
 21
180.791858426474
 73
2
  0
TEXT
  8
画層0
 62
7
  6
BYLAYER
 62
7
 10
19.3712469866316
 20
185.591858426474
 40
3.2
  1
Ｏ／Ｉ
  7
Font_0
 11
19.3712469866316
 21
187.191858426474
 73
2
  0
TEXT
  8
画層0
 62
7
  6
BYLAYER
 62
7
 10
19.3712469866316
 20
191.991858426474
 40
3.2
  1
倍率
  7
Font_0
 11
19.3712469866316
 21
193.591858426474
 73
2
  0
LINE
  8
画層0
  6
CONTINUOUS
 62
7
 10
59.3712469866316
 20
196.791858426474
 11
59.3712469866316
 21
132.791858426474
  0
LINE
  8
画層1
  6
CONTINUOUS
 62
7
 10
199.295774420954
 20
95.2918584264739
 11
175.679145079734
 21
95.2918584264739
  0
LINE
  8
画層1
  6
CONTINUOUS
 62
7
 10
199.295774420954
 20
126.291858426474
 11
175.679145079734
 21
126.291858426474
  0
LINE
  8
画層1
  6
CONTINUOUS
 62
7
 10
198.295774420954
 20
98.2918584264739
 11
198.295774420954
 21
123.291858426474
  0
TEXT
  8
画層1
 62
7
  6
BYLAYER
 62
7
 10
197.762474420954
 20
107.591858426474
 40
3.2
  1
%%c31
  7
Font_0
 50
90
 72
1
 11
196.162474420954
 21
110.791858426474
 73
2
  0
LINE
  8
画層0
  6
CONTINUOUS
 62
7
 10
199.099621420954
 20
98.2918584264739
 11
198.295774420954
 21
95.2918584264739
  0
LINE
  8
画層0
  6
CONTINUOUS
 62
7
 10
198.295774420954
 20
95.2918584264739
 11
197.491927420954
 21
98.2918584264739
  0
LINE
  8
画層0
  6
CONTINUOUS
 62
7
 10
198.295774420954
 20
95.2918584264739
 11
198.295774420954
 21
98.2918584264739
  0
LINE
  8
画層0
  6
CONTINUOUS
 62
7
 10
197.491927420954
 20
123.291858426474
 11
198.295774420954
 21
126.291858426474
  0
LINE
  8
画層0
  6
CONTINUOUS
 62
7
 10
198.295774420954
 20
126.291858426474
 11
199.099621420954
 21
123.291858426474
  0
LINE
  8
画層0
  6
CONTINUOUS
 62
7
 10
198.295774420954
 20
126.291858426474
 11
198.295774420954
 21
123.291858426474
  0
LINE
  8
画層1
  6
CONTINUOUS
 62
7
 10
193.310941307216
 20
98.0918584264739
 11
179.379145079734
 21
98.0918584264739
  0
LINE
  8
画層1
  6
CONTINUOUS
 62
7
 10
193.310941307216
 20
123.491858426474
 11
179.379145079734
 21
123.491858426474
  0
LINE
  8
画層1
  6
CONTINUOUS
 62
7
 10
192.310941307216
 20
101.091858426474
 11
192.310941307216
 21
120.491858426474
  0
TEXT
  8
画層1
 62
7
  6
BYLAYER
 62
7
 10
191.777641307216
 20
102.791858426474
 40
3.2
  1
Ｃマウント
  7
Font_0
 50
90
 72
1
 11
190.177641307216
 21
110.791858426474
 73
2
  0
LINE
  8
画層0
  6
CONTINUOUS
 62
7
 10
193.114788307216
 20
101.091858426474
 11
192.310941307216
 21
98.0918584264739
  0
LINE
  8
画層0
  6
CONTINUOUS
 62
7
 10
192.310941307216
 20
98.0918584264739
 11
191.507094307216
 21
101.091858426474
  0
LINE
  8
画層0
  6
CONTINUOUS
 62
7
 10
192.310941307216
 20
98.0918584264739
 11
192.310941307216
 21
101.091858426474
  0
LINE
  8
画層0
  6
CONTINUOUS
 62
7
 10
191.507094307216
 20
120.491858426474
 11
192.310941307216
 21
123.491858426474
  0
LINE
  8
画層0
  6
CONTINUOUS
 62
7
 10
192.310941307216
 20
123.491858426474
 11
193.114788307216
 21
120.491858426474
  0
LINE
  8
画層0
  6
CONTINUOUS
 62
7
 10
192.310941307216
 20
123.491858426474
 11
192.310941307216
 21
120.491858426474
  0
LINE
  8
画層7
  6
BYLAYER
 62
7
 10
144.554145079734
 20
161.525544281544
 11
145.379145079734
 21
161.525544281544
  0
LINE
  8
画層7
  6
BYLAYER
 62
7
 10
145.379145079734
 20
161.525544281544
 11
145.379145079734
 21
162.075544281544
  0
LINE
  8
画層7
  6
BYLAYER
 62
7
 10
145.379145079734
 20
162.075544281544
 11
144.554145079734
 21
162.075544281544
  0
LINE
  8
画層7
  6
BYLAYER
 62
7
 10
144.554145079734
 20
162.075544281544
 11
144.554145079734
 21
162.900544281544
  0
LINE
  8
画層7
  6
BYLAYER
 62
7
 10
144.554145079734
 20
162.900544281544
 11
144.004145079734
 21
162.900544281544
  0
LINE
  8
画層7
  6
BYLAYER
 62
7
 10
144.004145079734
 20
162.900544281544
 11
144.004145079734
 21
162.075544281544
  0
LINE
  8
画層7
  6
BYLAYER
 62
7
 10
143.179145079734
 20
161.525544281544
 11
144.004145079734
 21
161.525544281544
  0
LINE
  8
画層7
  6
BYLAYER
 62
7
 10
144.004145079734
 20
162.075544281544
 11
143.179145079734
 21
162.075544281544
  0
LINE
  8
画層7
  6
BYLAYER
 62
7
 10
143.179145079734
 20
162.075544281544
 11
143.179145079734
 21
161.525544281544
  0
LINE
  8
画層7
  6
BYLAYER
 62
7
 10
144.004145079734
 20
160.700544281544
 11
144.554145079734
 21
160.700544281544
  0
LINE
  8
画層7
  6
BYLAYER
 62
7
 10
144.554145079734
 20
160.700544281544
 11
144.554145079734
 21
161.525544281544
  0
LINE
  8
画層7
  6
BYLAYER
 62
7
 10
144.004145079734
 20
161.525544281544
 11
144.004145079734
 21
160.700544281544
  0
CIRCLE
  8
画層0
  6
CONTINUOUS
 62
7
 10
144.279145079734
 20
161.800544281544
 40
1.60000000000002
  0
LINE
  8
画層7
  6
BYLAYER
 62
7
 10
131.754145079734
 20
161.525544281544
 11
132.579145079734
 21
161.525544281544
  0
LINE
  8
画層7
  6
BYLAYER
 62
7
 10
132.579145079734
 20
161.525544281544
 11
132.579145079734
 21
162.075544281544
  0
LINE
  8
画層7
  6
BYLAYER
 62
7
 10
132.579145079734
 20
162.075544281544
 11
131.754145079734
 21
162.075544281544
  0
LINE
  8
画層7
  6
BYLAYER
 62
7
 10
131.754145079734
 20
162.075544281544
 11
131.754145079734
 21
162.900544281544
  0
LINE
  8
画層7
  6
BYLAYER
 62
7
 10
131.754145079734
 20
162.900544281544
 11
131.204145079734
 21
162.900544281544
  0
LINE
  8
画層7
  6
BYLAYER
 62
7
 10
131.204145079734
 20
162.900544281544
 11
131.204145079734
 21
162.075544281544
  0
LINE
  8
画層7
  6
BYLAYER
 62
7
 10
130.379145079734
 20
161.525544281544
 11
131.204145079734
 21
161.525544281544
  0
LINE
  8
画層7
  6
BYLAYER
 62
7
 10
131.204145079734
 20
162.075544281544
 11
130.379145079734
 21
162.075544281544
  0
LINE
  8
画層7
  6
BYLAYER
 62
7
 10
130.379145079734
 20
162.075544281544
 11
130.379145079734
 21
161.525544281544
  0
LINE
  8
画層7
  6
BYLAYER
 62
7
 10
131.204145079734
 20
160.700544281544
 11
131.754145079734
 21
160.700544281544
  0
LINE
  8
画層7
  6
BYLAYER
 62
7
 10
131.754145079734
 20
160.700544281544
 11
131.754145079734
 21
161.525544281544
  0
LINE
  8
画層7
  6
BYLAYER
 62
7
 10
131.204145079734
 20
161.525544281544
 11
131.204145079734
 21
160.700544281544
  0
CIRCLE
  8
画層0
  6
CONTINUOUS
 62
7
 10
131.479145079734
 20
161.800544281544
 40
1.59999999999999
  0
LINE
  8
画層7
  6
BYLAYER
 62
7
 10
144.554145079734
 20
175.725544281544
 11
145.379145079734
 21
175.725544281544
  0
LINE
  8
画層7
  6
BYLAYER
 62
7
 10
145.379145079734
 20
175.725544281544
 11
145.379145079734
 21
176.275544281544
  0
LINE
  8
画層7
  6
BYLAYER
 62
7
 10
145.379145079734
 20
176.275544281544
 11
144.554145079734
 21
176.275544281544
  0
LINE
  8
画層7
  6
BYLAYER
 62
7
 10
144.554145079734
 20
176.275544281544
 11
144.554145079734
 21
177.100544281544
  0
LINE
  8
画層7
  6
BYLAYER
 62
7
 10
144.554145079734
 20
177.100544281544
 11
144.004145079734
 21
177.100544281544
  0
LINE
  8
画層7
  6
BYLAYER
 62
7
 10
144.004145079734
 20
177.100544281544
 11
144.004145079734
 21
176.275544281544
  0
LINE
  8
画層7
  6
BYLAYER
 62
7
 10
143.179145079734
 20
175.725544281544
 11
144.004145079734
 21
175.725544281544
  0
LINE
  8
画層7
  6
BYLAYER
 62
7
 10
144.004145079734
 20
176.275544281544
 11
143.179145079734
 21
176.275544281544
  0
LINE
  8
画層7
  6
BYLAYER
 62
7
 10
143.179145079734
 20
176.275544281544
 11
143.179145079734
 21
175.725544281544
  0
LINE
  8
画層7
  6
BYLAYER
 62
7
 10
144.004145079734
 20
174.900544281544
 11
144.554145079734
 21
174.900544281544
  0
LINE
  8
画層7
  6
BYLAYER
 62
7
 10
144.554145079734
 20
174.900544281544
 11
144.554145079734
 21
175.725544281544
  0
LINE
  8
画層7
  6
BYLAYER
 62
7
 10
144.004145079734
 20
175.725544281544
 11
144.004145079734
 21
174.900544281544
  0
CIRCLE
  8
画層0
  6
CONTINUOUS
 62
7
 10
144.279145079734
 20
176.000544281544
 40
1.60000000000002
  0
CIRCLE
  8
画層0
  6
CONTINUOUS
 62
7
 10
131.479145079734
 20
176.000544281544
 40
1.59999999999999
  0
LINE
  8
画層5
  6
BYLAYER
 62
7
 10
131.479145079734
 20
157.550544281544
 11
131.479145079734
 21
166.050544281544
  0
LINE
  8
画層5
  6
BYLAYER
 62
7
 10
127.229145079734
 20
161.800544281544
 11
135.729145079734
 21
161.800544281544
  0
LINE
  8
画層7
  6
BYLAYER
 62
7
 10
131.204145079734
 20
175.725544281544
 11
131.204145079734
 21
174.900544281544
  0
LINE
  8
画層7
  6
BYLAYER
 62
7
 10
131.754145079734
 20
174.900544281544
 11
131.754145079734
 21
175.725544281544
  0
LINE
  8
画層7
  6
BYLAYER
 62
7
 10
131.204145079734
 20
174.900544281544
 11
131.754145079734
 21
174.900544281544
  0
LINE
  8
画層7
  6
BYLAYER
 62
7
 10
130.379145079734
 20
176.275544281544
 11
130.379145079734
 21
175.725544281544
  0
LINE
  8
画層7
  6
BYLAYER
 62
7
 10
131.204145079734
 20
176.275544281544
 11
130.379145079734
 21
176.275544281544
  0
LINE
  8
画層7
  6
BYLAYER
 62
7
 10
130.379145079734
 20
175.725544281544
 11
131.204145079734
 21
175.725544281544
  0
LINE
  8
画層7
  6
BYLAYER
 62
7
 10
131.204145079734
 20
177.100544281544
 11
131.204145079734
 21
176.275544281544
  0
LINE
  8
画層7
  6
BYLAYER
 62
7
 10
131.754145079734
 20
177.100544281544
 11
131.204145079734
 21
177.100544281544
  0
LINE
  8
画層7
  6
BYLAYER
 62
7
 10
131.754145079734
 20
176.275544281544
 11
131.754145079734
 21
177.100544281544
  0
LINE
  8
画層7
  6
BYLAYER
 62
7
 10
132.579145079734
 20
176.275544281544
 11
131.754145079734
 21
176.275544281544
  0
LINE
  8
画層7
  6
BYLAYER
 62
7
 10
132.579145079734
 20
175.725544281544
 11
132.579145079734
 21
176.275544281544
  0
LINE
  8
画層7
  6
BYLAYER
 62
7
 10
131.754145079734
 20
175.725544281544
 11
132.579145079734
 21
175.725544281544
  0
CIRCLE
  8
画層0
  6
CONTINUOUS
 62
7
 10
137.879145079734
 20
168.900544281544
 40
2
  0
CIRCLE
  8
画層0
  6
CONTINUOUS
 62
7
 10
137.879145079734
 20
168.900544281544
 40
4
  0
LINE
  8
画層0
  6
CONTINUOUS
 62
7
 10
129.879145079734
 20
158.900544281544
 11
145.879145079734
 21
158.900544281544
  0
LINE
  8
画層0
  6
CONTINUOUS
 62
7
 10
129.879145079734
 20
178.900544281544
 11
145.879145079734
 21
178.900544281544
  0
LINE
  8
画層0
  6
CONTINUOUS
 62
7
 10
129.879145079734
 20
178.900544281544
 11
129.879145079734
 21
158.900544281544
  0
LINE
  8
画層0
  6
CONTINUOUS
 62
7
 10
145.879145079734
 20
177.844816191543
 11
129.879145079734
 21
177.844816191543
  0
LINE
  8
画層0
  6
CONTINUOUS
 62
7
 10
145.879145079734
 20
158.900544281544
 11
145.879145079734
 21
178.900544281544
  0
LINE
  8
画層0
  6
CONTINUOUS
 62
7
 10
129.879145079734
 20
159.956272371544
 11
145.879145079734
 21
159.956272371544
  0
LINE
  8
画層0
  6
CENTER
 62
7
 10
137.879145079734
 20
180.400544281544
 11
137.879145079734
 21
157.400544281544
  0
LINE
  8
画層0
  6
CENTER
 62
7
 10
117.248097814892
 20
168.900544281544
 11
158.583941234091
 21
168.900544281544
  0
CIRCLE
  8
画層0
  6
CONTINUOUS
 62
7
 10
137.879145079734
 20
168.900544281544
 40
7
  0
LINE
  8
画層0
  6
CENTER
 62
7
 10
131.479145079734
 20
178.550544281544
 11
131.479145079734
 21
159.250544281544
  0
LINE
  8
画層0
  6
CENTER
 62
7
 10
146.829145079734
 20
176.000544281544
 11
128.929145079734
 21
176.000544281544
  0
LINE
  8
画層0
  6
CENTER
 62
7
 10
144.279145079734
 20
159.250544281544
 11
144.279145079734
 21
178.550544281544
  0
LINE
  8
画層0
  6
CENTER
 62
7
 10
128.929145079734
 20
161.800544281544
 11
146.829145079734
 21
161.800544281544
  0
LINE
  8
画層0
  6
CONTINUOUS
 62
7
 10
129.879145079734
 20
176.900544281544
 11
122.179145079734
 21
176.900544281544
  0
LINE
  8
画層0
  6
CONTINUOUS
 62
7
 10
129.879145079734
 20
160.900544281544
 11
122.179145079734
 21
160.900544281544
  0
LINE
  8
画層0
  6
CONTINUOUS
 62
7
 10
145.879145079734
 20
176.900544281544
 11
153.579145079734
 21
176.900544281544
  0
LINE
  8
画層0
  6
CONTINUOUS
 62
7
 10
145.879145079734
 20
160.900544281544
 11
153.579145079734
 21
160.900544281544
  0
ARC
  8
画層0
  6
CONTINUOUS
 62
7
 10
127.862094030584
 20
172.900544281544
 40
6.9495257951869
 50
144.859821158984
 51
215.140178841017
  0
ARC
  8
画層0
  6
CONTINUOUS
 62
7
 10
127.862094030584
 20
164.900544281544
 40
6.9495257951869
 50
144.859821158983
 51
215.140178841016
  0
ARC
  8
画層0
  6
CONTINUOUS
 62
7
 10
116.496196128884
 20
164.900544281544
 40
6.949525795187
 50
324.859821158984
 51
35.1401788410167
  0
ARC
  8
画層0
  6
CONTINUOUS
 62
7
 10
159.262094030584
 20
172.900544281544
 40
6.94952579518696
 50
144.859821158984
 51
215.140178841016
  0
ARC
  8
画層0
  6
CONTINUOUS
 62
7
 10
147.896196128884
 20
172.900544281544
 40
6.9495257951869
 50
324.859821158983
 51
35.1401788410163
  0
ARC
  8
画層0
  6
CONTINUOUS
 62
7
 10
147.896196128884
 20
164.900544281544
 40
6.9495257951869
 50
324.859821158984
 51
35.1401788410173
  0
LINE
  8
画層1
  6
CONTINUOUS
 62
7
 10
137.879145079734
 20
83.1521675742781
 11
137.879145079734
 21
97.1572512758969
  0
LINE
  8
画層1
  6
CONTINUOUS
 62
7
 10
145.879145079734
 20
83.1521675742781
 11
145.879145079734
 21
101.091858426474
  0
LINE
  8
画層1
  6
CONTINUOUS
 62
7
 10
137.879145079734
 20
84.1521675742781
 11
145.879145079734
 21
84.1521675742781
  0
LINE
  8
画層1
  6
CONTINUOUS
 62
7
 10
134.879145079734
 20
84.1521675742781
 11
131.879145079734
 21
84.1521675742781
  0
LINE
  8
画層1
  6
CONTINUOUS
 62
7
 10
148.879145079734
 20
84.1521675742781
 11
151.879145079734
 21
84.1521675742781
  0
TEXT
  8
画層1
 62
7
  6
BYLAYER
 62
7
 10
141.49336858593
 20
84.6854675742781
 40
3.2
  1
8
  7
Font_0
 72
1
 11
142.29336858593
 21
86.285467574278
 73
2
  0
LINE
  8
画層0
  6
CONTINUOUS
 62
7
 10
134.879145079734
 20
84.9560145742781
 11
137.879145079734
 21
84.1521675742781
  0
LINE
  8
画層0
  6
CONTINUOUS
 62
7
 10
137.879145079734
 20
84.1521675742781
 11
134.879145079734
 21
83.3483205742781
  0
LINE
  8
画層0
  6
CONTINUOUS
 62
7
 10
137.879145079734
 20
84.1521675742781
 11
134.879145079734
 21
84.1521675742781
  0
LINE
  8
画層0
  6
CONTINUOUS
 62
7
 10
145.879145079734
 20
84.1521675742781
 11
148.879145079734
 21
84.1521675742781
  0
LINE
  8
画層1
  6
CONTINUOUS
 62
7
 10
168.479145079734
 20
94.7918584264739
 11
168.479145079734
 21
83.1521675742781
  0
LINE
  8
画層1
  6
CONTINUOUS
 62
7
 10
148.879145079734
 20
84.1521675742781
 11
165.479145079734
 21
84.1521675742781
  0
TEXT
  8
画層1
 62
7
  6
BYLAYER
 62
7
 10
153.979145079734
 20
84.6854675742781
 40
3.2
  1
22.6
  7
Font_0
 72
1
 11
157.179145079734
 21
86.285467574278
 73
2
  0
LINE
  8
画層0
  6
CONTINUOUS
 62
7
 10
148.879145079734
 20
83.348320574278
 11
145.879145079734
 21
84.1521675742781
  0
LINE
  8
画層0
  6
CONTINUOUS
 62
7
 10
145.879145079734
 20
84.1521675742781
 11
148.879145079734
 21
84.956014574278
  0
LINE
  8
画層0
  6
CONTINUOUS
 62
7
 10
145.879145079734
 20
84.1521675742781
 11
148.879145079734
 21
84.1521675742781
  0
LINE
  8
画層0
  6
CONTINUOUS
 62
7
 10
165.479145079734
 20
84.9560145742781
 11
168.479145079734
 21
84.1521675742781
  0
LINE
  8
画層0
  6
CONTINUOUS
 62
7
 10
168.479145079734
 20
84.1521675742781
 11
165.479145079734
 21
83.3483205742781
  0
LINE
  8
画層0
  6
CONTINUOUS
 62
7
 10
168.479145079734
 20
84.1521675742781
 11
165.479145079734
 21
84.1521675742781
  0
LINE
  8
画層0
  6
HIDDEN
 62
7
 10
133.879145079734
 20
133.291858426474
 11
133.879145079734
 21
121.591858426474
  0
LINE
  8
画層0
  6
HIDDEN
 62
7
 10
133.879145079734
 20
121.591858426474
 11
141.879145079734
 21
121.591858426474
  0
LINE
  8
画層0
  6
HIDDEN
 62
7
 10
141.879145079734
 20
133.291858426474
 11
141.879145079734
 21
121.591858426474
  0
POLYLINE
  8
画層0
 62
7
  6
CONTINUOUS
 10
0.0
 20
0.0
 30
0.0
 66
1
  0
VERTEX
  8
画層0
 10
152.449284973286
  20
139.369982253407
  0
VERTEX
  8
画層0
 10
154.101836953474
  20
139.369982253407
  0
SEQEND
100
AcDbEntity
  8
画層0
  0
LINE
  8
画層0
  6
CONTINUOUS
 62
7
 10
154.101836953474
 20
139.369982253407
 11
186.315170286807
 21
139.369982253407
  0
TEXT
  8
画層0
 62
7
  6
BYLAYER
 62
7
 10
154.101836953474
 20
139.769982253407
 40
3.2
  1
%%c8ライトガイド用
  7
Font_0
  0
LINE
  8
画層1
  6
CONTINUOUS
 62
7
 10
133.879145079734
 20
134.291858426474
 11
133.879145079734
 21
140.316619765067
  0
LINE
  8
画層1
  6
CONTINUOUS
 62
7
 10
141.879145079734
 20
134.291858426474
 11
141.879145079734
 21
140.316619765067
  0
LINE
  8
画層1
  6
CONTINUOUS
 62
7
 10
136.879145079734
 20
139.316619765067
 11
138.879145079734
 21
139.316619765067
  0
TEXT
  8
画層1
 62
7
  6
BYLAYER
 62
7
 10
135.479145079734
 20
139.849919765067
 40
3.2
  1
%%c8
  7
Font_0
 72
1
 11
137.879145079734
 21
141.449919765067
 73
2
  0
LINE
  8
画層0
  6
CONTINUOUS
 62
7
 10
136.879145079734
 20
138.512772765067
 11
133.879145079734
 21
139.316619765067
  0
LINE
  8
画層0
  6
CONTINUOUS
 62
7
 10
133.879145079734
 20
139.316619765067
 11
136.879145079734
 21
140.120466765067
  0
LINE
  8
画層0
  6
CONTINUOUS
 62
7
 10
133.879145079734
 20
139.316619765067
 11
136.879145079734
 21
139.316619765067
  0
LINE
  8
画層0
  6
CONTINUOUS
 62
7
 10
138.879145079734
 20
140.120466765067
 11
141.879145079734
 21
139.316619765067
  0
LINE
  8
画層0
  6
CONTINUOUS
 62
7
 10
141.879145079734
 20
139.316619765067
 11
138.879145079734
 21
138.512772765067
  0
LINE
  8
画層0
  6
CONTINUOUS
 62
7
 10
141.879145079734
 20
139.316619765067
 11
138.879145079734
 21
139.316619765067
  0
LINE
  8
画層1
  6
CONTINUOUS
 62
7
 10
130.879145079734
 20
133.791858426474
 11
130.879145079734
 21
146.250143789437
  0
LINE
  8
画層1
  6
CONTINUOUS
 62
7
 10
144.879145079734
 20
133.791858426474
 11
144.879145079734
 21
146.250143789437
  0
LINE
  8
画層1
  6
CONTINUOUS
 62
7
 10
133.879145079734
 20
145.250143789437
 11
141.879145079734
 21
145.250143789437
  0
TEXT
  8
画層1
 62
7
  6
BYLAYER
 62
7
 10
134.679145079734
 20
145.783443789437
 40
3.2
  1
%%c14
  7
Font_0
 72
1
 11
137.879145079734
 21
147.383443789437
 73
2
  0
LINE
  8
画層0
  6
CONTINUOUS
 62
7
 10
133.879145079734
 20
144.446296789437
 11
130.879145079734
 21
145.250143789437
  0
LINE
  8
画層0
  6
CONTINUOUS
 62
7
 10
130.879145079734
 20
145.250143789437
 11
133.879145079734
 21
146.053990789437
  0
LINE
  8
画層0
  6
CONTINUOUS
 62
7
 10
130.879145079734
 20
145.250143789437
 11
133.879145079734
 21
145.250143789437
  0
LINE
  8
画層0
  6
CONTINUOUS
 62
7
 10
141.879145079734
 20
146.053990789437
 11
144.879145079734
 21
145.250143789437
  0
LINE
  8
画層0
  6
CONTINUOUS
 62
7
 10
144.879145079734
 20
145.250143789437
 11
141.879145079734
 21
144.446296789437
  0
LINE
  8
画層0
  6
CONTINUOUS
 62
7
 10
144.879145079734
 20
145.250143789437
 11
141.879145079734
 21
145.250143789437
  0
LINE
  8
画層1
  6
CONTINUOUS
 62
7
 10
130.379145079734
 20
133.291858426474
 11
123.457770874613
 21
133.291858426474
  0
LINE
  8
画層1
  6
CONTINUOUS
 62
7
 10
128.779145079734
 20
118.791858426474
 11
123.457770874613
 21
118.791858426474
  0
LINE
  8
画層1
  6
CONTINUOUS
 62
7
 10
124.457770874613
 20
130.291858426474
 11
124.457770874613
 21
121.791858426474
  0
TEXT
  8
画層1
 62
7
  6
BYLAYER
 62
7
 10
123.924470874613
 20
122.841858426474
 40
3.2
  1
14.5
  7
Font_0
 50
90
 72
1
 11
122.324470874613
 21
126.041858426474
 73
2
  0
LINE
  8
画層0
  6
CONTINUOUS
 62
7
 10
123.653923874613
 20
130.291858426474
 11
124.457770874613
 21
133.291858426474
  0
LINE
  8
画層0
  6
CONTINUOUS
 62
7
 10
124.457770874613
 20
133.291858426474
 11
125.261617874613
 21
130.291858426474
  0
LINE
  8
画層0
  6
CONTINUOUS
 62
7
 10
124.457770874613
 20
133.291858426474
 11
124.457770874613
 21
130.291858426474
  0
LINE
  8
画層0
  6
CONTINUOUS
 62
7
 10
125.261617874613
 20
121.791858426474
 11
124.457770874613
 21
118.791858426474
  0
LINE
  8
画層0
  6
CONTINUOUS
 62
7
 10
124.457770874613
 20
118.791858426474
 11
123.653923874613
 21
121.791858426474
  0
LINE
  8
画層0
  6
CONTINUOUS
 62
7
 10
124.457770874613
 20
118.791858426474
 11
124.457770874613
 21
121.791858426474
  0
LINE
  8
画層1
  6
CONTINUOUS
 62
7
 10
235.837823830968
 20
141.291858426474
 11
231.607024462046
 21
141.291858426474
  0
LINE
  8
画層1
  6
CONTINUOUS
 62
7
 10
236.337823830968
 20
118.791858426474
 11
231.607024462046
 21
118.791858426474
  0
LINE
  8
画層1
  6
CONTINUOUS
 62
7
 10
232.607024462046
 20
138.291858426474
 11
232.607024462046
 21
121.791858426474
  0
TEXT
  8
画層1
 62
7
  6
BYLAYER
 62
7
 10
232.073724462046
 20
126.841858426474
 40
3.2
  1
22.5
  7
Font_0
 50
90
 72
1
 11
230.473724462046
 21
130.041858426474
 73
2
  0
LINE
  8
画層0
  6
CONTINUOUS
 62
7
 10
231.803177462046
 20
138.291858426474
 11
232.607024462046
 21
141.291858426474
  0
LINE
  8
画層0
  6
CONTINUOUS
 62
7
 10
232.607024462046
 20
141.291858426474
 11
233.410871462046
 21
138.291858426474
  0
LINE
  8
画層0
  6
CONTINUOUS
 62
7
 10
232.607024462046
 20
141.291858426474
 11
232.607024462046
 21
138.291858426474
  0
LINE
  8
画層0
  6
CONTINUOUS
 62
7
 10
233.410871462046
 20
121.791858426474
 11
232.607024462046
 21
118.791858426474
  0
LINE
  8
画層0
  6
CONTINUOUS
 62
7
 10
232.607024462046
 20
118.791858426474
 11
231.803177462046
 21
121.791858426474
  0
LINE
  8
画層0
  6
CONTINUOUS
 62
7
 10
232.607024462046
 20
118.791858426474
 11
232.607024462046
 21
121.791858426474
  0
LINE
  8
画層0
  6
CONTINUOUS
 62
7
 10
230.477458640996
 20
161.571801830823
 11
264.824125307663
 21
161.571801830823
  0
TEXT
  8
画層0
 62
7
  6
BYLAYER
 62
7
 10
230.477458640996
 20
161.971801830823
 40
3.2
  1
%%c12ライトガイド用
  7
Font_0
  0
POLYLINE
  8
画層0
 62
7
  6
CONTINUOUS
 10
0.0
 20
0.0
 30
0.0
 66
1
  0
VERTEX
  8
画層0
 10
229.106260822803
  20
161.571801830823
  0
VERTEX
  8
画層0
 10
230.477458640996
  20
161.571801830823
  0
SEQEND
100
AcDbEntity
  8
画層0
  0
LINE
  8
画層1
  6
CONTINUOUS
 62
7
 10
236.337823830968
 20
141.791858426474
 11
236.337823830968
 21
153.755565530173
  0
LINE
  8
画層1
  6
CONTINUOUS
 62
7
 10
254.337823830968
 20
141.791858426474
 11
254.337823830968
 21
153.755565530173
  0
LINE
  8
画層1
  6
CONTINUOUS
 62
7
 10
239.337823830968
 20
152.755565530173
 11
251.337823830968
 21
152.755565530173
  0
TEXT
  8
画層1
 62
7
  6
BYLAYER
 62
7
 10
242.137823830968
 20
153.288865530173
 40
3.2
  1
%%c18
  7
Font_0
 72
1
 11
245.337823830968
 21
154.888865530173
 73
2
  0
LINE
  8
画層0
  6
CONTINUOUS
 62
7
 10
239.337823830968
 20
151.951718530173
 11
236.337823830968
 21
152.755565530173
  0
LINE
  8
画層0
  6
CONTINUOUS
 62
7
 10
236.337823830968
 20
152.755565530173
 11
239.337823830968
 21
153.559412530173
  0
LINE
  8
画層0
  6
CONTINUOUS
 62
7
 10
236.337823830968
 20
152.755565530173
 11
239.337823830968
 21
152.755565530173
  0
LINE
  8
画層0
  6
CONTINUOUS
 62
7
 10
251.337823830968
 20
153.559412530173
 11
254.337823830968
 21
152.755565530173
  0
LINE
  8
画層0
  6
CONTINUOUS
 62
7
 10
254.337823830968
 20
152.755565530173
 11
251.337823830968
 21
151.951718530173
  0
LINE
  8
画層0
  6
CONTINUOUS
 62
7
 10
254.337823830968
 20
152.755565530173
 11
251.337823830968
 21
152.755565530173
  0
LINE
  8
画層1
  6
CONTINUOUS
 62
7
 10
239.337823830968
 20
142.291858426474
 11
239.337823830968
 21
148.514642195501
  0
LINE
  8
画層1
  6
CONTINUOUS
 62
7
 10
251.337823830968
 20
142.291858426474
 11
251.337823830968
 21
148.514642195501
  0
LINE
  8
画層1
  6
CONTINUOUS
 62
7
 10
242.337823830968
 20
147.514642195501
 11
248.337823830968
 21
147.514642195501
  0
TEXT
  8
画層1
 62
7
  6
BYLAYER
 62
7
 10
242.137823830968
 20
148.047942195501
 40
3.2
  1
%%c12
  7
Font_0
 72
1
 11
245.337823830968
 21
149.647942195501
 73
2
  0
LINE
  8
画層0
  6
CONTINUOUS
 62
7
 10
242.337823830968
 20
146.710795195501
 11
239.337823830968
 21
147.514642195501
  0
LINE
  8
画層0
  6
CONTINUOUS
 62
7
 10
239.337823830968
 20
147.514642195501
 11
242.337823830968
 21
148.318489195501
  0
LINE
  8
画層0
  6
CONTINUOUS
 62
7
 10
239.337823830968
 20
147.514642195501
 11
242.337823830968
 21
147.514642195501
  0
LINE
  8
画層0
  6
CONTINUOUS
 62
7
 10
248.337823830968
 20
148.318489195501
 11
251.337823830968
 21
147.514642195501
  0
LINE
  8
画層0
  6
CONTINUOUS
 62
7
 10
251.337823830968
 20
147.514642195501
 11
248.337823830968
 21
146.710795195501
  0
LINE
  8
画層0
  6
CONTINUOUS
 62
7
 10
251.337823830968
 20
147.514642195501
 11
248.337823830968
 21
147.514642195501
  0
LINE
  8
画層0
  6
CONTINUOUS
 62
7
 10
237.337823830968
 20
102.791858426474
 11
229.637823830968
 21
102.791858426474
  0
LINE
  8
画層0
  6
CONTINUOUS
 62
7
 10
229.637823830968
 20
118.791858426474
 11
261.037823830968
 21
118.791858426474
  0
LINE
  8
画層0
  6
CENTER
 62
7
 10
224.706776566126
 20
110.791858426474
 11
266.042619985325
 21
110.791858426474
  0
LINE
  8
画層0
  6
CONTINUOUS
 62
7
 10
253.337823830968
 20
102.791858426474
 11
261.037823830968
 21
102.791858426474
  0
ARC
  8
画層0
  6
CONTINUOUS
 62
7
 10
255.354874880118
 20
106.791858426474
 40
6.94952579518699
 50
324.859821158981
 51
35.1401788410198
  0
ARC
  8
画層0
  6
CONTINUOUS
 62
7
 10
255.354874880118
 20
114.791858426474
 40
6.9495257951869
 50
324.85982115898
 51
35.1401788410192
  0
ARC
  8
画層0
  6
CONTINUOUS
 62
7
 10
266.720772781818
 20
114.791858426474
 40
6.94952579518696
 50
144.859821158981
 51
215.14017884102
  0
ARC
  8
画層0
  6
CONTINUOUS
 62
7
 10
223.954874880118
 20
106.791858426474
 40
6.94952579518696
 50
324.859821158981
 51
35.1401788410195
  0
ARC
  8
画層0
  6
CONTINUOUS
 62
7
 10
235.320772781819
 20
106.791858426474
 40
6.94952579518687
 50
144.85982115898
 51
215.140178841019
  0
ARC
  8
画層0
  6
CONTINUOUS
 62
7
 10
235.320772781819
 20
114.791858426474
 40
6.94952579518687
 50
144.85982115898
 51
215.14017884102
  0
LINE
  8
画層0
  6
CONTINUOUS
 62
7
 10
253.337823830968
 20
102.091858426474
 11
253.337823830968
 21
120.491858426474
  0
LINE
  8
画層0
  6
CONTINUOUS
 62
7
 10
237.337823830968
 20
102.091858426474
 11
237.337823830968
 21
120.491858426474
  0
LINE
  8
画層0
  6
CONTINUOUS
 62
7
 10
237.337823830968
 20
102.091858426474
 11
237.637823830968
 21
101.791858426474
  0
LINE
  8
画層0
  6
CONTINUOUS
 62
7
 10
253.037823830968
 20
101.791858426474
 11
253.337823830968
 21
102.091858426474
  0
LINE
  8
画層0
  6
CONTINUOUS
 62
7
 10
237.337823830968
 20
102.85460449328
 11
253.337823830968
 21
102.85460449328
  0
LINE
  8
画層0
  6
CONTINUOUS
 62
7
 10
253.037823830968
 20
101.791858426474
 11
237.637823830968
 21
101.791858426474
  0
LINE
  8
画層0
  6
CONTINUOUS
 62
7
 10
236.337823830968
 20
140.791858426474
 11
236.837823830968
 21
141.291858426474
  0
LINE
  8
画層0
  6
CONTINUOUS
 62
7
 10
236.337823830968
 20
135.791858426474
 11
236.337823830968
 21
140.791858426474
  0
LINE
  8
画層0
  6
CONTINUOUS
 62
7
 10
236.837823830968
 20
135.291858426474
 11
236.337823830968
 21
135.791858426474
  0
LINE
  8
画層0
  6
CONTINUOUS
 62
7
 10
236.837823830968
 20
135.291858426474
 11
253.837823830968
 21
135.291858426474
  0
LINE
  8
画層0
  6
CONTINUOUS
 62
7
 10
238.337823830968
 20
135.291858426474
 11
238.337823830968
 21
120.791858426474
  0
LINE
  8
画層0
  6
HIDDEN
 62
7
 10
239.337823830968
 20
121.591858426474
 11
251.337823830968
 21
121.591858426474
  0
LINE
  8
画層0
  6
HIDDEN
 62
7
 10
239.337823830968
 20
121.591858426474
 11
239.337823830968
 21
141.291858426474
  0
LINE
  8
画層0
  6
CONTINUOUS
 62
7
 10
236.837823830968
 20
141.291858426474
 11
253.837823830968
 21
141.291858426474
  0
LINE
  8
画層0
  6
CONTINUOUS
 62
7
 10
253.837823830968
 20
141.291858426474
 11
254.337823830968
 21
140.791858426474
  0
CIRCLE
  8
画層0
  6
CONTINUOUS
 62
7
 10
245.337823830968
 20
138.291858426474
 40
1.25
  0
CIRCLE
  8
画層0
  6
CONTINUOUS
 62
7
 10
245.337823830968
 20
138.291858426474
 40
1.5
  0
LINE
  8
画層0
  6
CENTER
 62
7
 10
248.337823830968
 20
138.291858426474
 11
242.337823830968
 21
138.291858426474
  0
LINE
  8
画層0
  6
CENTER
 62
7
 10
245.337823830968
 20
144.791858426474
 11
245.337823830968
 21
98.1572512758969
  0
LINE
  8
画層0
  6
CONTINUOUS
 62
7
 10
254.337823830968
 20
140.791858426474
 11
254.337823830968
 21
135.791858426474
  0
LINE
  8
画層0
  6
CONTINUOUS
 62
7
 10
253.837823830968
 20
135.291858426474
 11
254.337823830968
 21
135.791858426474
  0
LINE
  8
画層0
  6
CONTINUOUS
 62
7
 10
252.337823830968
 20
135.291858426474
 11
252.337823830968
 21
120.791858426474
  0
LINE
  8
画層0
  6
HIDDEN
 62
7
 10
251.337823830968
 20
121.591858426474
 11
251.337823830968
 21
141.291858426474
  0
LINE
  8
画層0
  6
CONTINUOUS
 62
7
 10
253.037823830968
 20
120.791858426474
 11
237.637823830968
 21
120.791858426474
  0
LINE
  8
画層0
  6
CONTINUOUS
 62
7
 10
253.337823830968
 20
120.491858426474
 11
253.037823830968
 21
120.791858426474
  0
LINE
  8
画層0
  6
CONTINUOUS
 62
7
 10
237.337823830968
 20
120.491858426474
 11
237.637823830968
 21
120.791858426474
  0
TEXT
  8
画層0
 62
7
  6
BYLAYER
 62
7
 10
223.786037560357
 20
90.6208166781491
 40
3.2
  1
製品名：ＫＣＭ－２Ｄ－６５Ｃ
  7
Font_0
  0
TEXT
  8
画層0
 62
7
  6
BYLAYER
 62
7
 10
229.862248891415
 20
85.595882685044
 40
3.2
  1
（カスタム対応可能）
  7
Font_0
  0
POLYLINE
  8
画層0
  6
CONTINUOUS
 10
0.0
 20
0.0
 30
0.0
 66
1
 70
     1
  0
VERTEX
  8
画層0
 10
275.337823830968
  20
171.591858426474
  0
VERTEX
  8
画層0
 10
215.337823830968
  20
171.591858426474
  0
VERTEX
  8
画層0
 10
215.337823830968
  20
71.5918584264738
  0
VERTEX
  8
画層0
 10
275.337823830968
  20
71.5918584264738
  0
SEQEND
100
AcDbEntity
  8
画層0
  0
ENDSEC
  0
EOF
